  0
SECTION
  2
HEADER
  9
$ACADVER
  1
AC1027
  9
$ACADMAINTVER
 70
   125
  9
$DWGCODEPAGE
  3
ANSI_1252
  9
$LASTSAVEDBY
  1
fleminab
  9
$REQUIREDVERSIONS
160
                 0
  9
$INSBASE
 10
0.0
 20
0.0
 30
0.0
  9
$EXTMIN
 10
2.001287530667198
 20
0.2380029572300017
 30
-0.0000000349181948
  9
$EXTMAX
 10
14.67616843197633
 20
12.28862091824502
 30
0.0000000814935746
  9
$LIMMIN
 10
0.0
 20
0.0
  9
$LIMMAX
 10
12.0
 20
9.0
  9
$ORTHOMODE
 70
     0
  9
$REGENMODE
 70
     1
  9
$FILLMODE
 70
     1
  9
$QTEXTMODE
 70
     0
  9
$MIRRTEXT
 70
     0
  9
$LTSCALE
 40
1.0
  9
$ATTMODE
 70
     1
  9
$TEXTSIZE
 40
0.2
  9
$TRACEWID
 40
0.05
  9
$TEXTSTYLE
  7
Standard
  9
$CLAYER
  8
0
  9
$CELTYPE
  6
ByLayer
  9
$CECOLOR
 62
   256
  9
$CELTSCALE
 40
1.0
  9
$DISPSILH
 70
     0
  9
$DIMSCALE
 40
1.0
  9
$DIMASZ
 40
0.18
  9
$DIMEXO
 40
0.0625
  9
$DIMDLI
 40
0.38
  9
$DIMRND
 40
0.0
  9
$DIMDLE
 40
0.0
  9
$DIMEXE
 40
0.18
  9
$DIMTP
 40
0.0
  9
$DIMTM
 40
0.0
  9
$DIMTXT
 40
0.18
  9
$DIMCEN
 40
0.09
  9
$DIMTSZ
 40
0.0
  9
$DIMTOL
 70
     0
  9
$DIMLIM
 70
     0
  9
$DIMTIH
 70
     1
  9
$DIMTOH
 70
     1
  9
$DIMSE1
 70
     0
  9
$DIMSE2
 70
     0
  9
$DIMTAD
 70
     0
  9
$DIMZIN
 70
     0
  9
$DIMBLK
  1

  9
$DIMASO
 70
     1
  9
$DIMSHO
 70
     1
  9
$DIMPOST
  1

  9
$DIMAPOST
  1

  9
$DIMALT
 70
     0
  9
$DIMALTD
 70
     2
  9
$DIMALTF
 40
25.4
  9
$DIMLFAC
 40
1.0
  9
$DIMTOFL
 70
     0
  9
$DIMTVP
 40
0.0
  9
$DIMTIX
 70
     0
  9
$DIMSOXD
 70
     0
  9
$DIMSAH
 70
     0
  9
$DIMBLK1
  1

  9
$DIMBLK2
  1

  9
$DIMSTYLE
  2
Standard
  9
$DIMCLRD
 70
     0
  9
$DIMCLRE
 70
     0
  9
$DIMCLRT
 70
     0
  9
$DIMTFAC
 40
1.0
  9
$DIMGAP
 40
0.09
  9
$DIMJUST
 70
     0
  9
$DIMSD1
 70
     0
  9
$DIMSD2
 70
     0
  9
$DIMTOLJ
 70
     1
  9
$DIMTZIN
 70
     0
  9
$DIMALTZ
 70
     0
  9
$DIMALTTZ
 70
     0
  9
$DIMUPT
 70
     0
  9
$DIMDEC
 70
     4
  9
$DIMTDEC
 70
     4
  9
$DIMALTU
 70
     2
  9
$DIMALTTD
 70
     2
  9
$DIMTXSTY
  7
Standard
  9
$DIMAUNIT
 70
     0
  9
$DIMADEC
 70
     0
  9
$DIMALTRND
 40
0.0
  9
$DIMAZIN
 70
     0
  9
$DIMDSEP
 70
    46
  9
$DIMATFIT
 70
     3
  9
$DIMFRAC
 70
     0
  9
$DIMLDRBLK
  1

  9
$DIMLUNIT
 70
     2
  9
$DIMLWD
 70
    -2
  9
$DIMLWE
 70
    -2
  9
$DIMTMOVE
 70
     0
  9
$DIMFXL
 40
1.0
  9
$DIMFXLON
 70
     0
  9
$DIMJOGANG
 40
0.7853981633974483
  9
$DIMTFILL
 70
     0
  9
$DIMTFILLCLR
 70
     0
  9
$DIMARCSYM
 70
     0
  9
$DIMLTYPE
  6

  9
$DIMLTEX1
  6

  9
$DIMLTEX2
  6

  9
$DIMTXTDIRECTION
 70
     0
  9
$LUNITS
 70
     2
  9
$LUPREC
 70
     4
  9
$SKETCHINC
 40
0.1
  9
$FILLETRAD
 40
0.0
  9
$AUNITS
 70
     0
  9
$AUPREC
 70
     0
  9
$MENU
  1
.
  9
$ELEVATION
 40
0.0
  9
$PELEVATION
 40
0.0
  9
$THICKNESS
 40
0.0
  9
$LIMCHECK
 70
     0
  9
$CHAMFERA
 40
0.0
  9
$CHAMFERB
 40
0.0
  9
$CHAMFERC
 40
0.0
  9
$CHAMFERD
 40
0.0
  9
$SKPOLY
 70
     0
  9
$TDCREATE
 40
2458248.482615741
  9
$TDUCREATE
 40
2458248.065949074
  9
$TDUPDATE
 40
2458248.482916667
  9
$TDUUPDATE
 40
2458248.066250000
  9
$TDINDWG
 40
0.0003009259
  9
$TDUSRTIMER
 40
0.0003009259
  9
$USRTIMER
 70
     1
  9
$ANGBASE
 50
0.0
  9
$ANGDIR
 70
     0
  9
$PDMODE
 70
     0
  9
$PDSIZE
 40
0.0
  9
$PLINEWID
 40
0.0
  9
$SPLFRAME
 70
     0
  9
$SPLINETYPE
 70
     6
  9
$SPLINESEGS
 70
     8
  9
$HANDSEED
  5
250
  9
$SURFTAB1
 70
     6
  9
$SURFTAB2
 70
     6
  9
$SURFTYPE
 70
     6
  9
$SURFU
 70
     6
  9
$SURFV
 70
     6
  9
$UCSBASE
  2

  9
$UCSNAME
  2

  9
$UCSORG
 10
0.0
 20
0.0
 30
0.0
  9
$UCSXDIR
 10
1.0
 20
0.0
 30
0.0
  9
$UCSYDIR
 10
0.0
 20
1.0
 30
0.0
  9
$UCSORTHOREF
  2

  9
$UCSORTHOVIEW
 70
     0
  9
$UCSORGTOP
 10
0.0
 20
0.0
 30
0.0
  9
$UCSORGBOTTOM
 10
0.0
 20
0.0
 30
0.0
  9
$UCSORGLEFT
 10
0.0
 20
0.0
 30
0.0
  9
$UCSORGRIGHT
 10
0.0
 20
0.0
 30
0.0
  9
$UCSORGFRONT
 10
0.0
 20
0.0
 30
0.0
  9
$UCSORGBACK
 10
0.0
 20
0.0
 30
0.0
  9
$PUCSBASE
  2

  9
$PUCSNAME
  2

  9
$PUCSORG
 10
0.0
 20
0.0
 30
0.0
  9
$PUCSXDIR
 10
1.0
 20
0.0
 30
0.0
  9
$PUCSYDIR
 10
0.0
 20
1.0
 30
0.0
  9
$PUCSORTHOREF
  2

  9
$PUCSORTHOVIEW
 70
     0
  9
$PUCSORGTOP
 10
0.0
 20
0.0
 30
0.0
  9
$PUCSORGBOTTOM
 10
0.0
 20
0.0
 30
0.0
  9
$PUCSORGLEFT
 10
0.0
 20
0.0
 30
0.0
  9
$PUCSORGRIGHT
 10
0.0
 20
0.0
 30
0.0
  9
$PUCSORGFRONT
 10
0.0
 20
0.0
 30
0.0
  9
$PUCSORGBACK
 10
0.0
 20
0.0
 30
0.0
  9
$USERI1
 70
     0
  9
$USERI2
 70
     0
  9
$USERI3
 70
     0
  9
$USERI4
 70
     0
  9
$USERI5
 70
     0
  9
$USERR1
 40
0.0
  9
$USERR2
 40
0.0
  9
$USERR3
 40
0.0
  9
$USERR4
 40
0.0
  9
$USERR5
 40
0.0
  9
$WORLDVIEW
 70
     1
  9
$SHADEDGE
 70
     3
  9
$SHADEDIF
 70
    70
  9
$TILEMODE
 70
     1
  9
$MAXACTVP
 70
    64
  9
$PINSBASE
 10
0.0
 20
0.0
 30
0.0
  9
$PLIMCHECK
 70
     0
  9
$PEXTMIN
 10
1.000000000000000E+20
 20
1.000000000000000E+20
 30
1.000000000000000E+20
  9
$PEXTMAX
 10
-1.000000000000000E+20
 20
-1.000000000000000E+20
 30
-1.000000000000000E+20
  9
$PLIMMIN
 10
-0.7524054877282309
 20
-0.5025428238148726
  9
$PLIMMAX
 10
35.24759547345533
 20
23.49745621500156
  9
$UNITMODE
 70
     0
  9
$VISRETAIN
 70
     1
  9
$PLINEGEN
 70
     0
  9
$PSLTSCALE
 70
     1
  9
$TREEDEPTH
 70
  3020
  9
$CMLSTYLE
  2
Standard
  9
$CMLJUST
 70
     0
  9
$CMLSCALE
 40
1.0
  9
$PROXYGRAPHICS
 70
     1
  9
$MEASUREMENT
 70
     0
  9
$CELWEIGHT
370
    -1
  9
$ENDCAPS
280
     0
  9
$JOINSTYLE
280
     0
  9
$LWDISPLAY
290
     0
  9
$INSUNITS
 70
     1
  9
$HYPERLINKBASE
  1

  9
$STYLESHEET
  1

  9
$XEDIT
290
     1
  9
$CEPSNTYPE
380
     0
  9
$PSTYLEMODE
290
     1
  9
$FINGERPRINTGUID
  2
{87F53C79-2EB5-4545-B5DA-473A712114B2}
  9
$VERSIONGUID
  2
{7A9725F6-1A36-6844-BD80-152633206223}
  9
$EXTNAMES
290
     1
  9
$PSVPSCALE
 40
0.0
  9
$OLESTARTUP
290
     0
  9
$SORTENTS
280
   127
  9
$INDEXCTL
280
     0
  9
$HIDETEXT
280
     0
  9
$XCLIPFRAME
280
     0
  9
$HALOGAP
280
     0
  9
$OBSCOLOR
 70
   257
  9
$OBSLTYPE
280
     0
  9
$INTERSECTIONDISPLAY
280
     0
  9
$INTERSECTIONCOLOR
 70
   257
  9
$DIMASSOC
280
     1
  9
$PROJECTNAME
  1

  9
$CAMERADISPLAY
290
     0
  9
$LENSLENGTH
 40
50.0
  9
$CAMERAHEIGHT
 40
0.0
  9
$STEPSPERSEC
 40
2.0
  9
$STEPSIZE
 40
6.0
  9
$3DDWFPREC
 40
2.0
  9
$PSOLWIDTH
 40
0.25
  9
$PSOLHEIGHT
 40
4.0
  9
$LOFTANG1
 40
1.570796326794896
  9
$LOFTANG2
 40
1.570796326794896
  9
$LOFTMAG1
 40
0.0
  9
$LOFTMAG2
 40
0.0
  9
$LOFTPARAM
 70
     7
  9
$LOFTNORMALS
280
     1
  9
$LATITUDE
 40
37.795
  9
$LONGITUDE
 40
-122.394
  9
$NORTHDIRECTION
 40
0.0
  9
$TIMEZONE
 70
 -8000
  9
$LIGHTGLYPHDISPLAY
280
     1
  9
$TILEMODELIGHTSYNCH
280
     1
  9
$CMATERIAL
347
7F
  9
$SOLIDHIST
280
     1
  9
$SHOWHIST
280
     1
  9
$DWFFRAME
280
     2
  9
$DGNFRAME
280
     0
  9
$REALWORLDSCALE
290
     1
  9
$INTERFERECOLOR
 62
     1
  9
$INTERFEREOBJVS
345
8C
  9
$INTERFEREVPVS
346
A5
  9
$CSHADOW
280
     0
  9
$SHADOWPLANELOCATION
 40
0.0
  0
ENDSEC
  0
SECTION
  2
CLASSES
  0
CLASS
  1
ACDBDICTIONARYWDFLT
  2
AcDbDictionaryWithDefault
  3
ObjectDBX Classes
 90
        0
 91
        1
280
     0
281
     0
  0
CLASS
  1
PLOTSETTINGS
  2
AcDbPlotSettings
  3
ObjectDBX Classes
 90
        0
 91
        0
280
     0
281
     0
  0
CLASS
  1
MATERIAL
  2
AcDbMaterial
  3
ObjectDBX Classes
 90
     1153
 91
        3
280
     0
281
     0
  0
CLASS
  1
VISUALSTYLE
  2
AcDbVisualStyle
  3
ObjectDBX Classes
 90
     4095
 91
       26
280
     0
281
     0
  0
CLASS
  1
TABLESTYLE
  2
AcDbTableStyle
  3
ObjectDBX Classes
 90
     4095
 91
        1
280
     0
281
     0
  0
CLASS
  1
DICTIONARYVAR
  2
AcDbDictionaryVar
  3
ObjectDBX Classes
 90
        0
 91
       17
280
     0
281
     0
  0
CLASS
  1
SCALE
  2
AcDbScale
  3
ObjectDBX Classes
 90
     1153
 91
       17
280
     0
281
     0
  0
CLASS
  1
MLEADERSTYLE
  2
AcDbMLeaderStyle
  3
ACDB_MLEADERSTYLE_CLASS
 90
     4095
 91
        1
280
     0
281
     0
  0
CLASS
  1
ACDBSECTIONVIEWSTYLE
  2
AcDbSectionViewStyle
  3
ObjectDBX Classes
 90
     1025
 91
        1
280
     0
281
     0
  0
CLASS
  1
ACDBDETAILVIEWSTYLE
  2
AcDbDetailViewStyle
  3
ObjectDBX Classes
 90
     1025
 91
        1
280
     0
281
     0
  0
CLASS
  1
CELLSTYLEMAP
  2
AcDbCellStyleMap
  3
ObjectDBX Classes
 90
     1152
 91
        1
280
     0
281
     0
  0
ENDSEC
  0
SECTION
  2
TABLES
  0
TABLE
  2
VPORT
  5
19
330
0
100
AcDbSymbolTable
 70
     1
1001
ACAD
1000
DbSaveVer
1071
        5
  0
VPORT
  5
7D
330
19
100
AcDbSymbolTableRecord
100
AcDbViewportTableRecord
  2
*Active
 70
     0
 10
0.0
 20
0.0
 11
1.0
 21
1.0
 12
8.338727981321767
 22
6.263311937737512
 13
0.0
 23
0.0
 14
0.5
 24
0.5
 15
0.5
 25
0.5
 16
0.0
 26
0.0
 36
1.0
 17
0.0
 27
0.0
 37
0.0
 40
12.1368992351989
 41
2.292712066905615
 42
50.0
 43
0.0
 44
0.0
 50
0.0
 51
0.0
 71
     0
 72
  1000
 73
     1
 74
     3
 75
     0
 76
     0
 77
     0
 78
     0
281
     0
 65
     1
110
0.0
120
0.0
130
0.0
111
1.0
121
0.0
131
0.0
112
0.0
122
1.0
132
0.0
 79
     0
146
0.0
348
88
 60
     3
 61
     5
292
     1
282
     1
141
0.0
142
0.0
 63
   250
421
  3355443
1001
ACAD_NAV_VCDISPLAY
1070
     3
  0
ENDTAB
  0
TABLE
  2
LTYPE
  5
14
330
0
100
AcDbSymbolTable
 70
     1
  0
LTYPE
  5
15
330
14
100
AcDbSymbolTableRecord
100
AcDbLinetypeTableRecord
  2
ByBlock
 70
     0
  3

 72
    65
 73
     0
 40
0.0
  0
LTYPE
  5
16
330
14
100
AcDbSymbolTableRecord
100
AcDbLinetypeTableRecord
  2
ByLayer
 70
     0
  3

 72
    65
 73
     0
 40
0.0
  0
LTYPE
  5
8
330
14
100
AcDbSymbolTableRecord
100
AcDbLinetypeTableRecord
  2
Continuous
 70
     0
  3
Solid line
 72
    65
 73
     0
 40
0.0
  0
ENDTAB
  0
TABLE
  2
LAYER
  5
10
330
0
100
AcDbSymbolTable
 70
     4
  0
LAYER
  5
4
102
{ACAD_XDICTIONARY
360
22B
102
}
330
10
100
AcDbSymbolTableRecord
100
AcDbLayerTableRecord
  2
0
 70
     0
 62
     7
  6
Continuous
370
    -3
390
5
347
81
348
0
  0
LAYER
  5
25
102
{ACAD_XDICTIONARY
360
22D
102
}
330
10
100
AcDbSymbolTableRecord
100
AcDbLayerTableRecord
  2
Title Block
 70
     0
 62
     7
  6
Continuous
370
    -3
390
5
347
81
348
0
  0
LAYER
  5
CE
102
{ACAD_XDICTIONARY
360
22F
102
}
330
10
100
AcDbSymbolTableRecord
100
AcDbLayerTableRecord
  2
PDF_Layer 1
 70
     0
 62
    28
420
  1052429
  6
Continuous
370
    -3
390
5
347
81
348
0
  0
LAYER
  5
E1
102
{ACAD_XDICTIONARY
360
231
102
}
330
10
100
AcDbSymbolTableRecord
100
AcDbLayerTableRecord
  2
PDF_Text
 70
     0
 62
   250
420
  2301728
  6
Continuous
370
    -3
390
5
347
81
348
0
  0
ENDTAB
  0
TABLE
  2
STYLE
  5
11
330
0
100
AcDbSymbolTable
 70
     3
  0
STYLE
  5
12
330
11
100
AcDbSymbolTableRecord
100
AcDbTextStyleTableRecord
  2
Standard
 70
     0
 40
0.0
 41
1.0
 50
0.0
 71
     0
 42
0.2
  3
txt
  4

  0
STYLE
  5
27
330
11
100
AcDbSymbolTableRecord
100
AcDbTextStyleTableRecord
  2
Roman
 70
     0
 40
0.0
 41
1.0
 50
0.0
 71
     0
 42
0.2
  3
ROMANS.SHX
  4

  0
STYLE
  5
E0
330
11
100
AcDbSymbolTableRecord
100
AcDbTextStyleTableRecord
  2
PDF Arial
 70
     0
 40
0.0
 41
1.0
 50
0.0
 71
     0
 42
0.2
  3
arial.ttf
  4

1001
ACAD
1000
Arial
1071
       34
  0
ENDTAB
  0
TABLE
  2
VIEW
  5
17
330
0
100
AcDbSymbolTable
 70
     0
  0
ENDTAB
  0
TABLE
  2
UCS
  5
18
330
0
100
AcDbSymbolTable
 70
     0
  0
ENDTAB
  0
TABLE
  2
APPID
  5
1B
330
0
100
AcDbSymbolTable
 70
     2
  0
APPID
  5
1C
330
1B
100
AcDbSymbolTableRecord
100
AcDbRegAppTableRecord
  2
ACAD
 70
     0
  0
APPID
  5
233
330
1B
100
AcDbSymbolTableRecord
100
AcDbRegAppTableRecord
  2
ACAD_NAV_VCDISPLAY
 70
     0
  0
ENDTAB
  0
TABLE
  2
DIMSTYLE
  5
1D
330
0
100
AcDbSymbolTable
 70
     1
100
AcDbDimStyleTable
 71
     0
  0
DIMSTYLE
105
23
330
1D
100
AcDbSymbolTableRecord
100
AcDbDimStyleTableRecord
  2
Standard
 70
     0
340
12
  0
ENDTAB
  0
TABLE
  2
BLOCK_RECORD
  5
1
330
0
100
AcDbSymbolTable
 70
     0
  0
BLOCK_RECORD
  5
2
330
1
100
AcDbSymbolTableRecord
100
AcDbBlockTableRecord
  2
*Model_Space
340
A
 70
     0
280
     1
281
     0
  0
BLOCK_RECORD
  5
C
330
1
100
AcDbSymbolTableRecord
100
AcDbBlockTableRecord
  2
*Paper_Space
340
F
 70
     0
280
     1
281
     0
  0
ENDTAB
  0
ENDSEC
  0
SECTION
  2
BLOCKS
  0
BLOCK
  5
3
330
2
100
AcDbEntity
  8
0
100
AcDbBlockBegin
  2
*Model_Space
 70
     2
 10
0.0
 20
0.0
 30
0.0
  3
*Model_Space
  1

  0
ENDBLK
  5
9
330
2
100
AcDbEntity
  8
0
100
AcDbBlockEnd
  0
BLOCK
  5
D
330
C
100
AcDbEntity
 67
     1
  8
0
100
AcDbBlockBegin
  2
*Paper_Space
 70
     0
 10
0.0
 20
0.0
 30
0.0
  3
*Paper_Space
  1

  0
ENDBLK
  5
E
330
C
100
AcDbEntity
 67
     1
  8
0
100
AcDbBlockEnd
  0
ENDSEC
  0
SECTION
  2
ENTITIES
  0
SOLID
  5
CF
330
2
100
AcDbEntity
  8
PDF_Layer 1
 62
     7
420
 16777215
440
 33554559
370
    25
100
AcDbTrace
 10
12.04966944444444
 20
0.3377277777777778
 30
0.0
 11
12.06607222222222
 21
0.2991583333333334
 31
0.0
 12
12.14111388888889
 22
0.2991583333333334
 32
0.0
 13
12.04966944444444
 23
0.260575
 33
0.0
  0
SOLID
  5
D0
330
2
100
AcDbEntity
  8
PDF_Layer 1
 62
     7
420
 16777215
440
 33554559
370
    25
100
AcDbTrace
 10
3.243951388888888
 20
0.3377277777777778
 30
0.0
 11
3.227562499999999
 21
0.2991583333333334
 31
0.0
 12
3.152506944444443
 22
0.2991583333333334
 32
0.0
 13
3.243951388888888
 23
0.260575
 33
0.0
  0
SOLID
  5
D1
330
2
100
AcDbEntity
  8
PDF_Layer 1
 62
     7
420
 16777215
440
 33554559
370
    25
100
AcDbTrace
 10
12.51197638888889
 20
11.74298055555555
 30
0.0
 11
12.4955875
 21
11.78155
 31
0.0
 12
12.42053194444444
 22
11.78155
 32
0.0
 13
12.51197638888889
 23
11.82013333333333
 33
0.0
  0
SOLID
  5
D2
330
2
100
AcDbEntity
  8
PDF_Layer 1
 62
     7
420
 16777215
440
 33554559
370
    25
100
AcDbTrace
 10
14.57354027777777
 20
11.74298055555555
 30
0.0
 11
14.58994305555555
 21
11.78155
 31
0.0
 12
14.66498472222222
 22
11.78155
 32
0.0
 13
14.57354027777777
 23
11.82013333333333
 33
0.0
  0
SOLID
  5
D3
330
2
100
AcDbEntity
  8
PDF_Layer 1
 62
     7
420
 16777215
440
 33554559
370
    25
100
AcDbTrace
 10
9.448838888888888
 20
11.44658055555555
 30
0.0
 11
9.43243611111111
 21
11.48515
 31
0.0
 12
9.357394444444443
 22
11.48515
 32
0.0
 13
9.448838888888888
 23
11.52373333333333
 33
0.0
  0
SOLID
  5
D4
330
2
100
AcDbEntity
  8
PDF_Layer 1
 62
     7
420
 16777215
440
 33554559
370
    25
100
AcDbTrace
 10
4.341173611111111
 20
6.060831944444444
 30
0.0
 11
4.324784722222222
 21
6.099401388888889
 31
0.0
 12
4.249743055555556
 22
6.099401388888889
 32
0.0
 13
4.341173611111111
 23
6.137984722222222
 33
0.0
  0
SOLID
  5
D5
330
2
100
AcDbEntity
  8
PDF_Layer 1
 62
     7
420
 16777215
440
 33554559
370
    25
100
AcDbTrace
 10
12.32910138888889
 20
6.060831944444444
 30
0.0
 11
12.34549027777777
 21
6.099401388888889
 31
0.0
 12
12.42053194444444
 22
6.099401388888889
 32
0.0
 13
12.32910138888889
 23
6.137984722222222
 33
0.0
  0
SOLID
  5
D6
330
2
100
AcDbEntity
  8
PDF_Layer 1
 62
     7
420
 16777215
440
 33554559
370
    25
100
AcDbTrace
 10
3.034268055555555
 20
11.54925555555555
 30
0.0
 11
3.050656944444444
 21
11.51068611111111
 31
0.0
 12
3.125698611111111
 22
11.51068611111111
 32
0.0
 13
3.034268055555555
 23
11.47210277777777
 33
0.0
  0
SOLID
  5
D7
330
2
100
AcDbEntity
  8
PDF_Layer 1
 62
     7
420
 16777215
440
 33554559
370
    25
100
AcDbTrace
 10
5.468804166666665
 20
11.47210694444444
 30
0.0
 11
5.452415277777777
 21
11.51067638888889
 31
0.0
 12
5.377359722222221
 22
11.51067638888889
 32
0.0
 13
5.468804166666665
 23
11.54925972222222
 33
0.0
  0
SOLID
  5
D8
330
2
100
AcDbEntity
  8
PDF_Layer 1
 62
     7
420
 16777215
440
 33554559
370
    25
100
AcDbTrace
 10
7.250258333333333
 20
11.52372916666666
 30
0.0
 11
7.266647222222221
 21
11.48515972222222
 31
0.0
 12
7.341688888888888
 22
11.48515972222222
 32
0.0
 13
7.250258333333333
 23
11.44657638888889
 33
0.0
  0
SOLID
  5
D9
330
2
100
AcDbEntity
  8
PDF_Layer 1
 62
     7
420
 16777215
440
 33554559
370
    25
100
AcDbTrace
 10
8.247708333333331
 20
3.151286111111111
 30
0.0
 11
8.286277777777776
 21
3.167675
 31
0.0
 12
8.286277777777776
 22
3.242730555555555
 32
0.0
 13
8.324861111111109
 23
3.151286111111111
 33
0.0
  0
SOLID
  5
DA
330
2
100
AcDbEntity
  8
PDF_Layer 1
 62
     7
420
 16777215
440
 33554559
370
    25
100
AcDbTrace
 10
8.324855555555554
 20
4.151963888888888
 30
0.0
 11
8.28628611111111
 21
4.135574999999999
 31
0.0
 12
8.28628611111111
 22
4.060533333333332
 32
0.0
 13
8.247702777777776
 23
4.151963888888888
 33
0.0
  0
SOLID
  5
DB
330
2
100
AcDbEntity
  8
PDF_Layer 1
 62
     7
420
 16777215
440
 33554559
370
    25
100
AcDbTrace
 10
13.44421388888889
 20
3.74487361111111
 30
0.0
 11
13.40564444444444
 21
3.728484722222221
 31
0.0
 12
13.40564444444444
 22
3.653429166666666
 32
0.0
 13
13.36706111111111
 23
3.74487361111111
 33
0.0
  0
SOLID
  5
DC
330
2
100
AcDbEntity
  8
PDF_Layer 1
 62
     7
420
 16777215
440
 33554559
370
    25
100
AcDbTrace
 10
13.36706527777778
 20
1.303127777777777
 30
0.0
 11
13.40563472222222
 21
1.319516666666666
 31
0.0
 12
13.40563472222222
 22
1.394572222222222
 32
0.0
 13
13.44421805555555
 23
1.303127777777777
 33
0.0
  0
SOLID
  5
DD
330
2
100
AcDbEntity
  8
PDF_Layer 1
 62
     7
420
 16777215
440
 33554559
370
    25
100
AcDbTrace
 10
14.01254583333333
 20
2.174573611111111
 30
0.0
 11
13.98180972222222
 21
2.14607361111111
 31
0.0
 12
14.00728194444444
 22
2.075462499999999
 32
0.0
 13
13.9399625
 23
2.148393055555555
 33
0.0
  0
SOLID
  5
DE
330
2
100
AcDbEntity
  8
PDF_Layer 1
 62
     7
420
 16777215
440
 33554559
370
    25
100
AcDbTrace
 10
14.08810694444444
 20
0.8409430555555555
 30
0.0
 11
14.04646805555555
 21
0.8361097222222221
 31
0.0
 12
14.02530138888889
 22
0.7641097222222222
 32
0.0
 13
14.01409305555555
 23
0.8627069444444444
 33
0.0
  0
LWPOLYLINE
  5
E3
330
2
100
AcDbEntity
  8
PDF_Layer 1
 62
     7
420
 16777215
370
    25
100
AcDbPolyline
 90
        4
 70
     0
 43
0.0
 10
4.503377777777777
 20
3.653483333333333
 10
10.317975
 20
3.653483333333333
 42
-0.3153032651674056
 10
11.66148611111111
 20
2.712755555555555
 10
11.80523611111111
 20
2.317797222222222
  0
LWPOLYLINE
  5
E5
330
2
100
AcDbEntity
  8
PDF_Layer 1
 62
     7
420
 16777215
370
    25
100
AcDbPolyline
 90
        2
 70
     0
 43
0.0
 10
12.67070833333333
 20
1.589111111111111
 10
14.19822222222222
 20
2.143916666666666
  0
LWPOLYLINE
  5
E6
330
2
100
AcDbEntity
  8
PDF_Layer 1
 62
     7
420
 16777215
370
    25
100
AcDbPolyline
 90
        2
 70
     0
 43
0.0
 10
12.078925
 20
0.2991541666666666
 10
3.214688888888888
 20
0.2991541666666666
  0
LWPOLYLINE
  5
E7
330
2
100
AcDbEntity
  8
PDF_Layer 1
 62
     7
420
 16777215
370
    25
100
AcDbPolyline
 90
        2
 70
     0
 43
0.0
 10
12.48272083333333
 20
11.78155555555555
 10
14.60280416666666
 20
11.78155555555555
  0
LWPOLYLINE
  5
E8
330
2
100
AcDbEntity
  8
PDF_Layer 1
 62
     7
420
 16777215
370
    25
100
AcDbPolyline
 90
        2
 70
     0
 43
0.0
 10
9.419583333333333
 20
11.48515555555555
 10
9.997305555555556
 20
11.48515555555555
  0
LWPOLYLINE
  5
E9
330
2
100
AcDbEntity
  8
PDF_Layer 1
 62
     7
420
 16777215
370
    25
100
AcDbPolyline
 90
        2
 70
     0
 43
0.0
 10
4.311916666666665
 20
6.099405555555556
 10
12.35836111111111
 20
6.099405555555556
  0
LWPOLYLINE
  5
EA
330
2
100
AcDbEntity
  8
PDF_Layer 1
 62
     7
420
 16777215
370
    25
100
AcDbPolyline
 90
        2
 70
     0
 43
0.0
 10
8.286281944444443
 20
4.060533333333333
 10
8.286281944444443
 20
3.242727777777778
  0
LWPOLYLINE
  5
EB
330
2
100
AcDbEntity
  8
PDF_Layer 1
 62
     7
420
 16777215
370
    70
100
AcDbPolyline
 90
       41
 70
     0
 43
0.0
 10
7.888406944444443
 20
7.713616666666666
 10
7.848768055555554
 20
7.695602777777778
 10
7.805545833333332
 20
7.670380555555555
 10
7.765920833333332
 20
7.64156111111111
 10
7.74069861111111
 20
7.612741666666666
 10
7.72268472222222
 20
7.583922222222222
 10
7.711879166666665
 20
7.551491666666667
 10
7.711879166666665
 20
7.519074999999999
 10
7.719087499999998
 20
7.483047222222221
 10
7.737087499999998
 20
7.454227777777777
 10
7.758712499999998
 20
7.425408333333333
 10
7.791143055555554
 20
7.400186111111111
 10
7.830768055555554
 20
7.374963888888888
 10
7.881198611111109
 20
7.353352777777778
 10
7.935240277777777
 20
7.331727777777778
 10
7.996490277777776
 20
7.313727777777778
 10
8.061337499999998
 20
7.302908333333333
 10
8.129781944444443
 20
7.292102777777778
 10
8.198240277777776
 20
7.284894444444444
 10
8.273893055555554
 20
7.2777
 10
8.345934722222221
 20
7.2777
 10
8.417990277777777
 20
7.281297222222222
 10
8.490045833333331
 20
7.284894444444444
 10
8.562101388888887
 20
7.292102777777778
 10
8.630545833333332
 20
7.306505555555555
 10
8.691795833333332
 20
7.320922222222222
 10
8.749448611111109
 20
7.335338888888888
 10
8.803476388888887
 20
7.35695
 10
8.85030972222222
 20
7.382172222222222
 10
8.88994861111111
 20
7.407394444444444
 10
8.918768055555554
 20
7.436213888888889
 10
8.940379166666666
 20
7.465033333333333
 10
8.954795833333331
 20
7.497463888888889
 10
8.958393055555553
 20
7.529880555555555
 10
8.954795833333331
 20
7.562297222222222
 10
8.943976388888888
 20
7.594727777777777
 10
8.922365277777776
 20
7.623547222222222
 10
8.897143055555554
 20
7.648769444444444
 10
8.861129166666666
 20
7.673977777777778
 10
8.814295833333332
 20
7.6992
 10
8.785462499999999
 20
7.713616666666666
  0
LWPOLYLINE
  5
EC
330
2
100
AcDbEntity
  8
PDF_Layer 1
 62
     7
420
 16777215
370
    70
100
AcDbPolyline
 90
        6
 70
     0
 43
0.0
 10
7.924434722222221
 20
8.58906111111111
 10
7.920823611111109
 20
8.459366666666666
 10
7.902823611111109
 20
8.254019444444445
 10
7.877601388888887
 20
8.048658333333333
 10
7.841573611111109
 20
7.846908333333333
 10
7.80193472222222
 20
7.670380555555555
  0
LWPOLYLINE
  5
ED
330
2
100
AcDbEntity
  8
PDF_Layer 1
 62
     7
420
 16777215
370
    70
100
AcDbPolyline
 90
       16
 70
     0
 43
0.0
 10
8.86832361111111
 20
7.670380555555555
 10
8.846712499999998
 20
7.76045
 10
8.807087499999997
 20
7.965797222222222
 10
8.778268055555553
 20
8.174755555555556
 10
8.756643055555553
 20
8.383713888888889
 10
8.742226388888887
 20
8.58906111111111
 10
8.738629166666665
 20
8.607075
 10
8.724212499999998
 20
8.628686111111111
 10
8.699004166666664
 20
8.650297222222222
 10
8.666573611111109
 20
8.66831111111111
 10
8.623351388888888
 20
8.686325
 10
8.576504166666666
 20
8.700741666666665
 10
8.518865277777777
 20
8.711547222222222
 10
8.461226388888887
 20
8.718755555555555
 10
8.399976388888887
 20
8.725963888888887
 10
8.335143055555555
 20
8.725963888888887
  0
LWPOLYLINE
  5
EE
330
2
100
AcDbEntity
  8
PDF_Layer 1
 62
     7
420
 16777215
370
    70
100
AcDbPolyline
 90
       32
 70
     0
 43
0.0
 10
8.742226388888887
 20
8.585449999999999
 10
8.742226388888887
 20
8.7872
 10
8.742226388888887
 20
8.902491666666666
 10
8.742226388888887
 20
9.014172222222221
 10
8.742226388888887
 20
9.118644444444443
 10
8.742226388888887
 20
9.219519444444443
 10
8.742226388888887
 20
9.309588888888889
 10
8.742226388888887
 20
9.396047222222222
 10
8.742226388888887
 20
9.471713888888888
 10
8.742226388888887
 20
9.536547222222221
 10
8.742226388888887
 20
9.5942
 10
8.742226388888887
 20
9.644630555555554
 10
8.742226388888887
 20
9.680658333333333
 10
8.742226388888887
 20
9.705880555555555
 10
8.742226388888887
 20
9.723894444444443
 10
8.742226388888887
 20
9.731102777777778
 42
1.000000000581999
 10
7.928031944444443
 20
9.731102777777778
 10
7.928031944444443
 20
9.723894444444443
 10
7.928031944444443
 20
9.705880555555555
 10
7.928031944444443
 20
9.680658333333333
 10
7.928031944444443
 20
9.644630555555554
 10
7.928031944444443
 20
9.5942
 10
7.928031944444443
 20
9.536547222222221
 10
7.928031944444443
 20
9.471713888888888
 10
7.928031944444443
 20
9.396047222222222
 10
7.928031944444443
 20
9.309588888888889
 10
7.928031944444443
 20
9.219519444444443
 10
7.928031944444443
 20
9.118644444444443
 10
7.928031944444443
 20
9.014172222222221
 10
7.928031944444443
 20
8.902491666666666
 10
7.928031944444443
 20
8.7872
 10
7.928031944444443
 20
8.585449999999999
  0
ARC
  5
F2
330
2
100
AcDbEntity
  8
PDF_Layer 1
 62
     7
420
 16777215
370
    70
100
AcDbCircle
 10
8.335129166666655
 20
9.731595092286426
 30
0.0
 40
0.5487495317835098
100
AcDbArc
 50
317.8903959862112
 51
222.1096040137902
  0
ARC
  5
F3
330
2
100
AcDbEntity
  8
PDF_Layer 1
 62
     7
420
 16777215
370
    70
100
AcDbCircle
 10
8.335129166666671
 20
9.729095434702498
 30
0.0
 40
1.022793048587246
100
AcDbArc
 50
293.4547707801391
 51
246.5452292198604
  0
LWPOLYLINE
  5
F4
330
2
100
AcDbEntity
  8
PDF_Layer 1
 62
     7
420
 16777215
370
    70
100
AcDbPolyline
 90
       66
 70
     1
 43
0.0
 10
14.29751805555555
 20
10.037325
 10
14.29751805555555
 20
10.03011666666666
 10
14.29751805555555
 20
10.0157
 10
14.29751805555555
 20
9.990491666666667
 10
14.29751805555555
 20
9.954463888888888
 10
14.29751805555555
 20
9.914825
 10
14.29751805555555
 20
9.864394444444444
 10
14.29751805555555
 20
9.813963888888888
 10
14.29751805555555
 20
9.756311111111109
 10
14.29751805555555
 20
9.702283333333333
 10
14.29751805555555
 20
9.644630555555554
 10
14.29751805555555
 20
9.5942
 10
14.29751805555555
 20
9.543769444444444
 10
14.29751805555555
 20
9.504130555555555
 10
14.29751805555555
 20
9.468102777777778
 10
14.29751805555555
 20
9.442880555555555
 10
14.29751805555555
 20
9.428477777777777
 10
14.29751805555555
 20
9.421269444444444
 10
14.29751805555555
 20
9.417658333333333
 10
14.30111527777777
 20
9.414061111111111
 10
14.30111527777777
 20
9.410463888888887
 10
14.3047125
 20
9.406866666666667
 10
14.30832361111111
 20
9.406866666666667
 10
14.31193472222222
 20
9.403255555555555
 10
14.31551805555555
 20
9.403255555555555
 10
14.31912916666666
 20
9.403255555555555
 10
14.35876805555555
 20
9.403255555555555
 10
14.36236527777777
 20
9.403255555555555
 10
14.36957361111111
 20
9.403255555555555
 10
14.37317083333333
 20
9.406866666666667
 10
14.37678194444444
 20
9.410463888888887
 10
14.38036527777777
 20
9.414061111111111
 10
14.38036527777777
 20
9.417658333333333
 10
14.38036527777777
 20
9.421269444444444
 10
14.38036527777777
 20
9.428477777777777
 10
14.38036527777777
 20
9.442880555555555
 10
14.38036527777777
 20
9.468102777777778
 10
14.38036527777777
 20
9.504130555555555
 10
14.38036527777777
 20
9.543769444444444
 10
14.38036527777777
 20
9.5942
 10
14.38036527777777
 20
9.644630555555554
 10
14.38036527777777
 20
9.702283333333333
 10
14.38036527777777
 20
9.756311111111109
 10
14.38036527777777
 20
9.813963888888888
 10
14.38036527777777
 20
9.864394444444444
 10
14.38036527777777
 20
9.914825
 10
14.38036527777777
 20
9.954463888888888
 10
14.38036527777777
 20
9.990491666666667
 10
14.38036527777777
 20
10.0157
 10
14.38036527777777
 20
10.03011666666666
 10
14.38036527777777
 20
10.037325
 10
14.38036527777777
 20
10.04092222222222
 10
14.38036527777777
 20
10.04453333333333
 10
14.37678194444444
 20
10.04813055555555
 10
14.37317083333333
 20
10.05172777777778
 10
14.36957361111111
 20
10.05533888888889
 10
14.36236527777777
 20
10.05533888888889
 10
14.35876805555555
 20
10.05533888888889
 10
14.31912916666666
 20
10.05533888888889
 10
14.31551805555555
 20
10.05533888888889
 10
14.31193472222222
 20
10.05533888888889
 10
14.30832361111111
 20
10.05172777777778
 10
14.3047125
 20
10.05172777777778
 10
14.30111527777777
 20
10.04813055555555
 10
14.30111527777777
 20
10.04453333333333
 10
14.29751805555555
 20
10.04092222222222
  0
LWPOLYLINE
  5
FA
330
2
100
AcDbEntity
  8
PDF_Layer 1
 62
     7
420
 16777215
370
    70
100
AcDbPolyline
 90
       32
 70
     0
 43
0.0
 10
14.38036527777777
 20
9.424866666666666
 10
14.38036527777777
 20
9.428477777777777
 10
14.38036527777777
 20
9.432074999999999
 10
14.38397638888888
 20
9.435686111111111
 10
14.3875875
 20
9.439283333333333
 10
14.39118472222222
 20
9.442880555555555
 10
14.39478194444444
 20
9.442880555555555
 10
14.39839305555555
 20
9.442880555555555
 10
14.39839305555555
 20
9.450088888888888
 10
14.39839305555555
 20
9.464491666666667
 10
14.39839305555555
 20
9.489713888888889
 10
14.39839305555555
 20
9.522144444444444
 10
14.39839305555555
 20
9.565380555555556
 10
14.39839305555555
 20
9.612213888888888
 10
14.39839305555555
 20
9.662644444444444
 10
14.39839305555555
 20
9.71668611111111
 10
14.39839305555555
 20
9.770727777777777
 10
14.39839305555555
 20
9.821158333333332
 10
14.39839305555555
 20
9.871602777777777
 10
14.39839305555555
 20
9.914825
 10
14.39839305555555
 20
9.954463888888888
 10
14.39839305555555
 20
9.983283333333332
 10
14.39839305555555
 20
10.00489444444444
 10
14.39839305555555
 20
10.01210277777778
 10
14.39839305555555
 20
10.0157
 10
14.39478194444444
 20
10.0157
 10
14.39118472222222
 20
10.0157
 10
14.3875875
 20
10.01931111111111
 10
14.38397638888888
 20
10.02290833333333
 10
14.38036527777777
 20
10.02651944444444
 10
14.38036527777777
 20
10.03011666666666
 10
14.38036527777777
 20
10.03371388888889
  0
LWPOLYLINE
  5
FC
330
2
100
AcDbEntity
  8
PDF_Layer 1
 62
     7
420
 16777215
370
    70
100
AcDbPolyline
 90
       17
 70
     0
 43
0.0
 10
12.80601805555555
 20
9.565380555555556
 10
12.95732361111111
 20
9.561769444444443
 10
13.14826805555555
 20
9.554561111111111
 10
13.33561527777777
 20
9.547366666666667
 10
13.52654583333333
 20
9.532949999999999
 10
13.71387916666666
 20
9.518547222222222
 10
13.90482361111111
 20
9.500533333333333
 10
14.09215694444444
 20
9.478908333333333
 10
14.27950416666666
 20
9.453699999999999
 10
14.28310138888889
 20
9.453699999999999
 10
14.28669861111111
 20
9.450088888888888
 10
14.29030972222222
 20
9.450088888888888
 10
14.29392083333333
 20
9.446491666666666
 10
14.29751805555555
 20
9.442880555555555
 10
14.29751805555555
 20
9.439283333333333
 10
14.29751805555555
 20
9.435686111111111
 10
14.29751805555555
 20
9.432074999999999
  0
LWPOLYLINE
  5
FD
330
2
100
AcDbEntity
  8
PDF_Layer 1
 62
     7
420
 16777215
370
    70
100
AcDbPolyline
 90
       17
 70
     0
 43
0.0
 10
14.29751805555555
 20
10.02651944444444
 10
14.29751805555555
 20
10.02290833333333
 10
14.29751805555555
 20
10.01931111111111
 10
14.29751805555555
 20
10.0157
 10
14.29392083333333
 20
10.01210277777778
 10
14.29030972222222
 20
10.00849166666666
 10
14.28669861111111
 20
10.00849166666666
 10
14.28310138888889
 20
10.00489444444444
 10
14.27950416666666
 20
10.00489444444444
 10
14.09215694444444
 20
9.97968611111111
 10
13.90482361111111
 20
9.95806111111111
 10
13.71387916666666
 20
9.940047222222222
 10
13.52654583333333
 20
9.925644444444444
 10
13.33561527777777
 20
9.911227777777778
 10
13.14826805555555
 20
9.904019444444443
 10
12.95732361111111
 20
9.896811111111111
 10
12.80601805555555
 20
9.893213888888888
  0
ARC
  5
FE
330
2
100
AcDbEntity
  8
PDF_Layer 1
 62
     7
420
 16777215
370
    70
100
AcDbCircle
 10
14.37785052169254
 20
9.729290277777778
 30
0.0
 40
0.2871454765113387
100
AcDbArc
 50
274.1024738216717
 51
85.89752617832825
  0
LWPOLYLINE
  5
101
330
2
100
AcDbEntity
  8
PDF_Layer 1
 62
     7
420
 16777215
370
    70
100
AcDbPolyline
 90
       68
 70
     1
 43
0.0
 10
2.311504166666666
 20
10.05533888888889
 10
2.304295833333332
 20
10.05533888888889
 10
2.30069861111111
 20
10.05533888888889
 10
2.297101388888887
 20
10.05172777777778
 10
2.293504166666666
 20
10.05172777777778
 10
2.293504166666666
 20
10.04813055555555
 10
2.289893055555555
 20
10.04453333333333
 10
2.289893055555555
 20
10.04092222222222
 10
2.289893055555555
 20
10.037325
 10
2.289893055555555
 20
10.03011666666666
 10
2.289893055555555
 20
10.0157
 10
2.289893055555555
 20
9.990491666666667
 10
2.289893055555555
 20
9.954463888888888
 10
2.289893055555555
 20
9.914825
 10
2.289893055555555
 20
9.864394444444444
 10
2.289893055555555
 20
9.813963888888888
 10
2.289893055555555
 20
9.756311111111109
 10
2.289893055555555
 20
9.702283333333333
 10
2.289893055555555
 20
9.644630555555554
 10
2.289893055555555
 20
9.5942
 10
2.289893055555555
 20
9.543769444444444
 10
2.289893055555555
 20
9.504130555555555
 10
2.289893055555555
 20
9.468102777777778
 10
2.289893055555555
 20
9.442880555555555
 10
2.289893055555555
 20
9.428477777777777
 10
2.289893055555555
 20
9.421269444444444
 10
2.289893055555555
 20
9.417658333333333
 10
2.289893055555555
 20
9.414061111111111
 10
2.293504166666666
 20
9.410463888888887
 10
2.293504166666666
 20
9.406866666666667
 10
2.297101388888887
 20
9.406866666666667
 10
2.30069861111111
 20
9.403255555555555
 10
2.304295833333332
 20
9.403255555555555
 10
2.311504166666666
 20
9.403255555555555
 10
2.351129166666665
 20
9.403255555555555
 10
2.354740277777777
 20
9.403255555555555
 10
2.358337499999999
 20
9.403255555555555
 10
2.36194861111111
 20
9.406866666666667
 10
2.365545833333332
 20
9.406866666666667
 10
2.369143055555555
 20
9.410463888888887
 10
2.369143055555555
 20
9.414061111111111
 10
2.369143055555555
 20
9.417658333333333
 10
2.372754166666665
 20
9.421269444444444
 10
2.372754166666665
 20
9.428477777777777
 10
2.372754166666665
 20
9.442880555555555
 10
2.372754166666665
 20
9.468102777777778
 10
2.372754166666665
 20
9.504130555555555
 10
2.372754166666665
 20
9.543769444444444
 10
2.372754166666665
 20
9.5942
 10
2.372754166666665
 20
9.644630555555554
 10
2.372754166666665
 20
9.702283333333333
 10
2.372754166666665
 20
9.756311111111109
 10
2.372754166666665
 20
9.813963888888888
 10
2.372754166666665
 20
9.864394444444444
 10
2.372754166666665
 20
9.914825
 10
2.372754166666665
 20
9.954463888888888
 10
2.372754166666665
 20
9.990491666666667
 10
2.372754166666665
 20
10.0157
 10
2.372754166666665
 20
10.03011666666666
 10
2.372754166666665
 20
10.037325
 10
2.369143055555555
 20
10.04092222222222
 10
2.369143055555555
 20
10.04453333333333
 10
2.369143055555555
 20
10.04813055555555
 10
2.365545833333332
 20
10.05172777777778
 10
2.36194861111111
 20
10.05172777777778
 10
2.358337499999999
 20
10.05533888888889
 10
2.354740277777777
 20
10.05533888888889
 10
2.351129166666665
 20
10.05533888888889
  0
LWPOLYLINE
  5
107
330
2
100
AcDbEntity
  8
PDF_Layer 1
 62
     7
420
 16777215
370
    70
100
AcDbPolyline
 90
       32
 70
     0
 43
0.0
 10
2.289893055555555
 20
10.03371388888889
 10
2.289893055555555
 20
10.03011666666666
 10
2.286281944444443
 20
10.02651944444444
 10
2.286281944444443
 20
10.02290833333333
 10
2.282684722222221
 20
10.01931111111111
 10
2.279087499999999
 20
10.0157
 10
2.275476388888888
 20
10.0157
 10
2.271879166666666
 20
10.0157
 10
2.271879166666666
 20
10.00849166666666
 10
2.271879166666666
 20
9.994088888888889
 10
2.271879166666666
 20
9.968866666666666
 10
2.271879166666666
 20
9.93645
 10
2.271879166666666
 20
9.893213888888888
 10
2.271879166666666
 20
9.846380555555555
 10
2.271879166666666
 20
9.795950000000001
 10
2.271879166666666
 20
9.741908333333332
 10
2.271879166666666
 20
9.687866666666666
 10
2.271879166666666
 20
9.63743611111111
 10
2.271879166666666
 20
9.586991666666666
 10
2.271879166666666
 20
9.543769444444444
 10
2.271879166666666
 20
9.504130555555555
 10
2.271879166666666
 20
9.475311111111111
 10
2.271879166666666
 20
9.457297222222221
 10
2.271879166666666
 20
9.446491666666666
 10
2.271879166666666
 20
9.442880555555555
 10
2.275476388888888
 20
9.442880555555555
 10
2.279087499999999
 20
9.442880555555555
 10
2.282684722222221
 20
9.439283333333333
 10
2.286281944444443
 20
9.435686111111111
 10
2.286281944444443
 20
9.432074999999999
 10
2.289893055555555
 20
9.428477777777777
 10
2.289893055555555
 20
9.424866666666666
  0
LWPOLYLINE
  5
109
330
2
100
AcDbEntity
  8
PDF_Layer 1
 62
     7
420
 16777215
370
    70
100
AcDbPolyline
 90
       16
 70
     0
 43
0.0
 10
3.867851388888888
 20
9.893213888888888
 10
3.712934722222221
 20
9.896811111111111
 10
3.522004166666666
 20
9.904019444444443
 10
3.334656944444443
 20
9.911227777777778
 10
3.143712499999999
 20
9.925644444444444
 10
2.956379166666666
 20
9.940047222222222
 10
2.76543472222222
 20
9.95806111111111
 10
2.578101388888887
 20
9.97968611111111
 10
2.387170833333332
 20
10.00489444444444
 10
2.38355972222222
 20
10.00489444444444
 10
2.379962499999999
 20
10.00849166666666
 10
2.376351388888887
 20
10.01210277777778
 10
2.372754166666665
 20
10.0157
 10
2.372754166666665
 20
10.01931111111111
 10
2.372754166666665
 20
10.02290833333333
 10
2.372754166666665
 20
10.02651944444444
  0
LWPOLYLINE
  5
10A
330
2
100
AcDbEntity
  8
PDF_Layer 1
 62
     7
420
 16777215
370
    70
100
AcDbPolyline
 90
       16
 70
     0
 43
0.0
 10
2.372754166666665
 20
9.432074999999999
 10
2.372754166666665
 20
9.435686111111111
 10
2.372754166666665
 20
9.439283333333333
 10
2.372754166666665
 20
9.442880555555555
 10
2.376351388888887
 20
9.446491666666666
 10
2.379962499999999
 20
9.450088888888888
 10
2.38355972222222
 20
9.453699999999999
 10
2.387170833333332
 20
9.453699999999999
 10
2.578101388888887
 20
9.478908333333333
 10
2.76543472222222
 20
9.500533333333333
 10
2.956379166666666
 20
9.518547222222222
 10
3.143712499999999
 20
9.532949999999999
 10
3.334656944444443
 20
9.547366666666667
 10
3.522004166666666
 20
9.554561111111111
 10
3.712934722222221
 20
9.561769444444443
 10
3.864254166666666
 20
9.565380555555556
  0
ARC
  5
10B
330
2
100
AcDbEntity
  8
PDF_Layer 1
 62
     7
420
 16777215
370
    70
100
AcDbCircle
 10
2.288574931890604
 20
9.729290277777778
 30
0.0
 40
0.2868959350702314
100
AcDbArc
 50
93.33618405039064
 51
266.6638159496093
  0
CIRCLE
  5
10E
330
2
100
AcDbEntity
  8
PDF_Layer 1
 62
     7
420
 16777215
370
    70
100
AcDbCircle
 10
4.249944370784915
 20
9.729385672056709
 30
0.0
 40
0.4196199331318057
  0
CIRCLE
  5
10F
330
2
100
AcDbEntity
  8
PDF_Layer 1
 62
     7
420
 16777215
370
    70
100
AcDbCircle
 10
12.42032425762888
 20
9.729209930619573
 30
0.0
 40
0.4196210931268326
  0
ELLIPSE
  5
114
330
2
100
AcDbEntity
  8
PDF_Layer 1
 62
     7
420
 16777215
370
    70
100
AcDbEllipse
 10
8.335351303227284
 20
7.474408628183987
 30
0.0
 11
-0.5612893256784263
 21
0.00082202001666
 31
0.0
210
0.0
220
0.0
230
1.0
 40
0.3427360375371844
 41
4.713261941097726
 42
10.99644724827731
  0
LWPOLYLINE
  5
115
330
2
100
AcDbEntity
  8
PDF_Layer 1
 62
     7
420
 16777215
370
    70
100
AcDbPolyline
 90
       16
 70
     0
 43
0.0
 10
8.807087499999997
 20
7.702811111111111
 10
8.799865277777776
 20
7.706408333333333
 10
8.749448611111109
 20
7.724422222222222
 10
8.691795833333332
 20
7.742436111111111
 10
8.62694861111111
 20
7.756838888888888
 10
8.558504166666665
 20
7.767658333333333
 10
8.486448611111109
 20
7.778463888888889
 10
8.410795833333331
 20
7.782061111111111
 10
8.335143055555555
 20
7.785658333333333
 10
8.259476388888888
 20
7.782061111111111
 10
8.18382361111111
 20
7.778463888888889
 10
8.111768055555554
 20
7.767658333333333
 10
8.043323611111109
 20
7.756838888888888
 10
7.978476388888887
 20
7.742436111111111
 10
7.920823611111109
 20
7.724422222222222
 10
7.892004166666665
 20
7.717213888888888
  0
ELLIPSE
  5
116
330
2
100
AcDbEntity
  8
PDF_Layer 1
 62
     7
420
 16777215
370
    70
100
AcDbEllipse
 10
8.334795535762156
 20
7.47385829398077
 30
0.0
 11
-0.4445964329752346
 21
0.0002202600909202
 31
0.0
210
0.0
220
0.0
230
1.0
 40
0.34398758349373
 41
1.571748394545774
 42
7.85493370172536
  0
ELLIPSE
  5
118
330
2
100
AcDbEntity
  8
PDF_Layer 1
 62
     7
420
 16777215
370
    70
100
AcDbEllipse
 10
8.232170762215394
 20
8.615156873896705
 30
0.0
 11
0.3039922770849976
 21
0.0284581256676283
 31
0.0
210
0.0
220
0.0
230
1.0
 40
0.3550496819437338
 41
1.192197207376188
 42
3.119767521806525
  0
LWPOLYLINE
  5
119
330
2
100
AcDbEntity
  8
PDF_Layer 1
 62
     7
420
 16777215
370
    70
100
AcDbPolyline
 90
       15
 70
     0
 43
0.0
 10
7.949656944444443
 20
7.551491666666667
 10
7.982073611111109
 20
7.533477777777777
 10
8.025309722222221
 20
7.519074999999999
 10
8.079351388888888
 20
7.501061111111111
 10
8.136990277777776
 20
7.490241666666666
 10
8.201837499999998
 20
7.483047222222221
 10
8.266684722222221
 20
7.475838888888889
 10
8.335143055555555
 20
7.475838888888889
 10
8.403573611111109
 20
7.475838888888889
 10
8.468434722222221
 20
7.483047222222221
 10
8.533281944444443
 20
7.490241666666666
 10
8.59093472222222
 20
7.501061111111111
 10
8.644962499999998
 20
7.519074999999999
 10
8.688184722222221
 20
7.533477777777777
 10
8.720615277777776
 20
7.551491666666667
  0
LWPOLYLINE
  5
11B
330
2
100
AcDbEntity
  8
PDF_Layer 1
 62
     7
420
 16777215
370
    70
100
AcDbPolyline
 90
       15
 70
     0
 43
0.0
 10
7.967670833333332
 20
7.558699999999999
 10
7.996490277777776
 20
7.544297222222222
 10
8.039726388888887
 20
7.526283333333333
 10
8.090156944444442
 20
7.511866666666667
 10
8.144198611111109
 20
7.501061111111111
 10
8.205434722222221
 20
7.490241666666666
 10
8.270281944444443
 20
7.486644444444444
 10
8.335143055555555
 20
7.483047222222221
 10
8.399976388888887
 20
7.486644444444444
 10
8.464823611111109
 20
7.490241666666666
 10
8.52607361111111
 20
7.501061111111111
 10
8.580115277777776
 20
7.511866666666667
 10
8.630545833333332
 20
7.526283333333333
 10
8.673781944444442
 20
7.544297222222222
 10
8.702615277777777
 20
7.558699999999999
  0
ELLIPSE
  5
11D
330
2
100
AcDbEntity
  8
PDF_Layer 1
 62
     7
420
 16777215
370
    70
100
AcDbEllipse
 10
8.335128673066796
 20
8.57837466741657
 30
0.0
 11
0.4075660571982151
 21
0.0000043912763252
 31
0.0
210
0.0
220
0.0
230
1.0
 40
0.3621236493660353
 41
0.0479279871876345
 42
3.093605162408142
  0
LWPOLYLINE
  5
11F
330
2
100
AcDbEntity
  8
PDF_Layer 1
 62
     7
420
 16777215
370
    70
100
AcDbPolyline
 90
       51
 70
     0
 43
0.0
 10
8.742226388888887
 20
8.970936111111111
 10
8.778268055555553
 20
8.988949999999999
 10
8.857518055555553
 20
9.042991666666667
 10
8.92955972222222
 20
9.104241666666666
 10
8.99082361111111
 20
9.169074999999999
 10
9.048462499999999
 20
9.244741666666666
 10
9.098893055555553
 20
9.323991666666666
 10
9.134934722222221
 20
9.410463888888887
 10
9.167337499999998
 20
9.496922222222222
 10
9.185351388888888
 20
9.590588888888888
 10
9.196170833333331
 20
9.684269444444444
 10
9.196170833333331
 20
9.774325000000001
 10
9.185351388888888
 20
9.867991666666666
 10
9.167337499999998
 20
9.961658333333332
 10
9.134934722222221
 20
10.04813055555555
 10
9.098893055555553
 20
10.13460277777777
 10
9.048462499999999
 20
10.21385277777778
 10
8.99082361111111
 20
10.28950555555555
 10
8.92955972222222
 20
10.35435277777777
 10
8.857518055555553
 20
10.41560277777778
 10
8.778268055555553
 20
10.46964444444444
 10
8.699004166666664
 20
10.51286666666666
 10
8.608934722222221
 20
10.54529722222222
 10
8.518865277777777
 20
10.57051944444444
 10
8.42880972222222
 20
10.58853333333333
 10
8.335143055555555
 20
10.59213055555555
 10
8.241462499999999
 20
10.58853333333333
 10
8.147795833333331
 20
10.57051944444444
 10
8.057726388888887
 20
10.54529722222222
 10
7.971268055555554
 20
10.51286666666666
 10
7.888406944444443
 20
10.46964444444444
 10
7.812754166666665
 20
10.41560277777778
 10
7.74069861111111
 20
10.35435277777777
 10
7.675851388888887
 20
10.28950555555555
 10
7.621809722222221
 20
10.21385277777778
 10
7.571365277777776
 20
10.13460277777777
 10
7.531740277777776
 20
10.04813055555555
 10
7.502920833333332
 20
9.961658333333332
 10
7.484906944444443
 20
9.867991666666666
 10
7.474101388888887
 20
9.774325000000001
 10
7.474101388888887
 20
9.684269444444444
 10
7.484906944444443
 20
9.590588888888888
 10
7.502920833333332
 20
9.496922222222222
 10
7.531740277777776
 20
9.410463888888887
 10
7.571365277777776
 20
9.323991666666666
 10
7.621809722222221
 20
9.244741666666666
 10
7.675851388888887
 20
9.169074999999999
 10
7.74069861111111
 20
9.104241666666666
 10
7.812754166666665
 20
9.042991666666667
 10
7.888406944444443
 20
8.988949999999999
 10
7.928031944444443
 20
8.970936111111111
  0
ARC
  5
120
330
2
100
AcDbEntity
  8
PDF_Layer 1
 62
     7
420
 16777215
370
    70
100
AcDbCircle
 10
8.335129166666657
 20
9.728673175523082
 30
0.0
 40
0.8792677220461431
100
AcDbArc
 50
297.5805876444348
 51
242.4194123555661
  0
ARC
  5
121
330
2
100
AcDbEntity
  8
PDF_Layer 1
 62
     7
420
 16777215
370
    70
100
AcDbCircle
 10
8.335129166666655
 20
9.729231220642549
 30
0.0
 40
0.8893555314717612
100
AcDbArc
 50
297.2416321114822
 51
242.7583678885189
  0
ARC
  5
122
330
2
100
AcDbEntity
  8
PDF_Layer 1
 62
     7
420
 16777215
370
    70
100
AcDbCircle
 10
8.335129166666673
 20
9.731247865379714
 30
0.0
 40
0.9885291927755698
100
AcDbArc
 50
294.3192876164848
 51
245.6807123835144
  0
CIRCLE
  5
127
330
2
100
AcDbEntity
  8
PDF_Layer 1
 62
     7
420
 16777215
370
    70
100
AcDbCircle
 10
4.24965226596736
 20
9.728728985008805
 30
0.0
 40
0.3878460249772171
  0
CIRCLE
  5
128
330
2
100
AcDbEntity
  8
PDF_Layer 1
 62
     7
420
 16777215
370
    70
100
AcDbCircle
 10
12.41757142556592
 20
9.730727146161887
 30
0.0
 40
0.3887328641567972
  0
LWPOLYLINE
  5
129
330
2
100
AcDbEntity
  8
PDF_Layer 1
 62
     7
420
 16777215
370
    70
100
AcDbPolyline
 90
       23
 70
     0
 43
0.0
 10
7.809143055555554
 20
7.673977777777778
 10
7.809143055555554
 20
7.677588888888888
 10
7.827156944444443
 20
7.6992
 10
7.859587499999999
 20
7.724422222222222
 10
7.895615277777777
 20
7.746033333333333
 10
7.942448611111109
 20
7.764047222222222
 10
7.996490277777776
 20
7.782061111111111
 10
8.054129166666665
 20
7.796477777777777
 10
8.122573611111109
 20
7.807283333333333
 10
8.191031944444443
 20
7.814491666666667
 10
8.263087499999999
 20
7.821699999999999
 10
8.335143055555555
 20
7.821699999999999
 10
8.40718472222222
 20
7.821699999999999
 10
8.479240277777776
 20
7.814491666666667
 10
8.547684722222221
 20
7.807283333333333
 10
8.612531944444443
 20
7.796477777777777
 10
8.673781944444442
 20
7.782061111111111
 10
8.727823611111109
 20
7.764047222222222
 10
8.774656944444442
 20
7.746033333333333
 10
8.810684722222221
 20
7.724422222222222
 10
8.839504166666666
 20
7.6992
 10
8.861129166666666
 20
7.677588888888888
 10
8.861129166666666
 20
7.673977777777778
  0
ELLIPSE
  5
12B
330
2
100
AcDbEntity
  8
PDF_Layer 1
 62
     7
420
 16777215
370
    70
100
AcDbEllipse
 10
8.335129599769238
 20
8.792526069382498
 30
0.0
 11
0.4074148906215032
 21
0.0000034705930698
 31
0.0
210
0.0
220
0.0
230
1.0
 40
0.3318196771665581
 41
6.24375187778356
 42
9.464160032736563
  0
ARC
  5
12E
330
2
100
AcDbEntity
  8
PDF_Layer 1
 62
     7
420
 16777215
370
    70
100
AcDbCircle
 10
8.335129166666671
 20
9.730254469090555
 30
0.0
 40
0.9063230391599656
100
AcDbArc
 50
296.6907347715149
 51
243.3092652284843
  0
ARC
  5
12F
330
2
100
AcDbEntity
  8
PDF_Layer 1
 62
     7
420
 16777215
370
    70
100
AcDbCircle
 10
8.335129166666671
 20
9.730925588746272
 30
0.0
 40
0.9490180691347649
100
AcDbArc
 50
295.4020070587368
 51
244.5979929412625
  0
ARC
  5
130
330
2
100
AcDbEntity
  8
PDF_Layer 1
 62
     7
420
 16777215
370
    70
100
AcDbCircle
 10
8.335129166666673
 20
9.730090792221352
 30
0.0
 40
0.967826771254991
100
AcDbArc
 50
294.8743845559159
 51
245.1256154440832
  0
ARC
  5
131
330
2
100
AcDbEntity
  8
PDF_Layer 1
 62
     7
420
 16777215
370
    70
100
AcDbCircle
 10
8.335129166666673
 20
9.730269926498589
 30
0.0
 40
0.9712541022363929
100
AcDbArc
 50
294.7806794072221
 51
245.2193205927769
  0
LWPOLYLINE
  5
132
330
2
100
AcDbEntity
  8
PDF_Layer 1
 62
     7
420
 16777215
370
    70
100
AcDbPolyline
 90
       18
 70
     0
 43
0.0
 10
14.35876805555555
 20
9.403255555555555
 10
14.35876805555555
 20
9.406866666666667
 10
14.35876805555555
 20
9.424866666666666
 10
14.35876805555555
 20
9.450088888888888
 10
14.35876805555555
 20
9.482519444444443
 10
14.35876805555555
 20
9.525741666666666
 10
14.35876805555555
 20
9.576186111111111
 10
14.35876805555555
 20
9.626616666666667
 10
14.35876805555555
 20
9.684269444444444
 10
14.35876805555555
 20
9.745505555555554
 10
14.35876805555555
 20
9.803144444444445
 10
14.35876805555555
 20
9.857186111111111
 10
14.35876805555555
 20
9.907630555555556
 10
14.35876805555555
 20
9.954463888888888
 10
14.35876805555555
 20
9.994088888888889
 10
14.35876805555555
 20
10.02290833333333
 10
14.35876805555555
 20
10.04453333333333
 10
14.35876805555555
 20
10.05533888888889
  0
LWPOLYLINE
  5
133
330
2
100
AcDbEntity
  8
PDF_Layer 1
 62
     7
420
 16777215
370
    70
100
AcDbPolyline
 90
       18
 70
     0
 43
0.0
 10
14.31912916666666
 20
10.05533888888889
 10
14.31912916666666
 20
10.05172777777778
 10
14.31912916666666
 20
10.03371388888889
 10
14.31912916666666
 20
10.00849166666666
 10
14.31912916666666
 20
9.976074999999999
 10
14.31912916666666
 20
9.932852777777778
 10
14.31912916666666
 20
9.882408333333334
 10
14.31912916666666
 20
9.831963888888889
 10
14.31912916666666
 20
9.774325000000001
 10
14.31912916666666
 20
9.713074999999999
 10
14.31912916666666
 20
9.65545
 10
14.31912916666666
 20
9.601394444444444
 10
14.31912916666666
 20
9.550963888888889
 10
14.31912916666666
 20
9.504130555555555
 10
14.31912916666666
 20
9.464491666666667
 10
14.31912916666666
 20
9.435686111111111
 10
14.31912916666666
 20
9.414061111111111
 10
14.31912916666666
 20
9.403255555555555
  0
LWPOLYLINE
  5
135
330
2
100
AcDbEntity
  8
PDF_Layer 1
 62
     7
420
 16777215
370
    70
100
AcDbPolyline
 90
       17
 70
     0
 43
0.0
 10
14.27950416666666
 20
9.453699999999999
 10
14.27950416666666
 20
9.460894444444445
 10
14.27950416666666
 20
9.475311111111111
 10
14.27950416666666
 20
9.500533333333333
 10
14.27950416666666
 20
9.532949999999999
 10
14.27950416666666
 20
9.576186111111111
 10
14.27950416666666
 20
9.623019444444445
 10
14.27950416666666
 20
9.677061111111111
 10
14.27950416666666
 20
9.731102777777778
 10
14.27950416666666
 20
9.781533333333333
 10
14.27950416666666
 20
9.835575
 10
14.27950416666666
 20
9.882408333333334
 10
14.27950416666666
 20
9.925644444444444
 10
14.27950416666666
 20
9.95806111111111
 10
14.27950416666666
 20
9.983283333333332
 10
14.27950416666666
 20
9.9977
 10
14.27950416666666
 20
10.00489444444444
  0
LWPOLYLINE
  5
136
330
2
100
AcDbEntity
  8
PDF_Layer 1
 62
     7
420
 16777215
370
    70
100
AcDbPolyline
 90
       18
 70
     0
 43
0.0
 10
2.311504166666666
 20
10.05533888888889
 10
2.311504166666666
 20
10.05172777777778
 10
2.311504166666666
 20
10.03371388888889
 10
2.311504166666666
 20
10.00849166666666
 10
2.311504166666666
 20
9.976074999999999
 10
2.311504166666666
 20
9.932852777777778
 10
2.311504166666666
 20
9.882408333333334
 10
2.311504166666666
 20
9.831963888888889
 10
2.311504166666666
 20
9.774325000000001
 10
2.311504166666666
 20
9.713074999999999
 10
2.311504166666666
 20
9.65545
 10
2.311504166666666
 20
9.601394444444444
 10
2.311504166666666
 20
9.550963888888889
 10
2.311504166666666
 20
9.504130555555555
 10
2.311504166666666
 20
9.464491666666667
 10
2.311504166666666
 20
9.435686111111111
 10
2.311504166666666
 20
9.414061111111111
 10
2.311504166666666
 20
9.403255555555555
  0
LWPOLYLINE
  5
137
330
2
100
AcDbEntity
  8
PDF_Layer 1
 62
     7
420
 16777215
370
    70
100
AcDbPolyline
 90
       18
 70
     0
 43
0.0
 10
2.351129166666665
 20
9.403255555555555
 10
2.351129166666665
 20
9.406866666666667
 10
2.351129166666665
 20
9.424866666666666
 10
2.351129166666665
 20
9.450088888888888
 10
2.351129166666665
 20
9.482519444444443
 10
2.351129166666665
 20
9.525741666666666
 10
2.351129166666665
 20
9.576186111111111
 10
2.351129166666665
 20
9.626616666666667
 10
2.351129166666665
 20
9.684269444444444
 10
2.351129166666665
 20
9.745505555555554
 10
2.351129166666665
 20
9.803144444444445
 10
2.351129166666665
 20
9.857186111111111
 10
2.351129166666665
 20
9.907630555555556
 10
2.351129166666665
 20
9.954463888888888
 10
2.351129166666665
 20
9.994088888888889
 10
2.351129166666665
 20
10.02290833333333
 10
2.351129166666665
 20
10.04453333333333
 10
2.351129166666665
 20
10.05533888888889
  0
LWPOLYLINE
  5
139
330
2
100
AcDbEntity
  8
PDF_Layer 1
 62
     7
420
 16777215
370
    70
100
AcDbPolyline
 90
       17
 70
     0
 43
0.0
 10
2.387170833333332
 20
10.00489444444444
 10
2.387170833333332
 20
9.9977
 10
2.387170833333332
 20
9.983283333333332
 10
2.387170833333332
 20
9.95806111111111
 10
2.387170833333332
 20
9.925644444444444
 10
2.387170833333332
 20
9.882408333333334
 10
2.387170833333332
 20
9.835575
 10
2.387170833333332
 20
9.781533333333333
 10
2.387170833333332
 20
9.731102777777778
 10
2.387170833333332
 20
9.677061111111111
 10
2.387170833333332
 20
9.623019444444445
 10
2.387170833333332
 20
9.576186111111111
 10
2.387170833333332
 20
9.532949999999999
 10
2.387170833333332
 20
9.500533333333333
 10
2.387170833333332
 20
9.475311111111111
 10
2.387170833333332
 20
9.460894444444445
 10
2.387170833333332
 20
9.453699999999999
  0
LWPOLYLINE
  5
140
330
2
100
AcDbEntity
  8
PDF_Layer 1
 62
     7
420
 16777215
370
    70
100
AcDbPolyline
 90
       61
 70
     0
 43
0.0
 10
13.38604583333333
 20
9.543769444444444
 10
13.38244861111111
 20
9.532949999999999
 10
13.35722638888888
 20
9.435686111111111
 10
13.32119861111111
 20
9.342005555555555
 10
13.2779625
 20
9.25195
 10
13.22753194444444
 20
9.169074999999999
 10
13.16628194444444
 20
9.089824999999999
 10
13.0978375
 20
9.017769444444445
 10
13.02217083333333
 20
8.952922222222222
 10
12.93932361111111
 20
8.895283333333333
 10
12.85285138888889
 20
8.848449999999999
 10
12.76279583333333
 20
8.808811111111111
 10
12.66551805555555
 20
8.779991666666667
 10
12.56825416666666
 20
8.758380555555556
 10
12.47097638888889
 20
8.747574999999999
 10
12.37010138888888
 20
8.747574999999999
 10
12.27282361111111
 20
8.758380555555556
 10
12.17196249999999
 20
8.779991666666667
 10
12.07828194444444
 20
8.808811111111111
 10
11.9882125
 20
8.848449999999999
 10
11.90175416666666
 20
8.895283333333333
 10
11.81889305555555
 20
8.952922222222222
 10
11.74324027777777
 20
9.017769444444445
 10
11.67479583333333
 20
9.089824999999999
 10
11.61353194444444
 20
9.169074999999999
 10
11.55950416666666
 20
9.25195
 10
11.51628194444444
 20
9.342005555555555
 10
11.48385138888889
 20
9.435686111111111
 10
11.45862916666666
 20
9.532949999999999
 10
11.4442125
 20
9.630227777777777
 10
11.43701805555555
 20
9.731102777777778
 10
11.4442125
 20
9.828366666666667
 10
11.45862916666666
 20
9.925644444444444
 10
11.48385138888889
 20
10.02290833333333
 10
11.51628194444444
 20
10.116575
 10
11.55950416666666
 20
10.20664444444444
 10
11.61353194444444
 20
10.28950555555555
 10
11.67479583333333
 20
10.36876944444444
 10
11.74324027777777
 20
10.44081111111111
 10
11.81889305555555
 20
10.50567222222222
 10
11.90175416666666
 20
10.56331111111111
 10
11.9882125
 20
10.61014444444444
 10
12.07828194444444
 20
10.64976944444444
 10
12.17196249999999
 20
10.67860277777778
 10
12.27282361111111
 20
10.70021388888889
 10
12.37010138888888
 20
10.71101944444444
 10
12.47097638888889
 20
10.71101944444444
 10
12.56825416666666
 20
10.70021388888889
 10
12.66551805555555
 20
10.67860277777778
 10
12.76279583333333
 20
10.64976944444444
 10
12.85285138888889
 20
10.61014444444444
 10
12.93932361111111
 20
10.56331111111111
 10
13.02217083333333
 20
10.50567222222222
 10
13.0978375
 20
10.44081111111111
 10
13.16628194444444
 20
10.36876944444444
 10
13.22753194444444
 20
10.28950555555555
 10
13.2779625
 20
10.20664444444444
 10
13.32119861111111
 20
10.116575
 10
13.35722638888888
 20
10.02290833333333
 10
13.38244861111111
 20
9.925644444444444
 10
13.38604583333333
 20
9.914825
  0
LWPOLYLINE
  5
142
330
2
100
AcDbEntity
  8
PDF_Layer 1
 62
     7
420
 16777215
370
    70
100
AcDbPolyline
 90
       61
 70
     0
 43
0.0
 10
13.39685138888889
 20
9.914825
 10
13.39325416666666
 20
9.929241666666666
 10
13.36803194444444
 20
10.02651944444444
 10
13.33200416666666
 20
10.12018611111111
 10
13.28878194444444
 20
10.21024166666666
 10
13.23474027777777
 20
10.29671388888889
 10
13.17349027777777
 20
10.37596388888889
 10
13.10503194444444
 20
10.44801944444444
 10
13.02937916666666
 20
10.51647777777778
 10
12.94651805555555
 20
10.57411666666666
 10
12.8564625
 20
10.62095
 10
12.76637916666666
 20
10.660575
 10
12.66911527777777
 20
10.68939444444444
 10
12.57185138888889
 20
10.71101944444444
 10
12.47097638888889
 20
10.721825
 10
12.37010138888888
 20
10.721825
 10
12.2692125
 20
10.71101944444444
 10
12.17196249999999
 20
10.68939444444444
 10
12.07468472222222
 20
10.660575
 10
11.98100416666666
 20
10.62095
 10
11.89454583333333
 20
10.57411666666666
 10
11.81168472222222
 20
10.51647777777778
 10
11.73603194444444
 20
10.44801944444444
 10
11.6675875
 20
10.37596388888889
 10
11.6063375
 20
10.29671388888889
 10
11.55229583333333
 20
10.21024166666666
 10
11.5054625
 20
10.12018611111111
 10
11.47303194444444
 20
10.02651944444444
 10
11.44782361111111
 20
9.929241666666666
 10
11.43342083333333
 20
9.828366666666667
 10
11.42619861111111
 20
9.731102777777778
 10
11.43342083333333
 20
9.630227777777777
 10
11.44782361111111
 20
9.529352777777777
 10
11.47303194444444
 20
9.432074999999999
 10
11.5054625
 20
9.338408333333333
 10
11.55229583333333
 20
9.248338888888888
 10
11.6063375
 20
9.161880555555555
 10
11.6675875
 20
9.082616666666666
 10
11.73603194444444
 20
9.01056111111111
 10
11.81168472222222
 20
8.942116666666667
 10
11.89454583333333
 20
8.888075
 10
11.98100416666666
 20
8.837644444444444
 10
12.07468472222222
 20
8.798005555555555
 10
12.17196249999999
 20
8.76918611111111
 10
12.2692125
 20
8.747574999999999
 10
12.37010138888888
 20
8.736769444444444
 10
12.47097638888889
 20
8.736769444444444
 10
12.57185138888889
 20
8.747574999999999
 10
12.66911527777777
 20
8.76918611111111
 10
12.76637916666666
 20
8.798005555555555
 10
12.8564625
 20
8.837644444444444
 10
12.94651805555555
 20
8.888075
 10
13.02937916666666
 20
8.942116666666667
 10
13.10503194444444
 20
9.01056111111111
 10
13.17349027777777
 20
9.082616666666666
 10
13.23474027777777
 20
9.161880555555555
 10
13.28878194444444
 20
9.248338888888888
 10
13.33200416666666
 20
9.338408333333333
 10
13.36803194444444
 20
9.432074999999999
 10
13.39325416666666
 20
9.529352777777777
 10
13.39685138888889
 20
9.543769444444444
  0
LWPOLYLINE
  5
144
330
2
100
AcDbEntity
  8
PDF_Layer 1
 62
     7
420
 16777215
370
    70
100
AcDbPolyline
 90
       62
 70
     0
 43
0.0
 10
13.41126805555555
 20
9.540158333333334
 10
13.41126805555555
 20
9.529352777777777
 10
13.38604583333333
 20
9.432074999999999
 10
13.35001805555555
 20
9.338408333333333
 10
13.30679583333333
 20
9.244741666666666
 10
13.25275416666666
 20
9.161880555555555
 10
13.19511527777778
 20
9.079019444444444
 10
13.12304583333333
 20
9.006963888888888
 10
13.05100416666666
 20
8.938519444444445
 10
12.96814305555555
 20
8.880866666666666
 10
12.88167083333333
 20
8.830436111111112
 10
12.78800416666666
 20
8.790811111111111
 10
12.6943375
 20
8.758380555555556
 10
12.5934625
 20
8.736769444444444
 10
12.49618472222222
 20
8.722352777777777
 10
12.39532361111111
 20
8.718755555555555
 10
12.29444861111111
 20
8.725963888888887
 10
12.19355972222222
 20
8.743977777777777
 10
12.09989305555555
 20
8.772797222222221
 10
12.00624027777777
 20
8.808811111111111
 10
11.91617083333333
 20
8.855658333333334
 10
11.82969861111111
 20
8.9097
 10
11.75044861111111
 20
8.970936111111111
 10
11.67837916666666
 20
9.042991666666667
 10
11.61353194444444
 20
9.118644444444443
 10
11.55950416666666
 20
9.201505555555556
 10
11.50905972222222
 20
9.291574999999999
 10
11.46943472222222
 20
9.385241666666667
 10
11.44061527777777
 20
9.478908333333333
 10
11.42260138888889
 20
9.579783333333333
 10
11.41179583333333
 20
9.680658333333333
 10
11.41179583333333
 20
9.77793611111111
 10
11.42260138888889
 20
9.878811111111112
 10
11.44061527777777
 20
9.97968611111111
 10
11.46943472222222
 20
10.07335277777777
 10
11.50905972222222
 20
10.16701944444444
 10
11.55950416666666
 20
10.257075
 10
11.61353194444444
 20
10.33995
 10
11.67837916666666
 20
10.41560277777778
 10
11.75044861111111
 20
10.48764444444444
 10
11.82969861111111
 20
10.54889444444444
 10
11.91617083333333
 20
10.60293611111111
 10
12.00624027777777
 20
10.64976944444444
 10
12.09989305555555
 20
10.68579722222222
 10
12.19355972222222
 20
10.71461666666666
 10
12.29444861111111
 20
10.73263055555555
 10
12.39532361111111
 20
10.73983888888889
 10
12.49618472222222
 20
10.73622777777778
 10
12.5934625
 20
10.72543611111111
 10
12.6943375
 20
10.70021388888889
 10
12.78800416666666
 20
10.66778333333333
 10
12.88167083333333
 20
10.62815833333333
 10
12.96814305555555
 20
10.57771388888889
 10
13.05100416666666
 20
10.520075
 10
13.12304583333333
 20
10.45163055555555
 10
13.19511527777778
 20
10.379575
 10
13.25275416666666
 20
10.29671388888889
 10
13.30679583333333
 20
10.21385277777778
 10
13.35001805555555
 20
10.12018611111111
 10
13.38604583333333
 20
10.02651944444444
 10
13.41126805555555
 20
9.929241666666666
 10
13.41126805555555
 20
9.918436111111111
  0
LWPOLYLINE
  5
145
330
2
100
AcDbEntity
  8
PDF_Layer 1
 62
     7
420
 16777215
370
    70
100
AcDbPolyline
 90
       63
 70
     0
 43
0.0
 10
13.45449027777777
 20
9.918436111111111
 10
13.45089305555555
 20
9.932852777777778
 10
13.42567083333333
 20
10.03371388888889
 10
13.38964305555555
 20
10.13099166666666
 10
13.34642083333333
 20
10.22465833333333
 10
13.29236527777778
 20
10.31472777777778
 10
13.23112916666666
 20
10.39758888888889
 10
13.16268472222222
 20
10.47324166666666
 10
13.08701805555555
 20
10.5417
 10
13.00415694444444
 20
10.60293611111111
 10
12.91410138888888
 20
10.65697777777778
 10
12.82043472222222
 20
10.70021388888889
 10
12.72315694444444
 20
10.73622777777778
 10
12.62587916666666
 20
10.76145
 10
12.52142083333333
 20
10.77586666666666
 10
12.42053194444444
 20
10.77946388888888
 10
12.31605972222222
 20
10.77586666666666
 10
12.21518472222222
 20
10.76145
 10
12.11430972222222
 20
10.73622777777778
 10
12.01703194444444
 20
10.70021388888889
 10
11.92336527777777
 20
10.65697777777778
 10
11.83690694444444
 20
10.60293611111111
 10
11.75404583333333
 20
10.5417
 10
11.67837916666666
 20
10.47324166666666
 10
11.6063375
 20
10.39758888888889
 10
11.54510138888888
 20
10.31472777777778
 10
11.49465694444444
 20
10.22465833333333
 10
11.44782361111111
 20
10.13099166666666
 10
11.41539305555555
 20
10.03371388888889
 10
11.39017083333333
 20
9.932852777777778
 10
11.37217083333333
 20
9.831963888888889
 10
11.36855972222222
 20
9.731102777777778
 10
11.37217083333333
 20
9.626616666666667
 10
11.39017083333333
 20
9.525741666666666
 10
11.41539305555555
 20
9.424866666666666
 10
11.44782361111111
 20
9.327602777777777
 10
11.49465694444444
 20
9.233936111111111
 10
11.54510138888888
 20
9.143866666666665
 10
11.6063375
 20
9.061005555555555
 10
11.67837916666666
 20
8.985352777777777
 10
11.75404583333333
 20
8.916894444444444
 10
11.83690694444444
 20
8.855658333333334
 10
11.92336527777777
 20
8.801616666666665
 10
12.01703194444444
 20
8.758380555555556
 10
12.11430972222222
 20
8.722352777777777
 10
12.21518472222222
 20
8.697130555555554
 10
12.31605972222222
 20
8.682727777777778
 10
12.42053194444444
 20
8.679130555555556
 10
12.52142083333333
 20
8.682727777777778
 10
12.62587916666666
 20
8.697130555555554
 10
12.72315694444444
 20
8.722352777777777
 10
12.82043472222222
 20
8.758380555555556
 10
12.91410138888888
 20
8.801616666666665
 10
13.00415694444444
 20
8.855658333333334
 10
13.08701805555555
 20
8.916894444444444
 10
13.16268472222222
 20
8.985352777777777
 10
13.23112916666666
 20
9.061005555555555
 10
13.29236527777778
 20
9.143866666666665
 10
13.34642083333333
 20
9.233936111111111
 10
13.38964305555555
 20
9.327602777777777
 10
13.42567083333333
 20
9.424866666666666
 10
13.45089305555555
 20
9.525741666666666
 10
13.45449027777777
 20
9.540158333333334
  0
LWPOLYLINE
  5
14A
330
2
100
AcDbEntity
  8
PDF_Layer 1
 62
     7
420
 16777215
370
    70
100
AcDbPolyline
 90
       64
 70
     0
 43
0.0
 10
13.49051805555555
 20
9.536547222222221
 10
13.48692083333333
 20
9.518547222222222
 10
13.46169861111111
 20
9.417658333333333
 10
13.42928194444444
 20
9.320394444444444
 10
13.38244861111111
 20
9.223130555555554
 10
13.33200416666666
 20
9.133061111111111
 10
13.26715694444444
 20
9.046602777777778
 10
13.19869861111111
 20
8.967338888888889
 10
13.12304583333333
 20
8.895283333333333
 10
13.04018472222222
 20
8.834033333333334
 10
12.95012916666667
 20
8.776394444444443
 10
12.8564625
 20
8.729561111111111
 10
12.7555875
 20
8.693533333333332
 10
12.65469861111111
 20
8.664713888888888
 10
12.55022638888888
 20
8.646699999999999
 10
12.44575416666666
 20
8.639491666666666
 10
12.34128194444444
 20
8.643102777777777
 10
12.23679583333333
 20
8.657505555555555
 10
12.13232361111111
 20
8.679130555555556
 10
12.03504583333333
 20
8.711547222222222
 10
11.93778194444444
 20
8.754783333333334
 10
11.84411527777777
 20
8.805213888888889
 10
11.75764305555555
 20
8.862866666666667
 10
11.67837916666666
 20
8.93131111111111
 10
11.6063375
 20
9.006963888888888
 10
11.53787916666666
 20
9.089824999999999
 10
11.48025416666666
 20
9.176297222222222
 10
11.43342083333333
 20
9.269963888888888
 10
11.39378194444444
 20
9.367227777777777
 10
11.36135138888889
 20
9.468102777777778
 10
11.3433375
 20
9.572575
 10
11.33253194444444
 20
9.677061111111111
 10
11.33253194444444
 20
9.781533333333333
 10
11.3433375
 20
9.886019444444443
 10
11.36135138888889
 20
9.990491666666667
 10
11.39378194444444
 20
10.09136666666666
 10
11.43342083333333
 20
10.18863055555555
 10
11.48025416666666
 20
10.28229722222222
 10
11.53787916666666
 20
10.36876944444444
 10
11.6063375
 20
10.45163055555555
 10
11.67837916666666
 20
10.52728333333333
 10
11.75764305555555
 20
10.59572777777778
 10
11.84411527777777
 20
10.65338055555555
 10
11.93778194444444
 20
10.70381111111111
 10
12.03504583333333
 20
10.74704722222222
 10
12.13232361111111
 20
10.77946388888888
 10
12.23679583333333
 20
10.801075
 10
12.34128194444444
 20
10.81549166666667
 10
12.44575416666666
 20
10.81910277777778
 10
12.55022638888888
 20
10.81189444444444
 10
12.65469861111111
 20
10.79388055555555
 10
12.7555875
 20
10.76506111111111
 10
12.8564625
 20
10.72903333333333
 10
12.95012916666667
 20
10.6822
 10
13.04018472222222
 20
10.62454722222222
 10
13.12304583333333
 20
10.56331111111111
 10
13.19869861111111
 20
10.49125555555555
 10
13.26715694444444
 20
10.41199166666666
 10
13.33200416666666
 20
10.32553333333333
 10
13.38244861111111
 20
10.23546388888889
 10
13.42928194444444
 20
10.1382
 10
13.46169861111111
 20
10.04092222222222
 10
13.48692083333333
 20
9.940047222222222
 10
13.49051805555555
 20
9.922033333333333
  0
LWPOLYLINE
  5
14B
330
2
100
AcDbEntity
  8
PDF_Layer 1
 62
     7
420
 16777215
370
    70
100
AcDbPolyline
 90
       38
 70
     0
 43
0.0
 10
3.853434722222221
 20
9.565380555555556
 10
3.864254166666666
 20
9.540158333333334
 10
3.900268055555554
 20
9.482519444444443
 10
3.939906944444444
 20
9.432074999999999
 10
3.990337499999998
 20
9.388852777777778
 10
4.044379166666665
 20
9.35281111111111
 10
4.105629166666665
 20
9.327602777777777
 10
4.166865277777777
 20
9.309588888888889
 10
4.23532361111111
 20
9.302380555555554
 10
4.300170833333332
 20
9.302380555555554
 10
4.365018055555554
 20
9.316797222222222
 10
4.426268055555555
 20
9.338408333333333
 10
4.483906944444443
 20
9.370824999999999
 10
4.534337499999999
 20
9.410463888888887
 10
4.581170833333332
 20
9.457297222222221
 10
4.61719861111111
 20
9.511338888888889
 10
4.646018055555554
 20
9.568977777777778
 10
4.667629166666666
 20
9.630227777777777
 10
4.67844861111111
 20
9.695074999999999
 10
4.67844861111111
 20
9.763519444444444
 10
4.667629166666666
 20
9.828366666666667
 10
4.646018055555554
 20
9.889616666666666
 10
4.61719861111111
 20
9.947255555555555
 10
4.581170833333332
 20
10.00129722222222
 10
4.534337499999999
 20
10.04813055555555
 10
4.483906944444443
 20
10.08775555555555
 10
4.426268055555555
 20
10.12018611111111
 10
4.365018055555554
 20
10.14179722222222
 10
4.300170833333332
 20
10.15621388888889
 10
4.23532361111111
 20
10.15621388888889
 10
4.166865277777777
 20
10.14900555555555
 10
4.105629166666665
 20
10.13099166666666
 10
4.044379166666665
 20
10.10576944444444
 10
3.990337499999998
 20
10.06974166666666
 10
3.939906944444444
 20
10.02651944444444
 10
3.900268055555554
 20
9.976074999999999
 10
3.864254166666666
 20
9.918436111111111
 10
3.853434722222221
 20
9.893213888888888
  0
ARC
  5
14C
330
2
100
AcDbEntity
  8
PDF_Layer 1
 62
     7
420
 16777215
370
    70
100
AcDbCircle
 10
4.249058280942244
 20
9.728677473213952
 30
0.0
 40
0.5105603498493365
100
AcDbArc
 50
198.7129229908441
 51
160.7729794083398
  0
LWPOLYLINE
  5
14D
330
2
100
AcDbEntity
  8
PDF_Layer 1
 62
     7
420
 16777215
370
    70
100
AcDbPolyline
 90
       60
 70
     0
 43
0.0
 10
3.302240277777777
 20
9.543769444444444
 10
3.305837499999999
 20
9.532949999999999
 10
3.331059722222221
 20
9.435686111111111
 10
3.367087499999999
 20
9.342005555555555
 10
3.410309722222222
 20
9.255547222222222
 10
3.464351388888887
 20
9.169074999999999
 10
3.525601388888888
 20
9.093436111111111
 10
3.594045833333332
 20
9.021380555555555
 10
3.669698611111109
 20
8.956533333333332
 10
3.75257361111111
 20
8.902491666666666
 10
3.842629166666666
 20
8.855658333333334
 10
3.93269861111111
 20
8.819630555555555
 10
4.029962499999999
 20
8.790811111111111
 10
4.127240277777776
 20
8.772797222222221
 10
4.224518055555554
 20
8.765588888888888
 10
4.325379166666666
 20
8.76918611111111
 10
4.422656944444443
 20
8.779991666666667
 10
4.51993472222222
 20
8.801616666666665
 10
4.613601388888888
 20
8.837644444444444
 10
4.703670833333331
 20
8.877269444444443
 10
4.790129166666665
 20
8.927713888888888
 10
4.869379166666665
 20
8.988949999999999
 10
4.94143472222222
 20
9.057394444444444
 10
5.006281944444443
 20
9.12945
 10
5.063934722222221
 20
9.212311111111111
 10
5.114365277777777
 20
9.298783333333332
 10
5.154004166666664
 20
9.388852777777778
 10
5.182823611111109
 20
9.482519444444443
 10
5.204434722222221
 20
9.579783333333333
 10
5.211629166666665
 20
9.680658333333333
 10
5.211629166666665
 20
9.77793611111111
 10
5.204434722222221
 20
9.878811111111112
 10
5.182823611111109
 20
9.976074999999999
 10
5.154004166666664
 20
10.06974166666666
 10
5.114365277777777
 20
10.15981111111111
 10
5.063934722222221
 20
10.24628333333333
 10
5.006281944444443
 20
10.32913055555555
 10
4.94143472222222
 20
10.40118611111111
 10
4.869379166666665
 20
10.46964444444444
 10
4.790129166666665
 20
10.53088055555555
 10
4.703670833333331
 20
10.581325
 10
4.613601388888888
 20
10.62095
 10
4.51993472222222
 20
10.65697777777778
 10
4.422656944444443
 20
10.67860277777778
 10
4.325379166666666
 20
10.68939444444444
 10
4.224518055555554
 20
10.69300555555555
 10
4.127240277777776
 20
10.68579722222222
 10
4.029962499999999
 20
10.66778333333333
 10
3.93269861111111
 20
10.63896388888889
 10
3.842629166666666
 20
10.60293611111111
 10
3.75257361111111
 20
10.55610277777778
 10
3.669698611111109
 20
10.50206111111111
 10
3.594045833333332
 20
10.43721388888888
 10
3.525601388888888
 20
10.36515833333333
 10
3.464351388888887
 20
10.28950555555555
 10
3.410309722222222
 20
10.20304722222222
 10
3.367087499999999
 20
10.116575
 10
3.331059722222221
 20
10.02290833333333
 10
3.305837499999999
 20
9.925644444444444
 10
3.302240277777777
 20
9.914825
  0
LWPOLYLINE
  5
14E
330
2
100
AcDbEntity
  8
PDF_Layer 1
 62
     7
420
 16777215
370
    70
100
AcDbPolyline
 90
       61
 70
     0
 43
0.0
 10
3.284226388888888
 20
9.914825
 10
3.287823611111109
 20
9.925644444444444
 10
3.313045833333333
 20
10.02290833333333
 10
3.34907361111111
 20
10.116575
 10
3.392295833333332
 20
10.20664444444444
 10
3.442740277777777
 20
10.28950555555555
 10
3.503990277777776
 20
10.36876944444444
 10
3.572434722222221
 20
10.44081111111111
 10
3.648087499999999
 20
10.50567222222222
 10
3.73094861111111
 20
10.56331111111111
 10
3.817420833333332
 20
10.61014444444444
 10
3.907490277777777
 20
10.64976944444444
 10
4.004754166666666
 20
10.67860277777778
 10
4.102018055555554
 20
10.70021388888889
 10
4.199295833333332
 20
10.71101944444444
 10
4.300170833333332
 20
10.71101944444444
 10
4.397434722222221
 20
10.70021388888889
 10
4.494712499999998
 20
10.67860277777778
 10
4.591990277777776
 20
10.64976944444444
 10
4.682045833333331
 20
10.61014444444444
 10
4.768518055555555
 20
10.56331111111111
 10
4.851365277777777
 20
10.50567222222222
 10
4.927031944444443
 20
10.44081111111111
 10
4.995476388888887
 20
10.36876944444444
 10
5.056726388888887
 20
10.28950555555555
 10
5.110768055555555
 20
10.20664444444444
 10
5.154004166666664
 20
10.116575
 10
5.186420833333333
 20
10.02290833333333
 10
5.211629166666665
 20
9.925644444444444
 10
5.226045833333332
 20
9.828366666666667
 10
5.233254166666665
 20
9.731102777777778
 10
5.226045833333332
 20
9.630227777777777
 10
5.211629166666665
 20
9.532949999999999
 10
5.186420833333333
 20
9.435686111111111
 10
5.154004166666664
 20
9.342005555555555
 10
5.110768055555555
 20
9.25195
 10
5.056726388888887
 20
9.169074999999999
 10
4.995476388888887
 20
9.089824999999999
 10
4.927031944444443
 20
9.017769444444445
 10
4.851365277777777
 20
8.952922222222222
 10
4.768518055555555
 20
8.895283333333333
 10
4.682045833333331
 20
8.848449999999999
 10
4.591990277777776
 20
8.808811111111111
 10
4.494712499999998
 20
8.779991666666667
 10
4.397434722222221
 20
8.758380555555556
 10
4.300170833333332
 20
8.747574999999999
 10
4.199295833333332
 20
8.747574999999999
 10
4.102018055555554
 20
8.758380555555556
 10
4.004754166666666
 20
8.779991666666667
 10
3.907490277777777
 20
8.808811111111111
 10
3.817420833333332
 20
8.848449999999999
 10
3.73094861111111
 20
8.895283333333333
 10
3.648087499999999
 20
8.952922222222222
 10
3.572434722222221
 20
9.017769444444445
 10
3.503990277777776
 20
9.089824999999999
 10
3.442740277777777
 20
9.169074999999999
 10
3.392295833333332
 20
9.25195
 10
3.34907361111111
 20
9.342005555555555
 10
3.313045833333333
 20
9.435686111111111
 10
3.287823611111109
 20
9.532949999999999
 10
3.284226388888888
 20
9.543769444444444
  0
LWPOLYLINE
  5
14F
330
2
100
AcDbEntity
  8
PDF_Layer 1
 62
     7
420
 16777215
370
    70
100
AcDbPolyline
 90
       61
 70
     0
 43
0.0
 10
3.273420833333332
 20
9.543769444444444
 10
3.277018055555554
 20
9.529352777777777
 10
3.302240277777777
 20
9.432074999999999
 10
3.338268055555554
 20
9.338408333333333
 10
3.381490277777777
 20
9.248338888888888
 10
3.435531944444443
 20
9.161880555555555
 10
3.496781944444443
 20
9.082616666666666
 10
3.565226388888888
 20
9.01056111111111
 10
3.640879166666665
 20
8.942116666666667
 10
3.723754166666665
 20
8.888075
 10
3.813809722222221
 20
8.837644444444444
 10
3.903879166666666
 20
8.798005555555555
 10
4.001156944444443
 20
8.76918611111111
 10
4.098420833333332
 20
8.747574999999999
 10
4.199295833333332
 20
8.736769444444444
 10
4.300170833333332
 20
8.736769444444444
 10
4.401045833333332
 20
8.747574999999999
 10
4.49832361111111
 20
8.76918611111111
 10
4.595587499999998
 20
8.798005555555555
 10
4.689254166666666
 20
8.837644444444444
 10
4.775712499999999
 20
8.888075
 10
4.858587499999998
 20
8.942116666666667
 10
4.934240277777776
 20
9.01056111111111
 10
5.002684722222221
 20
9.082616666666666
 10
5.063934722222221
 20
9.161880555555555
 10
5.117962499999999
 20
9.248338888888888
 10
5.161198611111109
 20
9.338408333333333
 10
5.197226388888887
 20
9.432074999999999
 10
5.22244861111111
 20
9.529352777777777
 10
5.236851388888887
 20
9.630227777777777
 10
5.244059722222221
 20
9.731102777777778
 10
5.236851388888887
 20
9.828366666666667
 10
5.22244861111111
 20
9.929241666666666
 10
5.197226388888887
 20
10.02651944444444
 10
5.161198611111109
 20
10.12018611111111
 10
5.117962499999999
 20
10.21024166666666
 10
5.063934722222221
 20
10.29671388888889
 10
5.002684722222221
 20
10.37596388888889
 10
4.934240277777776
 20
10.44801944444444
 10
4.858587499999998
 20
10.51647777777778
 10
4.775712499999999
 20
10.57411666666666
 10
4.689254166666666
 20
10.62095
 10
4.595587499999998
 20
10.660575
 10
4.49832361111111
 20
10.68939444444444
 10
4.401045833333332
 20
10.71101944444444
 10
4.300170833333332
 20
10.721825
 10
4.199295833333332
 20
10.721825
 10
4.098420833333332
 20
10.71101944444444
 10
4.001156944444443
 20
10.68939444444444
 10
3.903879166666666
 20
10.660575
 10
3.813809722222221
 20
10.62095
 10
3.723754166666665
 20
10.57411666666666
 10
3.640879166666665
 20
10.51647777777778
 10
3.565226388888888
 20
10.44801944444444
 10
3.496781944444443
 20
10.37596388888889
 10
3.435531944444443
 20
10.29671388888889
 10
3.381490277777777
 20
10.21024166666666
 10
3.338268055555554
 20
10.12018611111111
 10
3.302240277777777
 20
10.02651944444444
 10
3.277018055555554
 20
9.929241666666666
 10
3.273420833333332
 20
9.914825
  0
LWPOLYLINE
  5
152
330
2
100
AcDbEntity
  8
PDF_Layer 1
 62
     7
420
 16777215
370
    70
100
AcDbPolyline
 90
       63
 70
     0
 43
0.0
 10
3.215768055555555
 20
9.540158333333334
 10
3.219379166666665
 20
9.525741666666666
 10
3.244601388888887
 20
9.424866666666666
 10
3.280615277777777
 20
9.327602777777777
 10
3.323851388888887
 20
9.233936111111111
 10
3.377893055555555
 20
9.143866666666665
 10
3.439129166666665
 20
9.061005555555555
 10
3.507587499999999
 20
8.985352777777777
 10
3.583240277777776
 20
8.916894444444444
 10
3.666101388888888
 20
8.855658333333334
 10
3.756170833333333
 20
8.801616666666665
 10
3.846240277777777
 20
8.758380555555556
 10
3.943504166666666
 20
8.722352777777777
 10
4.044379166666665
 20
8.697130555555554
 10
4.145254166666665
 20
8.682727777777778
 10
4.249740277777776
 20
8.679130555555556
 10
4.354212499999999
 20
8.682727777777778
 10
4.455087499999999
 20
8.697130555555554
 10
4.55594861111111
 20
8.722352777777777
 10
4.653226388888888
 20
8.758380555555556
 10
4.746906944444443
 20
8.801616666666665
 10
4.833365277777776
 20
8.855658333333334
 10
4.916212499999998
 20
8.916894444444444
 10
4.991879166666665
 20
8.985352777777777
 10
5.063934722222221
 20
9.061005555555555
 10
5.125170833333331
 20
9.143866666666665
 10
5.175615277777776
 20
9.233936111111111
 10
5.22244861111111
 20
9.327602777777777
 10
5.254865277777776
 20
9.424866666666666
 10
5.280087499999998
 20
9.525741666666666
 10
5.294504166666666
 20
9.626616666666667
 10
5.30169861111111
 20
9.731102777777778
 10
5.294504166666666
 20
9.831963888888889
 10
5.280087499999998
 20
9.932852777777778
 10
5.254865277777776
 20
10.03371388888889
 10
5.22244861111111
 20
10.13099166666666
 10
5.175615277777776
 20
10.22465833333333
 10
5.125170833333331
 20
10.31472777777778
 10
5.063934722222221
 20
10.39758888888889
 10
4.991879166666665
 20
10.47324166666666
 10
4.916212499999998
 20
10.5417
 10
4.833365277777776
 20
10.60293611111111
 10
4.746906944444443
 20
10.65697777777778
 10
4.653226388888888
 20
10.70021388888889
 10
4.55594861111111
 20
10.73622777777778
 10
4.455087499999999
 20
10.76145
 10
4.354212499999999
 20
10.77586666666666
 10
4.249740277777776
 20
10.77946388888888
 10
4.145254166666665
 20
10.77586666666666
 10
4.044379166666665
 20
10.76145
 10
3.943504166666666
 20
10.73622777777778
 10
3.846240277777777
 20
10.70021388888889
 10
3.756170833333333
 20
10.65697777777778
 10
3.666101388888888
 20
10.60293611111111
 10
3.583240277777776
 20
10.5417
 10
3.507587499999999
 20
10.47324166666666
 10
3.439129166666665
 20
10.39758888888889
 10
3.377893055555555
 20
10.31472777777778
 10
3.323851388888887
 20
10.22465833333333
 10
3.280615277777777
 20
10.13099166666666
 10
3.244601388888887
 20
10.03371388888889
 10
3.219379166666665
 20
9.932852777777778
 10
3.215768055555555
 20
9.918436111111111
  0
LWPOLYLINE
  5
154
330
2
100
AcDbEntity
  8
PDF_Layer 1
 62
     7
420
 16777215
370
    70
100
AcDbPolyline
 90
       64
 70
     0
 43
0.0
 10
3.197754166666666
 20
9.922033333333333
 10
3.197754166666666
 20
9.93645
 10
3.222976388888889
 20
10.037325
 10
3.259004166666665
 20
10.13460277777777
 10
3.302240277777777
 20
10.22826944444444
 10
3.352670833333332
 20
10.31472777777778
 10
3.413920833333332
 20
10.40118611111111
 10
3.482365277777777
 20
10.47685277777778
 10
3.558018055555555
 20
10.54889444444444
 10
3.640879166666665
 20
10.61014444444444
 10
3.73094861111111
 20
10.66418611111111
 10
3.821018055555554
 20
10.71101944444444
 10
3.918281944444442
 20
10.74704722222222
 10
4.019170833333332
 20
10.77586666666666
 10
4.120031944444443
 20
10.79388055555555
 10
4.224518055555554
 20
10.801075
 10
4.328990277777776
 20
10.79747777777778
 10
4.429865277777777
 20
10.78667222222222
 10
4.530740277777776
 20
10.76145
 10
4.631615277777776
 20
10.73263055555555
 10
4.725281944444443
 20
10.68939444444444
 10
4.815351388888887
 20
10.63896388888889
 10
4.901809722222221
 20
10.581325
 10
4.981073611111109
 20
10.51286666666666
 10
5.053115277777776
 20
10.44081111111111
 10
5.117962499999999
 20
10.35796388888889
 10
5.172004166666665
 20
10.27149166666666
 10
5.22244861111111
 20
10.18143611111111
 10
5.26207361111111
 20
10.08415833333333
 10
5.290893055555554
 20
9.986880555555554
 10
5.308906944444442
 20
9.882408333333334
 10
5.319712499999999
 20
9.781533333333333
 10
5.319712499999999
 20
9.677061111111111
 10
5.308906944444442
 20
9.576186111111111
 10
5.290893055555554
 20
9.471713888888888
 10
5.26207361111111
 20
9.37443611111111
 10
5.22244861111111
 20
9.277158333333332
 10
5.172004166666665
 20
9.187102777777777
 10
5.117962499999999
 20
9.100630555555556
 10
5.053115277777776
 20
9.017769444444445
 10
4.981073611111109
 20
8.945713888888889
 10
4.901809722222221
 20
8.877269444444443
 10
4.815351388888887
 20
8.819630555555555
 10
4.725281944444443
 20
8.76918611111111
 10
4.631615277777776
 20
8.725963888888887
 10
4.530740277777776
 20
8.697130555555554
 10
4.429865277777777
 20
8.671922222222221
 10
4.328990277777776
 20
8.661116666666666
 10
4.224518055555554
 20
8.657505555555555
 10
4.120031944444443
 20
8.664713888888888
 10
4.019170833333332
 20
8.682727777777778
 10
3.918281944444442
 20
8.711547222222222
 10
3.821018055555554
 20
8.747574999999999
 10
3.73094861111111
 20
8.794408333333333
 10
3.640879166666665
 20
8.848449999999999
 10
3.558018055555555
 20
8.9097
 10
3.482365277777777
 20
8.981741666666666
 10
3.413920833333332
 20
9.057394444444444
 10
3.352670833333332
 20
9.143866666666665
 10
3.302240277777777
 20
9.230325
 10
3.259004166666665
 20
9.323991666666666
 10
3.222976388888889
 20
9.421269444444444
 10
3.197754166666666
 20
9.522144444444444
 10
3.197754166666666
 20
9.536547222222221
  0
LWPOLYLINE
  5
155
330
2
100
AcDbEntity
  8
PDF_Layer 1
 62
     7
420
 16777215
370
    70
100
AcDbPolyline
 90
       64
 70
     0
 43
0.0
 10
3.194156944444444
 20
9.536547222222221
 10
3.197754166666666
 20
9.522144444444444
 10
3.222976388888889
 20
9.421269444444444
 10
3.255393055555554
 20
9.323991666666666
 10
3.302240277777777
 20
9.230325
 10
3.352670833333332
 20
9.140255555555555
 10
3.413920833333332
 20
9.057394444444444
 10
3.482365277777777
 20
8.981741666666666
 10
3.558018055555555
 20
8.9097
 10
3.640879166666665
 20
8.848449999999999
 10
3.727351388888888
 20
8.790811111111111
 10
3.821018055555554
 20
8.747574999999999
 10
3.918281944444442
 20
8.70795
 10
4.019170833333332
 20
8.682727777777778
 10
4.120031944444443
 20
8.664713888888888
 10
4.224518055555554
 20
8.657505555555555
 10
4.328990277777776
 20
8.661116666666666
 10
4.429865277777777
 20
8.671922222222221
 10
4.530740277777776
 20
8.693533333333332
 10
4.631615277777776
 20
8.725963888888887
 10
4.725281944444443
 20
8.76918611111111
 10
4.815351388888887
 20
8.819630555555555
 10
4.901809722222221
 20
8.877269444444443
 10
4.981073611111109
 20
8.945713888888889
 10
5.053115277777776
 20
9.017769444444445
 10
5.117962499999999
 20
9.100630555555556
 10
5.175615277777776
 20
9.187102777777777
 10
5.22244861111111
 20
9.277158333333332
 10
5.26207361111111
 20
9.37443611111111
 10
5.290893055555554
 20
9.471713888888888
 10
5.312518055555554
 20
9.576186111111111
 10
5.319712499999999
 20
9.677061111111111
 10
5.319712499999999
 20
9.781533333333333
 10
5.312518055555554
 20
9.886019444444443
 10
5.290893055555554
 20
9.986880555555554
 10
5.26207361111111
 20
10.08415833333333
 10
5.22244861111111
 20
10.18143611111111
 10
5.175615277777776
 20
10.27149166666666
 10
5.117962499999999
 20
10.35796388888889
 10
5.053115277777776
 20
10.44081111111111
 10
4.981073611111109
 20
10.51286666666666
 10
4.901809722222221
 20
10.581325
 10
4.815351388888887
 20
10.63896388888889
 10
4.725281944444443
 20
10.68939444444444
 10
4.631615277777776
 20
10.73263055555555
 10
4.530740277777776
 20
10.76506111111111
 10
4.429865277777777
 20
10.78667222222222
 10
4.328990277777776
 20
10.79747777777778
 10
4.224518055555554
 20
10.801075
 10
4.120031944444443
 20
10.79388055555555
 10
4.019170833333332
 20
10.77586666666666
 10
3.918281944444442
 20
10.75064444444444
 10
3.821018055555554
 20
10.71101944444444
 10
3.727351388888888
 20
10.66778333333333
 10
3.640879166666665
 20
10.61014444444444
 10
3.558018055555555
 20
10.54889444444444
 10
3.482365277777777
 20
10.47685277777778
 10
3.413920833333332
 20
10.40118611111111
 10
3.352670833333332
 20
10.318325
 10
3.302240277777777
 20
10.22826944444444
 10
3.255393055555554
 20
10.13460277777777
 10
3.222976388888889
 20
10.037325
 10
3.197754166666666
 20
9.93645
 10
3.194156944444444
 20
9.922033333333333
  0
LWPOLYLINE
  5
158
330
2
100
AcDbEntity
  8
PDF_Layer 1
 62
     7
420
 16777215
370
    70
100
AcDbPolyline
 90
       31
 70
     0
 43
0.0
 10
5.195206944444445
 20
3.224720833333333
 10
5.195206944444445
 20
3.206706944444444
 10
5.191609722222223
 20
3.192290277777777
 10
5.184401388888889
 20
3.177887499999999
 10
5.173595833333333
 20
3.167068055555555
 10
5.162776388888889
 20
3.156262499999999
 10
5.148373611111111
 20
3.149068055555555
 10
5.133970833333333
 20
3.141859722222221
 10
5.119554166666667
 20
3.141859722222221
 10
5.119554166666667
 20
3.145456944444443
 10
5.119554166666667
 20
3.163470833333332
 10
5.119554166666667
 20
3.188693055555555
 10
5.119554166666667
 20
3.221109722222221
 10
5.119554166666667
 20
3.264345833333333
 10
5.119554166666667
 20
3.318387499999999
 10
5.119554166666667
 20
3.376026388888888
 10
5.119554166666667
 20
3.44087361111111
 10
5.119554166666667
 20
3.509318055555555
 10
5.119554166666667
 20
3.577776388888888
 10
5.119554166666667
 20
3.653429166666666
 10
5.119554166666667
 20
3.725470833333333
 10
5.119554166666667
 20
3.793929166666666
 10
5.119554166666667
 20
3.862387499999999
 10
5.119554166666667
 20
3.927234722222221
 10
5.119554166666667
 20
3.98487361111111
 10
5.119554166666667
 20
4.038915277777777
 10
5.119554166666667
 20
4.082137499999999
 10
5.119554166666667
 20
4.114568055555555
 10
5.119554166666667
 20
4.139790277777777
 10
5.119554166666667
 20
4.157790277777777
 10
5.119554166666667
 20
4.161401388888888
  0
LWPOLYLINE
  5
15A
330
2
100
AcDbEntity
  8
PDF_Layer 1
 62
     7
420
 16777215
370
    70
100
AcDbPolyline
 90
       21
 70
     0
 43
0.0
 10
3.444326388888887
 20
4.633356944444444
 10
3.444326388888887
 20
4.629745833333333
 10
3.444326388888887
 20
4.626134722222222
 10
3.44792361111111
 20
4.622551388888889
 10
3.451520833333332
 20
4.618940277777777
 10
3.455131944444443
 20
4.615343055555555
 10
3.455131944444443
 20
4.608120833333333
 10
3.455131944444443
 20
4.590120833333333
 10
3.455131944444443
 20
4.5612875
 10
3.455131944444443
 20
4.525273611111111
 10
3.455131944444443
 20
4.478440277777778
 10
3.455131944444443
 20
4.424398611111111
 10
3.455131944444443
 20
4.359551388888888
 10
3.455131944444443
 20
4.287495833333333
 10
3.455131944444443
 20
4.211843055555555
 10
3.455131944444443
 20
4.125384722222222
 10
3.455131944444443
 20
4.0389125
 10
3.455131944444443
 20
3.945245833333333
 10
3.455131944444443
 20
3.847968055555556
 10
3.455131944444443
 20
3.750704166666666
 10
3.455131944444443
 20
3.653426388888889
  0
LWPOLYLINE
  5
15B
330
2
100
AcDbEntity
  8
PDF_Layer 1
 62
     7
420
 16777215
370
    70
100
AcDbPolyline
 90
       16
 70
     0
 43
0.0
 10
3.455131944444443
 20
3.653429166666666
 10
3.455131944444443
 20
3.552554166666666
 10
3.455131944444443
 20
3.455276388888888
 10
3.455131944444443
 20
3.358012499999999
 10
3.455131944444443
 20
3.264345833333333
 10
3.455131944444443
 20
3.177887499999999
 10
3.455131944444443
 20
3.091415277777777
 10
3.455131944444443
 20
3.015762499999999
 10
3.455131944444443
 20
2.943706944444444
 10
3.455131944444443
 20
2.878859722222221
 10
3.455131944444443
 20
2.824818055555555
 10
3.455131944444443
 20
2.777984722222221
 10
3.455131944444443
 20
2.741956944444444
 10
3.455131944444443
 20
2.713137499999999
 10
3.455131944444443
 20
2.69512361111111
 10
3.455131944444443
 20
2.687915277777777
  0
LWPOLYLINE
  5
15C
330
2
100
AcDbEntity
  8
PDF_Layer 1
 62
     7
420
 16777215
370
    70
100
AcDbPolyline
 90
       38
 70
     0
 43
0.0
 10
3.444329166666666
 20
2.6591
 10
3.444329166666666
 20
2.655488888888889
 10
3.444329166666666
 20
2.651891666666667
 10
3.440718055555555
 20
2.651891666666667
 10
3.440718055555555
 20
2.648294444444444
 10
3.437120833333333
 20
2.644697222222222
 10
3.437120833333333
 20
2.641086111111111
 10
3.437120833333333
 20
2.648294444444444
 10
3.437120833333333
 20
2.666294444444444
 10
3.437120833333333
 20
2.695127777777778
 10
3.437120833333333
 20
2.731141666666666
 10
3.437120833333333
 20
2.777975
 10
3.437120833333333
 20
2.832030555555555
 10
3.437120833333333
 20
2.893266666666666
 10
3.437120833333333
 20
2.965322222222222
 10
3.437120833333333
 20
3.040975
 10
3.437120833333333
 20
3.12385
 10
3.437120833333333
 20
3.213905555555555
 10
3.437120833333333
 20
3.307572222222222
 10
3.437120833333333
 20
3.401238888888889
 10
3.437120833333333
 20
3.502113888888889
 10
3.437120833333333
 20
3.602988888888889
 10
3.437120833333333
 20
3.700266666666666
 10
3.437120833333333
 20
3.801127777777778
 10
3.437120833333333
 20
3.902016666666667
 10
3.437120833333333
 20
3.995683333333333
 10
3.437120833333333
 20
4.08935
 10
3.437120833333333
 20
4.179419444444445
 10
3.437120833333333
 20
4.262280555555555
 10
3.437120833333333
 20
4.337933333333333
 10
3.437120833333333
 20
4.409975
 10
3.437120833333333
 20
4.471238888888889
 10
3.437120833333333
 20
4.525266666666666
 10
3.437120833333333
 20
4.572099999999999
 10
3.437120833333333
 20
4.608127777777777
 10
3.437120833333333
 20
4.636947222222222
 10
3.437120833333333
 20
4.654961111111111
 10
3.437120833333333
 20
4.662183333333333
  0
LWPOLYLINE
  5
15D
330
2
100
AcDbEntity
  8
PDF_Layer 1
 62
     7
420
 16777215
370
    70
100
AcDbPolyline
 90
       41
 70
     0
 43
0.0
 10
3.307415277777777
 20
4.723420833333332
 10
3.307415277777777
 20
4.719809722222221
 10
3.311026388888888
 20
4.716212499999999
 10
3.311026388888888
 20
4.712601388888888
 10
3.314623611111111
 20
4.709018055555555
 10
3.318234722222221
 20
4.705406944444443
 10
3.321831944444444
 20
4.705406944444443
 10
3.325429166666666
 20
4.701795833333332
 10
3.329040277777777
 20
4.701795833333332
 10
3.329040277777777
 20
4.69819861111111
 10
3.329040277777777
 20
4.683781944444444
 10
3.329040277777777
 20
4.65857361111111
 10
3.329040277777777
 20
4.622545833333332
 10
3.329040277777777
 20
4.579309722222221
 10
3.329040277777777
 20
4.525268055555555
 10
3.329040277777777
 20
4.464031944444443
 10
3.329040277777777
 20
4.39557361111111
 10
3.329040277777777
 20
4.319920833333332
 10
3.329040277777777
 20
4.237059722222221
 10
3.329040277777777
 20
4.146990277777777
 10
3.329040277777777
 20
4.05332361111111
 10
3.329040277777777
 20
3.956059722222221
 10
3.329040277777777
 20
3.855184722222221
 10
3.329040277777777
 20
3.754295833333332
 10
3.329040277777777
 20
3.653434722222221
 10
3.329040277777777
 20
3.54894861111111
 10
3.329040277777777
 20
3.44807361111111
 10
3.329040277777777
 20
3.347212499999999
 10
3.329040277777777
 20
3.249934722222221
 10
3.329040277777777
 20
3.156268055555555
 10
3.329040277777777
 20
3.06619861111111
 10
3.329040277777777
 20
2.983337499999999
 10
3.329040277777777
 20
2.907684722222222
 10
3.329040277777777
 20
2.839240277777777
 10
3.329040277777777
 20
2.777976388888888
 10
3.329040277777777
 20
2.72394861111111
 10
3.329040277777777
 20
2.680712499999999
 10
3.329040277777777
 20
2.64469861111111
 10
3.329040277777777
 20
2.619462499999999
 10
3.329040277777777
 20
2.605059722222221
 10
3.329040277777777
 20
2.60144861111111
  0
LWPOLYLINE
  5
15E
330
2
100
AcDbEntity
  8
PDF_Layer 1
 62
     7
420
 16777215
370
    70
100
AcDbPolyline
 90
       41
 70
     0
 43
0.0
 10
3.307426388888888
 20
2.57985
 10
3.307426388888888
 20
2.576238888888889
 10
3.307426388888888
 20
2.572627777777778
 10
3.307426388888888
 20
2.569044444444444
 10
3.303815277777776
 20
2.569044444444444
 10
3.303815277777776
 20
2.565433333333333
 10
3.300218055555554
 20
2.565433333333333
 10
3.300218055555554
 20
2.561822222222222
 10
3.300218055555554
 20
2.565433333333333
 10
3.300218055555554
 20
2.57985
 10
3.300218055555554
 20
2.601461111111111
 10
3.300218055555554
 20
2.633877777777778
 10
3.300218055555554
 20
2.677113888888889
 10
3.300218055555554
 20
2.727558333333333
 10
3.300218055555554
 20
2.785197222222222
 10
3.300218055555554
 20
2.853641666666667
 10
3.300218055555554
 20
2.929294444444444
 10
3.300218055555554
 20
3.012155555555556
 10
3.300218055555554
 20
3.098613888888889
 10
3.300218055555554
 20
3.192294444444444
 10
3.300218055555554
 20
3.289558333333333
 10
3.300218055555554
 20
3.390433333333333
 10
3.300218055555554
 20
3.494919444444444
 10
3.300218055555554
 20
3.599391666666666
 10
3.300218055555554
 20
3.703877777777778
 10
3.300218055555554
 20
3.80835
 10
3.300218055555554
 20
3.912808333333333
 10
3.300218055555554
 20
4.013697222222222
 10
3.300218055555554
 20
4.110961111111111
 10
3.300218055555554
 20
4.204627777777778
 10
3.300218055555554
 20
4.2911
 10
3.300218055555554
 20
4.37396111111111
 10
3.300218055555554
 20
4.449613888888888
 10
3.300218055555554
 20
4.518072222222222
 10
3.300218055555554
 20
4.575711111111111
 10
3.300218055555554
 20
4.626141666666667
 10
3.300218055555554
 20
4.669377777777777
 10
3.300218055555554
 20
4.701794444444445
 10
3.300218055555554
 20
4.723419444444444
 10
3.300218055555554
 20
4.737822222222222
 10
3.300218055555554
 20
4.741433333333334
  0
LWPOLYLINE
  5
15F
330
2
100
AcDbEntity
  8
PDF_Layer 1
 62
     7
420
 16777215
370
    70
100
AcDbPolyline
 90
        8
 70
     0
 43
0.0
 10
6.0850625
 20
3.840766666666666
 10
6.0850625
 20
3.873197222222221
 10
6.0850625
 20
3.920030555555555
 10
6.0850625
 20
3.963252777777777
 10
6.0850625
 20
3.995683333333333
 10
6.0850625
 20
4.020905555555555
 10
6.0850625
 20
4.035308333333333
 10
6.0850625
 20
4.038919444444443
  0
LWPOLYLINE
  5
160
330
2
100
AcDbEntity
  8
PDF_Layer 1
 62
     7
420
 16777215
370
    70
100
AcDbPolyline
 90
       14
 70
     0
 43
0.0
 10
6.095868055555555
 20
3.253544444444444
 10
6.095868055555555
 20
3.257127777777777
 10
6.092270833333333
 20
3.257127777777777
 10
6.092270833333333
 20
3.260738888888888
 10
6.088659722222222
 20
3.260738888888888
 10
6.088659722222222
 20
3.264349999999999
 10
6.0850625
 20
3.264349999999999
 10
6.0850625
 20
3.275141666666666
 10
6.0850625
 20
3.296766666666666
 10
6.0850625
 20
3.32558611111111
 10
6.0850625
 20
3.361613888888888
 10
6.0850625
 20
3.404849999999999
 10
6.0850625
 20
3.458891666666666
 10
6.0850625
 20
3.462488888888888
  0
LWPOLYLINE
  5
161
330
2
100
AcDbEntity
  8
PDF_Layer 1
 62
     7
420
 16777215
370
    70
100
AcDbPolyline
 90
        7
 70
     0
 43
0.0
 10
6.535393055555554
 20
3.920030555555555
 10
6.535393055555554
 20
3.923627777777777
 10
6.535393055555554
 20
3.966863888888889
 10
6.535393055555554
 20
3.999280555555555
 10
6.535393055555554
 20
4.024502777777778
 10
6.535393055555554
 20
4.038919444444444
 10
6.535393055555554
 20
4.042516666666666
  0
LWPOLYLINE
  5
162
330
2
100
AcDbEntity
  8
PDF_Layer 1
 62
     7
420
 16777215
370
    70
100
AcDbPolyline
 90
       13
 70
     0
 43
0.0
 10
6.557004166666666
 20
3.24993611111111
 10
6.553406944444443
 20
3.24993611111111
 10
6.553406944444443
 20
3.253533333333332
 10
6.549809722222221
 20
3.253533333333332
 10
6.54619861111111
 20
3.257130555555554
 10
6.542601388888888
 20
3.257130555555554
 10
6.538990277777776
 20
3.260741666666666
 10
6.535393055555554
 20
3.260741666666666
 10
6.535393055555554
 20
3.271547222222221
 10
6.535393055555554
 20
3.28956111111111
 10
6.535393055555554
 20
3.321977777777777
 10
6.535393055555554
 20
3.358019444444444
 10
6.535393055555554
 20
3.383227777777777
  0
LWPOLYLINE
  5
163
330
2
100
AcDbEntity
  8
PDF_Layer 1
 62
     7
420
 16777215
370
    70
100
AcDbPolyline
 90
        6
 70
     0
 43
0.0
 10
6.164320833333332
 20
3.386827777777777
 10
6.164320833333332
 20
3.358022222222222
 10
6.164320833333332
 20
3.321980555555555
 10
6.164320833333332
 20
3.289563888888888
 10
6.164320833333332
 20
3.27155
 10
6.164320833333332
 20
3.260744444444444
  0
LWPOLYLINE
  5
164
330
2
100
AcDbEntity
  8
PDF_Layer 1
 62
     7
420
 16777215
370
    70
100
AcDbPolyline
 90
       14
 70
     0
 43
0.0
 10
6.14270972222222
 20
4.05692361111111
 10
6.146306944444443
 20
4.053312499999999
 10
6.146306944444443
 20
4.049729166666666
 10
6.149904166666665
 20
4.049729166666666
 10
6.153515277777776
 20
4.046118055555554
 10
6.157112499999998
 20
4.046118055555554
 10
6.16072361111111
 20
4.042520833333332
 10
6.164320833333332
 20
4.042520833333332
 10
6.164320833333332
 20
4.038909722222221
 10
6.164320833333332
 20
4.024506944444444
 10
6.164320833333332
 20
3.999284722222221
 10
6.164320833333332
 20
3.966868055555555
 10
6.164320833333332
 20
3.923618055555555
 10
6.164320833333332
 20
3.91642361111111
  0
LWPOLYLINE
  5
165
330
2
100
AcDbEntity
  8
PDF_Layer 1
 62
     7
420
 16777215
370
    70
100
AcDbPolyline
 90
       14
 70
     0
 43
0.0
 10
6.557006944444444
 20
3.394043055555555
 10
6.557006944444444
 20
3.350806944444444
 10
6.557006944444444
 20
3.311181944444444
 10
6.557006944444444
 20
3.2823625
 10
6.557006944444444
 20
3.2607375
 10
6.557006944444444
 20
3.249931944444444
 10
6.560618055555555
 20
3.239126388888888
 10
6.5678125
 20
3.235529166666666
 10
6.578631944444444
 20
3.231918055555555
 10
6.585826388888889
 20
3.235529166666666
 10
6.596645833333333
 20
3.239126388888888
 10
6.603840277777778
 20
3.242723611111111
 10
6.607451388888889
 20
3.253543055555555
 10
6.607451388888889
 20
3.2607375
  0
LWPOLYLINE
  5
166
330
2
100
AcDbEntity
  8
PDF_Layer 1
 62
     7
420
 16777215
370
    70
100
AcDbPolyline
 90
       14
 70
     0
 43
0.0
 10
6.535395833333333
 20
4.042526388888887
 10
6.538993055555556
 20
4.042526388888887
 10
6.542604166666666
 20
4.046109722222221
 10
6.546201388888889
 20
4.046109722222221
 10
6.549798611111111
 20
4.049720833333332
 10
6.553409722222222
 20
4.049720833333332
 10
6.553409722222222
 20
4.053318055555554
 10
6.557006944444444
 20
4.053318055555554
 10
6.557006944444444
 20
4.049720833333332
 10
6.557006944444444
 20
4.035304166666666
 10
6.557006944444444
 20
4.010095833333332
 10
6.557006944444444
 20
3.974068055555554
 10
6.557006944444444
 20
3.930845833333332
 10
6.557006944444444
 20
3.909220833333332
  0
LWPOLYLINE
  5
167
330
2
100
AcDbEntity
  8
PDF_Layer 1
 62
     7
420
 16777215
370
    70
100
AcDbPolyline
 90
        7
 70
     0
 43
0.0
 10
6.095872222222221
 20
3.448079166666666
 10
6.095872222222221
 20
3.397634722222221
 10
6.095872222222221
 20
3.350801388888888
 10
6.095872222222221
 20
3.31477361111111
 10
6.095872222222221
 20
3.282356944444444
 10
6.095872222222221
 20
3.264343055555555
 10
6.095872222222221
 20
3.253537499999999
  0
LWPOLYLINE
  5
168
330
2
100
AcDbEntity
  8
PDF_Layer 1
 62
     7
420
 16777215
370
    70
100
AcDbPolyline
 90
       14
 70
     0
 43
0.0
 10
6.085066666666666
 20
4.038918055555554
 10
6.088663888888888
 20
4.038918055555554
 10
6.088663888888888
 20
4.042515277777776
 10
6.092274999999999
 20
4.042515277777776
 10
6.092274999999999
 20
4.046112499999999
 10
6.095872222222221
 20
4.046112499999999
 10
6.095872222222221
 20
4.04972361111111
 10
6.095872222222221
 20
4.046112499999999
 10
6.095872222222221
 20
4.031709722222221
 10
6.095872222222221
 20
4.006487499999999
 10
6.095872222222221
 20
3.970459722222221
 10
6.095872222222221
 20
3.927237499999998
 10
6.095872222222221
 20
3.880404166666665
 10
6.095872222222221
 20
3.855181944444443
  0
LWPOLYLINE
  5
169
330
2
100
AcDbEntity
  8
PDF_Layer 1
 62
     7
420
 16777215
370
    70
100
AcDbPolyline
 90
        7
 70
     0
 43
0.0
 10
6.142706944444443
 20
3.905612499999999
 10
6.142706944444443
 20
3.952445833333332
 10
6.142706944444443
 20
3.992084722222221
 10
6.142706944444443
 20
4.024515277777777
 10
6.142706944444443
 20
4.042515277777777
 10
6.142706944444443
 20
4.053320833333333
 10
6.142706944444443
 20
4.056931944444444
  0
LWPOLYLINE
  5
16A
330
2
100
AcDbEntity
  8
PDF_Layer 1
 62
     7
420
 16777215
370
    70
100
AcDbPolyline
 90
       14
 70
     0
 43
0.0
 10
6.164318055555555
 20
3.260741666666666
 10
6.160720833333332
 20
3.260741666666666
 10
6.15712361111111
 20
3.257130555555555
 10
6.153512499999999
 20
3.257130555555555
 10
6.149915277777777
 20
3.253547222222221
 10
6.146304166666666
 20
3.253547222222221
 10
6.146304166666666
 20
3.24993611111111
 10
6.142706944444443
 20
3.246324999999999
 10
6.142706944444443
 20
3.253547222222221
 10
6.142706944444443
 20
3.267949999999999
 10
6.142706944444443
 20
3.293158333333332
 10
6.142706944444443
 20
3.329199999999999
 10
6.142706944444443
 20
3.372422222222221
 10
6.142706944444443
 20
3.397644444444444
  0
LWPOLYLINE
  5
16B
330
2
100
AcDbEntity
  8
PDF_Layer 1
 62
     7
420
 16777215
370
    70
100
AcDbPolyline
 90
        4
 70
     0
 43
0.0
 10
5.112345833333332
 20
4.161404166666665
 10
5.112345833333332
 20
4.179418055555554
 10
5.112345833333332
 20
4.197431944444443
 10
5.112345833333332
 20
4.201043055555554
  0
LWPOLYLINE
  5
16C
330
2
100
AcDbEntity
  8
PDF_Layer 1
 62
     7
420
 16777215
370
    70
100
AcDbPolyline
 90
       12
 70
     0
 43
0.0
 10
5.195206944444443
 20
3.185088888888889
 10
5.195206944444443
 20
3.167075
 10
5.18799861111111
 20
3.152658333333333
 10
5.180804166666665
 20
3.138255555555555
 10
5.169984722222221
 20
3.127436111111111
 10
5.159179166666666
 20
3.116630555555555
 10
5.144762499999998
 20
3.109436111111111
 10
5.130359722222221
 20
3.102227777777777
 10
5.112345833333332
 20
3.102227777777777
 10
5.112345833333332
 20
3.105824999999999
 10
5.112345833333332
 20
3.123852777777777
 10
5.112345833333332
 20
3.141866666666666
  0
LWPOLYLINE
  5
16D
330
2
100
AcDbEntity
  8
PDF_Layer 1
 62
     7
420
 16777215
370
    70
100
AcDbPolyline
 90
       43
 70
     0
 43
0.0
 10
10.31457222222222
 20
4.060529166666665
 42
-0.3162728542071262
 10
12.04383611111111
 20
2.850043055555555
 10
12.04023888888889
 20
2.850043055555555
 10
12.02582222222222
 20
2.842820833333333
 10
12.00061388888888
 20
2.835626388888888
 10
11.97179444444444
 20
2.824820833333332
 10
11.93215555555555
 20
2.810404166666666
 10
11.88532222222222
 20
2.792404166666666
 10
11.83489166666666
 20
2.774390277777777
 10
11.77725277777777
 20
2.752765277777777
 10
11.7196
 20
2.731140277777777
 10
11.65834999999999
 20
2.709543055555555
 10
11.600725
 20
2.687918055555555
 10
11.539475
 20
2.666306944444444
 10
11.48543333333333
 20
2.648293055555555
 10
11.43498888888888
 20
2.630279166666666
 10
11.38815555555555
 20
2.612265277777777
 10
11.34851666666666
 20
2.597862499999999
 10
11.31611388888888
 20
2.587043055555555
 10
11.29448888888888
 20
2.57984861111111
 10
11.28008611111111
 20
2.572626388888888
 10
11.276475
 20
2.572631944444443
 10
11.34851666666666
 20
2.367284722222221
 42
0.0006644746839155
 10
11.73400833333333
 20
2.507784722222222
 10
11.73761944444444
 20
2.507784722222222
 10
11.79525833333333
 20
2.529409722222221
 10
11.85649444444444
 20
2.551020833333333
 10
11.91055
 20
2.572631944444444
 10
11.96098055555555
 20
2.590645833333333
 10
12.00781388888888
 20
2.608659722222221
 10
12.04743888888889
 20
2.623076388888888
 10
12.07985555555555
 20
2.633881944444444
 10
12.10148055555555
 20
2.641090277777777
 10
12.11589722222222
 20
2.648284722222221
 10
12.11948888888888
 20
2.648281944444443
 10
12.16993333333333
 20
2.533018055555555
 10
12.22037777777777
 20
2.414115277777777
 10
12.27441944444444
 20
2.29882361111111
 10
12.33205833333333
 20
2.187143055555555
 10
12.39329444444444
 20
2.071865277777777
 10
12.45454444444444
 20
1.963781944444443
 10
12.51939166666666
 20
1.852101388888888
 10
12.58783611111111
 20
1.744031944444444
  0
LWPOLYLINE
  5
16E
330
2
100
AcDbEntity
  8
PDF_Layer 1
 62
     7
420
 16777215
370
    70
100
AcDbPolyline
 90
       23
 70
     0
 43
0.0
 10
6.603838888888889
 20
4.060533333333333
 10
10.314575
 20
4.060533333333333
 10
10.314575
 20
4.056922222222222
 10
10.314575
 20
4.038908333333333
 10
10.314575
 20
4.017297222222222
 10
10.314575
 20
3.981269444444444
 10
10.314575
 20
3.941630555555556
 10
10.314575
 20
3.891213888888889
 10
10.314575
 20
3.837158333333333
 10
10.314575
 20
3.779533333333333
 10
10.314575
 20
3.714686111111111
 10
10.314575
 20
3.653422222222222
 10
10.314575
 20
3.588588888888889
 10
10.314575
 20
3.523741666666666
 10
10.314575
 20
3.466088888888889
 10
10.314575
 20
3.412061111111111
 10
10.314575
 20
3.361616666666667
 10
10.314575
 20
3.321977777777778
 10
10.314575
 20
3.28595
 10
10.314575
 20
3.264352777777778
 10
10.314575
 20
3.249936111111111
 10
10.314575
 20
3.242727777777778
 42
-0.3154507793300208
 10
11.27647777777778
 20
2.572633333333333
  0
LWPOLYLINE
  5
16F
330
2
100
AcDbEntity
  8
PDF_Layer 1
 62
     7
420
 16777215
370
    70
100
AcDbPolyline
 90
       32
 70
     0
 43
0.0
 10
11.55028472222222
 20
1.308101388888888
 10
11.55747916666666
 20
1.311712499999999
 10
11.5646875
 20
1.322518055555555
 10
11.56828472222222
 20
1.329726388888888
 10
11.57189583333333
 20
1.336920833333333
 10
11.57549305555555
 20
1.347740277777777
 10
11.57910416666666
 20
1.358545833333333
 10
11.57910416666666
 20
1.365754166666666
 10
11.57549305555555
 20
1.376559722222222
 10
11.58270138888888
 20
1.380156944444444
 10
11.59711805555555
 20
1.383768055555555
 10
11.61872916666666
 20
1.390962499999999
 10
11.65114583333333
 20
1.405379166666666
 10
11.69078472222222
 20
1.419781944444444
 10
11.73761805555555
 20
1.43419861111111
 10
11.79164583333333
 20
1.455809722222222
 10
11.84929861111111
 20
1.477434722222222
 10
11.91414583333333
 20
1.499045833333333
 10
11.97899305555555
 20
1.524268055555555
 10
12.0474375
 20
1.549476388888888
 10
12.11589583333333
 20
1.574712499999999
 10
12.18434027777777
 20
1.599920833333333
 10
12.2491875
 20
1.621545833333333
 10
12.31403472222222
 20
1.646754166666666
 10
12.37167361111111
 20
1.668379166666666
 10
12.42572916666666
 20
1.686393055555555
 10
12.4725625
 20
1.704393055555555
 10
12.51217361111111
 20
1.718809722222222
 10
12.54460416666666
 20
1.729615277777777
 10
12.56622916666666
 20
1.736809722222222
 10
12.58063194444444
 20
1.744031944444444
 10
12.58784027777777
 20
1.744031944444444
  0
LWPOLYLINE
  5
170
330
2
100
AcDbEntity
  8
PDF_Layer 1
 62
     7
420
 16777215
370
    70
100
AcDbPolyline
 90
       33
 70
     0
 43
0.0
 10
12.58783611111111
 20
1.744036111111111
 10
12.59144722222222
 20
1.736813888888888
 10
12.59864166666666
 20
1.729619444444444
 10
12.60585
 20
1.722411111111111
 10
12.61305833333333
 20
1.718799999999999
 10
12.62387777777777
 20
1.715216666666666
 10
12.63107222222222
 20
1.711605555555555
 10
12.64189166666666
 20
1.707994444444444
 10
12.65268333333333
 20
1.707994444444444
 10
12.645475
 20
1.704397222222222
 10
12.63466944444444
 20
1.700786111111111
 10
12.60946111111111
 20
1.689980555555555
 10
12.57704444444444
 20
1.679188888888888
 10
12.53740555555555
 20
1.664772222222222
 10
12.49057222222222
 20
1.646758333333333
 10
12.43653055555555
 20
1.628744444444444
 10
12.37528055555555
 20
1.607119444444444
 10
12.31043333333333
 20
1.581911111111111
 10
12.24558611111111
 20
1.556688888888888
 10
12.17354444444444
 20
1.531466666666666
 10
12.101475
 20
1.506258333333333
 10
12.02943333333333
 20
1.48103611111111
 10
11.960975
 20
1.455813888888888
 10
11.89254444444444
 20
1.430591666666666
 10
11.82768333333333
 20
1.405383333333333
 10
11.76643333333333
 20
1.383758333333333
 10
11.71240555555555
 20
1.365744444444444
 10
11.66557222222222
 20
1.347744444444444
 10
11.62593333333333
 20
1.333313888888888
 10
11.59350277777777
 20
1.322522222222222
 10
11.57190555555555
 20
1.311716666666666
 10
11.55748888888888
 20
1.308105555555555
 10
11.55028055555555
 20
1.308105555555555
  0
LWPOLYLINE
  5
171
330
2
100
AcDbEntity
  8
PDF_Layer 1
 62
     7
420
 16777215
370
    70
100
AcDbPolyline
 90
       11
 70
     0
 43
0.0
 10
2.215820833333332
 20
4.04972361111111
 10
2.215820833333332
 20
4.046112499999999
 10
2.215820833333332
 20
4.035306944444443
 10
2.215820833333332
 20
4.010084722222221
 10
2.215820833333332
 20
3.977668055555554
 10
2.215820833333332
 20
3.938043055555554
 10
2.215820833333332
 20
3.891209722222221
 10
2.215820833333332
 20
3.837154166666665
 10
2.215820833333332
 20
3.779529166666665
 10
2.215820833333332
 20
3.714681944444443
 10
2.215820833333332
 20
3.653431944444443
  0
LWPOLYLINE
  5
172
330
2
100
AcDbEntity
  8
PDF_Layer 1
 62
     7
420
 16777215
370
    70
100
AcDbPolyline
 90
       12
 70
     0
 43
0.0
 10
2.215820833333332
 20
3.653429166666666
 10
2.215820833333332
 20
3.588581944444444
 10
2.215820833333332
 20
3.527331944444444
 10
2.215820833333332
 20
3.466095833333333
 10
2.215820833333332
 20
3.412054166666666
 10
2.215820833333332
 20
3.365220833333332
 10
2.215820833333332
 20
3.325595833333332
 10
2.215820833333332
 20
3.293165277777777
 10
2.215820833333332
 20
3.267943055555555
 10
2.215820833333332
 20
3.257137499999999
 10
2.215820833333332
 20
3.253540277777777
 10
2.785029166666666
 20
3.253540277777777
  0
LWPOLYLINE
  5
173
330
2
100
AcDbEntity
  8
PDF_Layer 1
 62
     7
420
 16777215
370
    70
100
AcDbPolyline
 90
       22
 70
     0
 43
0.0
 10
2.817465277777777
 20
3.210299999999999
 10
2.785034722222222
 20
3.242730555555555
 10
2.785034722222222
 20
3.246327777777777
 10
2.785034722222222
 20
3.260744444444444
 10
2.785034722222222
 20
3.285952777777777
 10
2.785034722222222
 20
3.318383333333332
 10
2.785034722222222
 20
3.361619444444444
 10
2.785034722222222
 20
3.412049999999999
 10
2.785034722222222
 20
3.466091666666666
 10
2.785034722222222
 20
3.523730555555555
 10
2.785034722222222
 20
3.588577777777777
 10
2.785034722222222
 20
3.653424999999999
 10
2.785034722222222
 20
3.714674999999999
 10
2.785034722222222
 20
3.779522222222222
 10
2.785034722222222
 20
3.83716111111111
 10
2.785034722222222
 20
3.891202777777777
 10
2.785034722222222
 20
3.941633333333332
 10
2.785034722222222
 20
3.984883333333332
 10
2.785034722222222
 20
4.017299999999999
 10
2.785034722222222
 20
4.042522222222221
 10
2.785034722222222
 20
4.056924999999999
 10
2.785034722222222
 20
4.06053611111111
  0
LWPOLYLINE
  5
174
330
2
100
AcDbEntity
  8
PDF_Layer 1
 62
     7
420
 16777215
370
    70
100
AcDbPolyline
 90
        7
 70
     0
 43
0.0
 10
3.1344875
 20
4.110962499999999
 10
3.141695833333333
 20
4.110962499999999
 10
3.145306944444444
 20
4.096559722222221
 10
3.148904166666666
 20
4.064129166666665
 10
3.148904166666666
 20
4.01369861111111
 10
3.152501388888889
 20
3.948851388888888
 10
3.152501388888889
 20
3.916420833333332
  0
LWPOLYLINE
  5
175
330
2
100
AcDbEntity
  8
PDF_Layer 1
 62
     7
420
 16777215
370
    70
100
AcDbPolyline
 90
       17
 70
     0
 43
0.0
 10
3.058841666666666
 20
4.110962499999999
 10
3.069647222222221
 20
4.110962499999999
 10
3.069647222222221
 20
4.096559722222221
 10
3.073244444444443
 20
4.064129166666665
 10
3.076855555555555
 20
4.01369861111111
 10
3.076855555555555
 20
3.948851388888888
 10
3.080452777777777
 20
3.869587499999999
 10
3.084063888888888
 20
3.783129166666665
 10
3.084063888888888
 20
3.693059722222221
 10
3.08766111111111
 20
3.599393055555554
 10
3.091258333333332
 20
3.50932361111111
 10
3.091258333333332
 20
3.422865277777777
 10
3.094855555555555
 20
3.347212499999999
 10
3.098466666666666
 20
3.285962499999999
 10
3.098466666666666
 20
3.235531944444443
 10
3.102063888888888
 20
3.206712499999999
 10
3.105674999999999
 20
3.192281944444443
  0
LWPOLYLINE
  5
176
330
2
100
AcDbEntity
  8
PDF_Layer 1
 62
     7
420
 16777215
370
    70
100
AcDbPolyline
 90
       17
 70
     0
 43
0.0
 10
2.98318611111111
 20
4.110962499999999
 10
2.993991666666666
 20
4.110962499999999
 10
2.997588888888888
 20
4.096559722222221
 10
3.001199999999999
 20
4.064129166666665
 10
3.001199999999999
 20
4.01369861111111
 10
3.004797222222222
 20
3.948851388888888
 10
3.008408333333333
 20
3.869587499999999
 10
3.008408333333333
 20
3.783129166666665
 10
3.012005555555555
 20
3.693059722222221
 10
3.015602777777777
 20
3.599393055555554
 10
3.015602777777777
 20
3.50932361111111
 10
3.0192
 20
3.422865277777777
 10
3.02281111111111
 20
3.347212499999999
 10
3.02281111111111
 20
3.285962499999999
 10
3.026408333333333
 20
3.235531944444443
 10
3.030019444444444
 20
3.206712499999999
 10
3.030019444444444
 20
3.192281944444443
  0
LWPOLYLINE
  5
177
330
2
100
AcDbEntity
  8
PDF_Layer 1
 62
     7
420
 16777215
370
    70
100
AcDbPolyline
 90
       18
 70
     0
 43
0.0
 10
2.911126388888888
 20
4.110962499999999
 10
2.918334722222222
 20
4.110962499999999
 10
2.921931944444444
 20
4.110962499999999
 10
2.921931944444444
 20
4.096559722222221
 10
2.925543055555555
 20
4.064129166666665
 10
2.929140277777777
 20
4.01369861111111
 10
2.929140277777777
 20
3.948851388888888
 10
2.932751388888888
 20
3.869587499999999
 10
2.936348611111111
 20
3.783129166666665
 10
2.936348611111111
 20
3.693059722222221
 10
2.939959722222221
 20
3.599393055555554
 10
2.943556944444444
 20
3.50932361111111
 10
2.943556944444444
 20
3.422865277777777
 10
2.947154166666666
 20
3.347212499999999
 10
2.950751388888889
 20
3.285962499999999
 10
2.950751388888889
 20
3.235531944444443
 10
2.9543625
 20
3.206712499999999
 10
2.957973611111111
 20
3.192281944444443
  0
LWPOLYLINE
  5
178
330
2
100
AcDbEntity
  8
PDF_Layer 1
 62
     7
420
 16777215
370
    70
100
AcDbPolyline
 90
       17
 70
     0
 43
0.0
 10
2.83547361111111
 20
4.110962499999999
 10
2.846279166666666
 20
4.110962499999999
 10
2.849890277777777
 20
4.096559722222221
 10
2.849890277777777
 20
4.064129166666665
 10
2.853487499999999
 20
4.01369861111111
 10
2.857084722222222
 20
3.948851388888888
 10
2.857084722222222
 20
3.869587499999999
 10
2.860695833333333
 20
3.783129166666665
 10
2.864293055555555
 20
3.693059722222221
 10
2.864293055555555
 20
3.599393055555554
 10
2.867904166666666
 20
3.50932361111111
 10
2.871501388888889
 20
3.422865277777777
 10
2.871501388888889
 20
3.347212499999999
 10
2.875098611111111
 20
3.285962499999999
 10
2.878709722222222
 20
3.235531944444443
 10
2.878709722222222
 20
3.206712499999999
 10
2.882306944444444
 20
3.192281944444443
  0
LWPOLYLINE
  5
179
330
2
100
AcDbEntity
  8
PDF_Layer 1
 62
     7
420
 16777215
370
    70
100
AcDbPolyline
 90
       17
 70
     0
 43
0.0
 10
3.09126111111111
 20
4.067736111111111
 10
3.09126111111111
 20
4.071347222222222
 10
3.094858333333332
 20
4.053319444444444
 10
3.098469444444444
 20
4.020902777777777
 10
3.098469444444444
 20
3.974069444444444
 10
3.102066666666666
 20
3.912819444444444
 10
3.105677777777777
 20
3.844375
 10
3.105677777777777
 20
3.765111111111111
 10
3.109274999999999
 20
3.678638888888889
 10
3.11288611111111
 20
3.595791666666666
 10
3.11288611111111
 20
3.512930555555556
 10
3.116483333333333
 20
3.437263888888889
 10
3.120080555555555
 20
3.368819444444445
 10
3.120080555555555
 20
3.311180555555556
 10
3.123677777777777
 20
3.267944444444444
 10
3.127288888888888
 20
3.242736111111111
 10
3.127288888888888
 20
3.231916666666666
  0
LWPOLYLINE
  5
17A
330
2
100
AcDbEntity
  8
PDF_Layer 1
 62
     7
420
 16777215
370
    70
100
AcDbPolyline
 90
       18
 70
     0
 43
0.0
 10
2.993997222222222
 20
4.110968055555554
 10
3.004802777777777
 20
4.089356944444443
 10
3.019205555555555
 20
4.071343055555554
 10
3.019205555555555
 20
4.053315277777776
 10
3.022816666666666
 20
4.02450972222222
 10
3.026413888888888
 20
3.977662499999998
 10
3.026413888888888
 20
3.916426388888887
 10
3.030011111111111
 20
3.847968055555554
 10
3.033622222222222
 20
3.768718055555554
 10
3.033622222222222
 20
3.682245833333332
 10
3.037219444444444
 20
3.59939861111111
 10
3.040830555555555
 20
3.516537499999999
 10
3.040830555555555
 20
3.43727361111111
 10
3.044427777777777
 20
3.368815277777776
 10
3.048038888888889
 20
3.314773611111109
 10
3.048038888888889
 20
3.271551388888887
 10
3.051636111111111
 20
3.242731944444443
 10
3.055233333333333
 20
3.231926388888887
  0
LWPOLYLINE
  5
17B
330
2
100
AcDbEntity
  8
PDF_Layer 1
 62
     7
420
 16777215
370
    70
100
AcDbPolyline
 90
       18
 70
     0
 43
0.0
 10
2.921930555555555
 20
4.110968055555554
 10
2.93275
 20
4.089356944444443
 10
2.943555555555555
 20
4.071343055555554
 10
2.947152777777777
 20
4.056926388888888
 10
2.947152777777777
 20
4.02450972222222
 10
2.950763888888888
 20
3.977662499999998
 10
2.954361111111111
 20
3.92002361111111
 10
2.954361111111111
 20
3.847968055555554
 10
2.957972222222222
 20
3.768718055555554
 10
2.961569444444444
 20
3.685856944444443
 10
2.961569444444444
 20
3.602981944444443
 10
2.965166666666666
 20
3.520120833333332
 10
2.968763888888889
 20
3.440870833333332
 10
2.968763888888889
 20
3.372426388888888
 10
2.972374999999999
 20
3.314773611111109
 10
2.975972222222222
 20
3.271551388888887
 10
2.975972222222222
 20
3.242731944444443
 10
2.979583333333333
 20
3.231926388888887
  0
LWPOLYLINE
  5
17C
330
2
100
AcDbEntity
  8
PDF_Layer 1
 62
     7
420
 16777215
370
    70
100
AcDbPolyline
 90
       20
 70
     0
 43
0.0
 10
2.846275
 20
4.110968055555554
 10
2.857094444444444
 20
4.089356944444443
 10
2.8679
 20
4.071343055555554
 10
2.871497222222222
 20
4.071343055555554
 10
2.871497222222222
 20
4.056926388888888
 10
2.875108333333333
 20
4.028106944444443
 10
2.878705555555555
 20
3.98127361111111
 10
2.878705555555555
 20
3.92002361111111
 10
2.882316666666666
 20
3.851579166666665
 10
2.885913888888889
 20
3.772315277777776
 10
2.885913888888889
 20
3.689454166666665
 10
2.889511111111111
 20
3.606593055555554
 10
2.889511111111111
 20
3.520120833333332
 10
2.893108333333333
 20
3.444468055555554
 10
2.896719444444444
 20
3.37602361111111
 10
2.896719444444444
 20
3.318384722222221
 10
2.900316666666666
 20
3.271551388888887
 10
2.903927777777778
 20
3.242731944444443
 10
2.903927777777778
 20
3.231926388888887
 10
2.907525
 20
3.231926388888887
  0
LWPOLYLINE
  5
17D
330
2
100
AcDbEntity
  8
PDF_Layer 1
 62
     7
420
 16777215
370
    70
100
AcDbPolyline
 90
       18
 70
     0
 43
0.0
 10
2.785038888888888
 20
4.060537499999998
 10
2.795844444444444
 20
4.071343055555554
 10
2.799455555555555
 20
4.056926388888888
 10
2.799455555555555
 20
4.028106944444443
 10
2.803052777777777
 20
3.98127361111111
 10
2.80665
 20
3.923620833333332
 10
2.80665
 20
3.855190277777776
 10
2.810261111111111
 20
3.775912499999999
 10
2.813858333333333
 20
3.693065277777776
 10
2.813858333333333
 20
3.606593055555554
 10
2.817469444444444
 20
3.523731944444443
 10
2.821066666666666
 20
3.444468055555554
 10
2.821066666666666
 20
3.37602361111111
 10
2.824663888888888
 20
3.318384722222221
 10
2.828261111111111
 20
3.275148611111109
 10
2.828261111111111
 20
3.246329166666665
 10
2.831872222222222
 20
3.231926388888887
 10
2.831872222222222
 20
3.235523611111109
  0
LWPOLYLINE
  5
17E
330
2
100
AcDbEntity
  8
PDF_Layer 1
 62
     7
420
 16777215
370
    70
100
AcDbPolyline
 90
       19
 70
     0
 43
0.0
 10
2.817463888888889
 20
3.210299999999999
 10
2.817463888888889
 20
3.217522222222221
 10
2.813852777777777
 20
3.242730555555555
 10
2.813852777777777
 20
3.275147222222221
 10
2.813852777777777
 20
3.318383333333333
 10
2.810255555555555
 20
3.372424999999999
 10
2.810255555555555
 20
3.433674999999999
 10
2.810255555555555
 20
3.502119444444444
 10
2.806658333333333
 20
3.574174999999999
 10
2.806658333333333
 20
3.646230555555555
 10
2.806658333333333
 20
3.718272222222221
 10
2.803047222222222
 20
3.786730555555555
 10
2.803047222222222
 20
3.855188888888888
 10
2.803047222222222
 20
3.912813888888888
 10
2.79945
 20
3.966869444444443
 10
2.79945
 20
4.010091666666665
 10
2.79945
 20
4.042522222222221
 10
2.795838888888889
 20
4.06053611111111
 10
2.795838888888889
 20
4.071341666666666
  0
LWPOLYLINE
  5
17F
330
2
100
AcDbEntity
  8
PDF_Layer 1
 62
     7
420
 16777215
370
    70
100
AcDbPolyline
 90
       17
 70
     0
 43
0.0
 10
3.109273611111111
 20
4.067736111111111
 10
3.109273611111111
 20
4.071347222222222
 10
3.112884722222222
 20
4.053319444444444
 10
3.116481944444444
 20
4.020902777777777
 10
3.116481944444444
 20
3.974069444444444
 10
3.120079166666666
 20
3.912819444444444
 10
3.123690277777777
 20
3.844375
 10
3.123690277777777
 20
3.765111111111111
 10
3.127287499999999
 20
3.678638888888889
 10
3.13089861111111
 20
3.595791666666666
 10
3.13089861111111
 20
3.512930555555556
 10
3.134495833333333
 20
3.437263888888889
 10
3.138093055555555
 20
3.368819444444445
 10
3.138093055555555
 20
3.311180555555556
 10
3.141690277777777
 20
3.267944444444444
 10
3.145301388888888
 20
3.242736111111111
 10
3.145301388888888
 20
3.235527777777778
  0
LWPOLYLINE
  5
180
330
2
100
AcDbEntity
  8
PDF_Layer 1
 62
     7
420
 16777215
370
    70
100
AcDbPolyline
 90
       17
 70
     0
 43
0.0
 10
3.037224999999999
 20
4.067736111111111
 10
3.037224999999999
 20
4.071347222222222
 10
3.040822222222221
 20
4.053319444444444
 10
3.040822222222221
 20
4.024513888888889
 10
3.044433333333333
 20
3.977666666666666
 10
3.048030555555555
 20
3.916416666666667
 10
3.048030555555555
 20
3.847972222222222
 10
3.051641666666666
 20
3.768722222222222
 10
3.055238888888888
 20
3.68225
 10
3.055238888888888
 20
3.599388888888888
 10
3.05883611111111
 20
3.516527777777778
 10
3.05883611111111
 20
3.437263888888889
 10
3.062433333333333
 20
3.368819444444445
 10
3.066044444444444
 20
3.314777777777778
 10
3.066044444444444
 20
3.271555555555555
 10
3.069641666666666
 20
3.242736111111111
 10
3.073252777777777
 20
3.235527777777778
  0
LWPOLYLINE
  5
181
330
2
100
AcDbEntity
  8
PDF_Layer 1
 62
     7
420
 16777215
370
    70
100
AcDbPolyline
 90
       17
 70
     0
 43
0.0
 10
2.961568055555555
 20
4.067736111111111
 10
2.961568055555555
 20
4.071347222222222
 10
2.965165277777777
 20
4.056930555555555
 10
2.968776388888888
 20
4.024513888888889
 10
2.968776388888888
 20
3.977666666666666
 10
2.972373611111111
 20
3.920027777777778
 10
2.975984722222221
 20
3.847972222222222
 10
2.975984722222221
 20
3.768722222222222
 10
2.979581944444444
 20
3.685861111111111
 10
2.983179166666666
 20
3.602986111111111
 10
2.983179166666666
 20
3.520125
 10
2.986790277777777
 20
3.440875
 10
2.990387499999999
 20
3.372416666666667
 10
2.990387499999999
 20
3.314777777777778
 10
2.993984722222222
 20
3.271555555555555
 10
2.997595833333333
 20
3.242736111111111
 10
2.997595833333333
 20
3.231916666666666
  0
LWPOLYLINE
  5
182
330
2
100
AcDbEntity
  8
PDF_Layer 1
 62
     7
420
 16777215
370
    70
100
AcDbPolyline
 90
       17
 70
     0
 43
0.0
 10
2.88591111111111
 20
4.067736111111111
 10
2.889508333333332
 20
4.071347222222222
 10
2.889508333333332
 20
4.056930555555555
 10
2.893119444444443
 20
4.028097222222222
 10
2.896716666666666
 20
3.981263888888889
 10
2.896716666666666
 20
3.920027777777778
 10
2.900327777777777
 20
3.851583333333333
 10
2.903924999999999
 20
3.772305555555556
 10
2.903924999999999
 20
3.689458333333333
 10
2.907522222222221
 20
3.606597222222222
 10
2.911133333333332
 20
3.520125
 10
2.911133333333332
 20
3.444472222222222
 10
2.914730555555554
 20
3.376027777777778
 10
2.918327777777777
 20
3.318388888888889
 10
2.918327777777777
 20
3.271555555555555
 10
2.921938888888888
 20
3.242736111111111
 10
2.925549999999999
 20
3.231916666666666
  0
LWPOLYLINE
  5
183
330
2
100
AcDbEntity
  8
PDF_Layer 1
 62
     7
420
 16777215
370
    70
100
AcDbPolyline
 90
       17
 70
     0
 43
0.0
 10
2.813856944444444
 20
4.067736111111111
 10
2.813856944444444
 20
4.071347222222222
 10
2.817468055555555
 20
4.056930555555555
 10
2.817468055555555
 20
4.028097222222222
 10
2.821065277777777
 20
3.981263888888889
 10
2.8246625
 20
3.923625
 10
2.8246625
 20
3.855180555555556
 10
2.82827361111111
 20
3.775916666666666
 10
2.831870833333333
 20
3.693055555555555
 10
2.831870833333333
 20
3.606597222222222
 10
2.835481944444444
 20
3.523736111111111
 10
2.839079166666666
 20
3.444472222222222
 10
2.839079166666666
 20
3.376027777777778
 10
2.842676388888888
 20
3.318388888888889
 10
2.846273611111111
 20
3.275152777777778
 10
2.846273611111111
 20
3.246319444444444
 10
2.849884722222222
 20
3.231916666666666
  0
LWPOLYLINE
  5
184
330
2
100
AcDbEntity
  8
PDF_Layer 1
 62
     7
420
 16777215
370
    70
100
AcDbPolyline
 90
       10
 70
     0
 43
0.0
 10
3.134494444444444
 20
4.110962499999999
 10
3.134494444444444
 20
4.096559722222221
 10
3.138091666666666
 20
4.064129166666665
 10
3.141702777777777
 20
4.01369861111111
 10
3.141702777777777
 20
3.948851388888888
 10
3.145299999999999
 20
3.87319861111111
 10
3.14891111111111
 20
3.786726388888888
 10
3.14891111111111
 20
3.696656944444443
 10
3.152508333333333
 20
3.602990277777777
 10
3.152508333333333
 20
3.574184722222221
  0
LWPOLYLINE
  5
185
330
2
100
AcDbEntity
  8
PDF_Layer 1
 62
     7
420
 16777215
370
    70
100
AcDbPolyline
 90
       18
 70
     0
 43
0.0
 10
3.033615277777777
 20
4.071337499999999
 10
3.048031944444443
 20
4.089351388888887
 10
3.058837499999999
 20
4.110962499999999
 10
3.062434722222221
 20
4.096559722222221
 10
3.066045833333332
 20
4.064129166666665
 10
3.066045833333332
 20
4.01369861111111
 10
3.069643055555555
 20
3.948851388888888
 10
3.073254166666666
 20
3.87319861111111
 10
3.073254166666666
 20
3.786726388888888
 10
3.076851388888888
 20
3.696656944444443
 10
3.08044861111111
 20
3.602990277777777
 10
3.08044861111111
 20
3.512920833333332
 10
3.084059722222221
 20
3.426462499999999
 10
3.087656944444443
 20
3.350809722222221
 10
3.087656944444443
 20
3.285962499999999
 10
3.091254166666666
 20
3.239129166666665
 10
3.091254166666666
 20
3.206712499999999
 10
3.094865277777777
 20
3.192281944444443
  0
LWPOLYLINE
  5
186
330
2
100
AcDbEntity
  8
PDF_Layer 1
 62
     7
420
 16777215
370
    70
100
AcDbPolyline
 90
       19
 70
     0
 43
0.0
 10
2.961570833333333
 20
4.071337499999999
 10
2.972376388888888
 20
4.089351388888887
 10
2.983181944444444
 20
4.110962499999999
 10
2.986793055555555
 20
4.110962499999999
 10
2.986793055555555
 20
4.096559722222221
 10
2.990390277777777
 20
4.064129166666665
 10
2.993987499999999
 20
4.01369861111111
 10
2.993987499999999
 20
3.948851388888888
 10
2.99759861111111
 20
3.87319861111111
 10
3.001195833333333
 20
3.786726388888888
 10
3.001195833333333
 20
3.696656944444443
 10
3.004806944444443
 20
3.602990277777777
 10
3.008404166666666
 20
3.512920833333332
 10
3.008404166666666
 20
3.426462499999999
 10
3.012001388888888
 20
3.350809722222221
 10
3.01559861111111
 20
3.285962499999999
 10
3.01559861111111
 20
3.239129166666665
 10
3.019209722222222
 20
3.206712499999999
 10
3.022820833333332
 20
3.192281944444443
  0
LWPOLYLINE
  5
187
330
2
100
AcDbEntity
  8
PDF_Layer 1
 62
     7
420
 16777215
370
    70
100
AcDbPolyline
 90
       18
 70
     0
 43
0.0
 10
2.88591111111111
 20
4.071337499999999
 10
2.900327777777777
 20
4.089351388888887
 10
2.911133333333332
 20
4.110962499999999
 10
2.914730555555554
 20
4.096559722222221
 10
2.914730555555554
 20
4.064129166666665
 10
2.918341666666666
 20
4.01369861111111
 10
2.921938888888888
 20
3.948851388888888
 10
2.921938888888888
 20
3.87319861111111
 10
2.925549999999999
 20
3.786726388888888
 10
2.929147222222221
 20
3.696656944444443
 10
2.929147222222221
 20
3.602990277777777
 10
2.932744444444443
 20
3.512920833333332
 10
2.936341666666666
 20
3.426462499999999
 10
2.936341666666666
 20
3.350809722222221
 10
2.939952777777777
 20
3.285962499999999
 10
2.943549999999999
 20
3.239129166666665
 10
2.943549999999999
 20
3.206712499999999
 10
2.94716111111111
 20
3.192281944444443
  0
LWPOLYLINE
  5
188
330
2
100
AcDbEntity
  8
PDF_Layer 1
 62
     7
420
 16777215
370
    70
100
AcDbPolyline
 90
       20
 70
     0
 43
0.0
 10
2.813851388888889
 20
4.071337499999999
 10
2.824670833333333
 20
4.089351388888887
 10
2.835476388888888
 20
4.110962499999999
 10
2.839073611111111
 20
4.110962499999999
 10
2.839073611111111
 20
4.096559722222221
 10
2.842684722222222
 20
4.064129166666665
 10
2.842684722222222
 20
4.01369861111111
 10
2.846281944444444
 20
3.948851388888888
 10
2.849893055555555
 20
3.87319861111111
 10
2.849893055555555
 20
3.786726388888888
 10
2.853490277777778
 20
3.696656944444443
 10
2.8570875
 20
3.602990277777777
 10
2.8570875
 20
3.512920833333332
 10
2.860684722222222
 20
3.426462499999999
 10
2.864295833333333
 20
3.350809722222221
 10
2.864295833333333
 20
3.285962499999999
 10
2.867893055555555
 20
3.239129166666665
 10
2.871504166666666
 20
3.206712499999999
 10
2.871504166666666
 20
3.192281944444443
 10
2.875101388888888
 20
3.192281944444443
  0
LWPOLYLINE
  5
189
330
2
100
AcDbEntity
  8
PDF_Layer 1
 62
     7
420
 16777215
370
    70
100
AcDbPolyline
 90
       19
 70
     0
 43
0.0
 10
5.119558333333332
 20
4.161406944444443
 10
5.13396111111111
 20
4.161406944444443
 10
5.148377777777777
 20
4.154198611111111
 10
5.162780555555555
 20
4.146990277777777
 10
5.17358611111111
 20
4.136184722222221
 10
5.184405555555555
 20
4.125379166666666
 10
5.191613888888888
 20
4.110962499999999
 10
5.195211111111111
 20
4.096559722222221
 10
5.195211111111111
 20
4.078545833333333
 10
5.195211111111111
 20
4.071337499999999
 10
5.195211111111111
 20
4.05332361111111
 10
5.195211111111111
 20
4.028101388888888
 10
5.195211111111111
 20
3.992073611111111
 10
5.195211111111111
 20
3.948851388888888
 10
5.195211111111111
 20
3.898406944444444
 10
5.195211111111111
 20
3.840768055555555
 10
5.195211111111111
 20
3.779531944444444
 10
5.195211111111111
 20
3.718281944444444
 10
5.195211111111111
 20
3.653434722222221
  0
LWPOLYLINE
  5
18A
330
2
100
AcDbEntity
  8
PDF_Layer 1
 62
     7
420
 16777215
370
    70
100
AcDbPolyline
 90
       11
 70
     0
 43
0.0
 10
5.195211111111111
 20
3.653429166666666
 10
5.195211111111111
 20
3.584970833333332
 10
5.195211111111111
 20
3.523734722222221
 10
5.195211111111111
 20
3.462484722222221
 10
5.195211111111111
 20
3.404859722222221
 10
5.195211111111111
 20
3.354415277777777
 10
5.195211111111111
 20
3.311179166666666
 10
5.195211111111111
 20
3.275151388888888
 10
5.195211111111111
 20
3.249929166666666
 10
5.195211111111111
 20
3.231915277777777
 10
5.195211111111111
 20
3.224720833333333
  0
LWPOLYLINE
  5
18B
330
2
100
AcDbEntity
  8
PDF_Layer 1
 62
     7
420
 16777215
370
    70
100
AcDbPolyline
 90
       37
 70
     0
 43
0.0
 10
3.437113888888889
 20
4.662179166666666
 10
3.437113888888889
 20
4.658568055555554
 10
3.440725
 20
4.654956944444443
 10
3.440725
 20
4.65137361111111
 10
3.444322222222222
 20
4.65137361111111
 10
3.444322222222222
 20
4.647762499999998
 10
3.444322222222222
 20
4.644151388888888
 10
3.444322222222222
 20
4.633359722222221
 10
3.444322222222222
 20
4.611734722222221
 10
3.444322222222222
 20
4.582915277777776
 10
3.444322222222222
 20
4.543276388888887
 10
3.444322222222222
 20
4.496443055555555
 10
3.444322222222222
 20
4.438804166666665
 10
3.444322222222222
 20
4.370359722222221
 10
3.444322222222222
 20
4.298304166666666
 10
3.444322222222222
 20
4.219054166666666
 10
3.444322222222222
 20
4.132581944444443
 10
3.444322222222222
 20
4.042526388888887
 10
3.444322222222222
 20
3.948845833333332
 10
3.444322222222222
 20
3.851581944444443
 10
3.444322222222222
 20
3.750706944444443
 10
3.444322222222222
 20
3.653429166666666
 10
3.444322222222222
 20
3.552554166666666
 10
3.444322222222222
 20
3.451693055555555
 10
3.444322222222222
 20
3.354415277777777
 10
3.444322222222222
 20
3.26074861111111
 10
3.444322222222222
 20
3.170679166666666
 10
3.444322222222222
 20
3.084220833333333
 10
3.444322222222222
 20
3.004956944444443
 10
3.444322222222222
 20
2.932901388888888
 10
3.444322222222222
 20
2.864443055555555
 10
3.444322222222222
 20
2.810415277777777
 10
3.444322222222222
 20
2.759970833333333
 10
3.444322222222222
 20
2.720345833333333
 10
3.444322222222222
 20
2.691526388888888
 10
3.444322222222222
 20
2.669915277777777
 10
3.444322222222222
 20
2.659095833333332
  0
LWPOLYLINE
  5
18D
330
2
100
AcDbEntity
  8
PDF_Layer 1
 62
     7
420
 16777215
370
    70
100
AcDbPolyline
 90
       40
 70
     0
 43
0.0
 10
3.300212499999999
 20
4.741429166666665
 10
3.300212499999999
 20
4.737818055555554
 10
3.303823611111111
 20
4.737818055555554
 10
3.303823611111111
 20
4.734220833333332
 10
3.307420833333333
 20
4.734220833333332
 10
3.307420833333333
 20
4.73062361111111
 10
3.307420833333333
 20
4.727026388888887
 10
3.307420833333333
 20
4.723415277777776
 10
3.307420833333333
 20
4.716206944444443
 10
3.307420833333333
 20
4.698206944444443
 10
3.307420833333333
 20
4.672970833333332
 10
3.307420833333333
 20
4.633359722222221
 10
3.307420833333333
 20
4.590109722222221
 10
3.307420833333333
 20
4.532470833333332
 10
3.307420833333333
 20
4.471234722222221
 10
3.307420833333333
 20
4.399179166666665
 10
3.307420833333333
 20
4.323526388888888
 10
3.307420833333333
 20
4.240665277777776
 10
3.307420833333333
 20
4.150595833333332
 10
3.307420833333333
 20
4.056929166666665
 10
3.307420833333333
 20
3.959651388888888
 10
3.307420833333333
 20
3.858776388888887
 10
3.307420833333333
 20
3.754304166666665
 10
3.307420833333333
 20
3.653429166666666
 10
3.307420833333333
 20
3.548956944444443
 10
3.307420833333333
 20
3.444470833333332
 10
3.307420833333333
 20
3.343595833333333
 10
3.307420833333333
 20
3.246318055555555
 10
3.307420833333333
 20
3.152651388888888
 10
3.307420833333333
 20
3.062595833333332
 10
3.307420833333333
 20
2.979734722222222
 10
3.307420833333333
 20
2.904081944444444
 10
3.307420833333333
 20
2.832026388888888
 10
3.307420833333333
 20
2.770776388888888
 10
3.307420833333333
 20
2.713137499999999
 10
3.307420833333333
 20
2.669915277777777
 10
3.307420833333333
 20
2.630276388888888
 10
3.307420833333333
 20
2.605068055555554
 10
3.307420833333333
 20
2.587054166666666
 10
3.307420833333333
 20
2.579845833333332
  0
LWPOLYLINE
  5
18F
330
2
100
AcDbEntity
  8
PDF_Layer 1
 62
     7
420
 16777215
370
    70
100
AcDbPolyline
 90
       17
 70
     0
 43
0.0
 10
3.152506944444444
 20
4.773858333333333
 10
3.152506944444444
 20
4.763052777777777
 10
3.152506944444444
 20
4.745038888888888
 10
3.152506944444444
 20
4.712608333333332
 10
3.152506944444444
 20
4.672969444444444
 10
3.152506944444444
 20
4.626136111111111
 10
3.152506944444444
 20
4.56851111111111
 10
3.152506944444444
 20
4.500052777777777
 10
3.152506944444444
 20
4.427997222222222
 10
3.152506944444444
 20
4.34513611111111
 10
3.152506944444444
 20
4.258677777777777
 10
3.152506944444444
 20
4.165011111111111
 10
3.152506944444444
 20
4.067733333333332
 10
3.152506944444444
 20
3.966858333333333
 10
3.152506944444444
 20
3.865983333333333
 10
3.152506944444444
 20
3.757913888888888
 10
3.152506944444444
 20
3.653427777777777
  0
LWPOLYLINE
  5
190
330
2
100
AcDbEntity
  8
PDF_Layer 1
 62
     7
420
 16777215
370
    70
100
AcDbPolyline
 90
       17
 70
     0
 43
0.0
 10
3.152506944444444
 20
3.653429166666666
 10
3.152506944444444
 20
3.545359722222221
 10
3.152506944444444
 20
3.44087361111111
 10
3.152506944444444
 20
3.336401388888888
 10
3.152506944444444
 20
3.235526388888888
 10
3.152506944444444
 20
3.13824861111111
 10
3.152506944444444
 20
3.044581944444444
 10
3.152506944444444
 20
2.958109722222221
 10
3.152506944444444
 20
2.875262499999999
 10
3.152506944444444
 20
2.803206944444443
 10
3.152506944444444
 20
2.738359722222222
 10
3.152506944444444
 20
2.677109722222221
 10
3.152506944444444
 20
2.630276388888888
 10
3.152506944444444
 20
2.590637499999999
 10
3.152506944444444
 20
2.558234722222222
 10
3.152506944444444
 20
2.540220833333333
 10
3.152506944444444
 20
2.529401388888888
  0
LWPOLYLINE
  5
191
330
2
100
AcDbEntity
  8
PDF_Layer 1
 62
     7
420
 16777215
370
    70
100
AcDbPolyline
 90
       16
 70
     0
 43
0.0
 10
5.93014861111111
 20
3.876790277777777
 10
5.93014861111111
 20
3.869581944444444
 10
5.93014861111111
 20
3.855179166666666
 10
5.93014861111111
 20
3.829956944444444
 10
5.93014861111111
 20
3.797540277777777
 10
5.93014861111111
 20
3.757901388888888
 10
5.93014861111111
 20
3.711068055555555
 10
5.93014861111111
 20
3.664234722222222
 10
5.93014861111111
 20
3.613790277777777
 10
5.93014861111111
 20
3.566956944444444
 10
5.93014861111111
 20
3.527331944444444
 10
5.93014861111111
 20
3.487706944444444
 10
5.93014861111111
 20
3.458887499999999
 10
5.93014861111111
 20
3.437262499999999
 10
5.93014861111111
 20
3.430068055555555
 10
5.93014861111111
 20
3.426456944444443
  0
CIRCLE
  5
193
330
2
100
AcDbEntity
  8
PDF_Layer 1
 62
     7
420
 16777215
370
    70
100
AcDbCircle
 10
6.351481191134629
 20
3.651333105290367
 30
0.0
 40
0.3263280531492334
  0
CIRCLE
  5
194
330
2
100
AcDbEntity
  8
PDF_Layer 1
 62
     7
420
 16777215
370
    70
100
AcDbCircle
 10
6.349274340119204
 20
3.652638308076675
 30
0.0
 40
0.3070195481930527
  0
CIRCLE
  5
195
330
2
100
AcDbEntity
  8
PDF_Layer 1
 62
     7
420
 16777215
370
    70
100
AcDbCircle
 10
6.351656412986973
 20
3.650010564208322
 30
0.0
 40
0.3060436024588053
  0
CIRCLE
  5
196
330
2
100
AcDbEntity
  8
PDF_Layer 1
 62
     7
420
 16777215
370
    70
100
AcDbCircle
 10
6.350800402439945
 20
3.652963638599318
 30
0.0
 40
0.2850807037249511
  0
LWPOLYLINE
  5
197
330
2
100
AcDbEntity
  8
PDF_Layer 1
 62
     7
420
 16777215
370
    70
100
AcDbPolyline
 90
        4
 70
     0
 43
0.0
 10
5.195211111111111
 20
3.224718055555555
 10
5.195211111111111
 20
3.203093055555555
 10
5.195211111111111
 20
3.188690277777777
 10
5.195211111111111
 20
3.185079166666666
  0
LWPOLYLINE
  5
198
330
2
100
AcDbEntity
  8
PDF_Layer 1
 62
     7
420
 16777215
370
    70
100
AcDbPolyline
 90
       12
 70
     0
 43
0.0
 10
5.11235
 20
4.201038888888888
 10
5.130363888888888
 20
4.201038888888888
 10
5.144766666666666
 20
4.193816666666666
 10
5.159183333333333
 20
4.186622222222221
 10
5.169988888888888
 20
4.179413888888888
 10
5.180794444444444
 20
4.165011111111111
 10
5.188002777777777
 20
4.150594444444443
 10
5.195211111111111
 20
4.136191666666666
 10
5.195211111111111
 20
4.118177777777777
 10
5.195211111111111
 20
4.114566666666666
 10
5.195211111111111
 20
4.100149999999999
 10
5.195211111111111
 20
4.078538888888888
  0
LWPOLYLINE
  5
19B
330
2
100
AcDbEntity
  8
PDF_Layer 1
 62
     7
420
 16777215
370
    70
100
AcDbPolyline
 90
        2
 70
     0
 43
0.0
 10
5.195211111111111
 20
3.458888888888888
 10
5.930155555555555
 20
3.458888888888888
  0
LWPOLYLINE
  5
19C
330
2
100
AcDbEntity
  8
PDF_Layer 1
 62
     7
420
 16777215
370
    70
100
AcDbPolyline
 90
        2
 70
     0
 43
0.0
 10
5.93014861111111
 20
3.84437361111111
 10
5.195204166666665
 20
3.84437361111111
  0
LWPOLYLINE
  5
19E
330
2
100
AcDbEntity
  8
PDF_Layer 1
 62
     7
420
 16777215
370
    70
100
AcDbPolyline
 90
        2
 70
     0
 43
0.0
 10
2.785034722222222
 20
4.04972361111111
 10
2.215826388888888
 20
4.04972361111111
  0
LWPOLYLINE
  5
19F
330
2
100
AcDbEntity
  8
PDF_Layer 1
 62
     7
420
 16777215
370
    70
100
AcDbPolyline
 90
        3
 70
     0
 43
0.0
 10
2.831875
 20
3.231919444444444
 10
2.842680555555555
 20
3.231919444444444
 10
2.849888888888889
 20
3.231919444444444
  0
LWPOLYLINE
  5
1A0
330
2
100
AcDbEntity
  8
PDF_Layer 1
 62
     7
420
 16777215
370
    70
100
AcDbPolyline
 90
        3
 70
     0
 43
0.0
 10
2.813856944444444
 20
4.071343055555554
 10
2.803051388888888
 20
4.071343055555554
 10
2.795843055555555
 20
4.071343055555554
  0
LWPOLYLINE
  5
1A1
330
2
100
AcDbEntity
  8
PDF_Layer 1
 62
     7
420
 16777215
370
    70
100
AcDbPolyline
 90
        3
 70
     0
 43
0.0
 10
3.109273611111111
 20
4.071343055555554
 10
3.102065277777777
 20
4.071343055555554
 10
3.091259722222222
 20
4.071343055555554
  0
LWPOLYLINE
  5
1A2
330
2
100
AcDbEntity
  8
PDF_Layer 1
 62
     7
420
 16777215
370
    70
100
AcDbPolyline
 90
        3
 70
     0
 43
0.0
 10
3.037224999999999
 20
4.071343055555554
 10
3.026419444444444
 20
4.071343055555554
 10
3.01921111111111
 20
4.071343055555554
  0
LWPOLYLINE
  5
1A3
330
2
100
AcDbEntity
  8
PDF_Layer 1
 62
     7
420
 16777215
370
    70
100
AcDbPolyline
 90
        3
 70
     0
 43
0.0
 10
2.961568055555555
 20
4.071343055555554
 10
2.950762499999999
 20
4.071343055555554
 10
2.943554166666666
 20
4.071343055555554
  0
LWPOLYLINE
  5
1A4
330
2
100
AcDbEntity
  8
PDF_Layer 1
 62
     7
420
 16777215
370
    70
100
AcDbPolyline
 90
        3
 70
     0
 43
0.0
 10
2.88591111111111
 20
4.071343055555554
 10
2.878702777777777
 20
4.071343055555554
 10
2.867897222222221
 20
4.071343055555554
  0
LWPOLYLINE
  5
1A5
330
2
100
AcDbEntity
  8
PDF_Layer 1
 62
     7
420
 16777215
370
    70
100
AcDbPolyline
 90
        3
 70
     0
 43
0.0
 10
3.12728611111111
 20
3.231919444444444
 10
3.138091666666666
 20
3.231919444444444
 10
3.145299999999999
 20
3.231919444444444
  0
LWPOLYLINE
  5
1A6
330
2
100
AcDbEntity
  8
PDF_Layer 1
 62
     7
420
 16777215
370
    70
100
AcDbPolyline
 90
        3
 70
     0
 43
0.0
 10
3.0552375
 20
3.231919444444444
 10
3.062445833333333
 20
3.231919444444444
 10
3.073251388888889
 20
3.231919444444444
  0
LWPOLYLINE
  5
1A7
330
2
100
AcDbEntity
  8
PDF_Layer 1
 62
     7
420
 16777215
370
    70
100
AcDbPolyline
 90
        3
 70
     0
 43
0.0
 10
2.979580555555555
 20
3.231919444444444
 10
2.99038611111111
 20
3.231919444444444
 10
2.997594444444444
 20
3.231919444444444
  0
LWPOLYLINE
  5
1A8
330
2
100
AcDbEntity
  8
PDF_Layer 1
 62
     7
420
 16777215
370
    70
100
AcDbPolyline
 90
        3
 70
     0
 43
0.0
 10
2.907525
 20
3.231919444444444
 10
2.914733333333333
 20
3.231919444444444
 10
2.925538888888889
 20
3.231919444444444
  0
LWPOLYLINE
  5
1AB
330
2
100
AcDbEntity
  8
PDF_Layer 1
 62
     7
420
 16777215
370
    70
100
AcDbPolyline
 90
        2
 70
     0
 43
0.0
 10
2.875101388888888
 20
3.192287499999999
 10
2.882309722222222
 20
3.192287499999999
  0
LWPOLYLINE
  5
1AC
330
2
100
AcDbEntity
  8
PDF_Layer 1
 62
     7
420
 16777215
370
    70
100
AcDbPolyline
 90
        2
 70
     0
 43
0.0
 10
2.947156944444444
 20
3.192287499999999
 10
2.9579625
 20
3.192287499999999
  0
LWPOLYLINE
  5
1AD
330
2
100
AcDbEntity
  8
PDF_Layer 1
 62
     7
420
 16777215
370
    70
100
AcDbPolyline
 90
        2
 70
     0
 43
0.0
 10
3.022813888888888
 20
3.192287499999999
 10
3.030022222222221
 20
3.192287499999999
  0
LWPOLYLINE
  5
1AE
330
2
100
AcDbEntity
  8
PDF_Layer 1
 62
     7
420
 16777215
370
    70
100
AcDbPolyline
 90
        2
 70
     0
 43
0.0
 10
3.0948625
 20
3.192287499999999
 10
3.105668055555555
 20
3.192287499999999
  0
LWPOLYLINE
  5
1B4
330
2
100
AcDbEntity
  8
PDF_Layer 1
 62
     7
420
 16777215
370
    70
100
AcDbPolyline
 90
        3
 70
     0
 43
0.0
 10
3.105672222222222
 20
3.192287499999999
 10
3.116477777777777
 20
3.213912499999999
 10
3.127283333333333
 20
3.231926388888888
  0
LWPOLYLINE
  5
1B5
330
2
100
AcDbEntity
  8
PDF_Layer 1
 62
     7
420
 16777215
370
    70
100
AcDbPolyline
 90
        3
 70
     0
 43
0.0
 10
3.030015277777777
 20
3.192287499999999
 10
3.044431944444444
 20
3.213912499999999
 10
3.0552375
 20
3.231926388888888
  0
LWPOLYLINE
  5
1B6
330
2
100
AcDbEntity
  8
PDF_Layer 1
 62
     7
420
 16777215
370
    70
100
AcDbPolyline
 90
        3
 70
     0
 43
0.0
 10
2.957966666666666
 20
3.192287499999999
 10
2.968772222222222
 20
3.213912499999999
 10
2.979577777777777
 20
3.231926388888888
  0
LWPOLYLINE
  5
1B7
330
2
100
AcDbEntity
  8
PDF_Layer 1
 62
     7
420
 16777215
370
    70
100
AcDbPolyline
 90
        3
 70
     0
 43
0.0
 10
2.882311111111111
 20
3.192287499999999
 10
2.896727777777778
 20
3.213912499999999
 10
2.907519444444444
 20
3.231926388888888
  0
LWPOLYLINE
  5
1B8
330
2
100
AcDbEntity
  8
PDF_Layer 1
 62
     7
420
 16777215
370
    70
100
AcDbPolyline
 90
        3
 70
     0
 43
0.0
 10
2.821065277777777
 20
3.210299999999999
 10
2.821065277777777
 20
3.21391111111111
 10
2.831870833333332
 20
3.231924999999999
  0
LWPOLYLINE
  5
1BC
330
2
100
AcDbEntity
  8
PDF_Layer 1
 62
     7
420
 16777215
370
    70
100
AcDbPolyline
 90
        3
 70
     0
 43
0.0
 10
3.09126111111111
 20
4.071343055555554
 10
3.080455555555555
 20
4.089356944444443
 10
3.069649999999999
 20
4.110968055555554
  0
LWPOLYLINE
  5
1BD
330
2
100
AcDbEntity
  8
PDF_Layer 1
 62
     7
420
 16777215
370
    70
100
AcDbPolyline
 90
        2
 70
     0
 43
0.0
 10
3.152506944444444
 20
4.09295
 10
3.141701388888888
 20
4.110963888888888
  0
LWPOLYLINE
  5
1BE
330
2
100
AcDbEntity
  8
PDF_Layer 1
 62
     7
420
 16777215
370
    70
100
AcDbPolyline
 90
        3
 70
     0
 43
0.0
 10
2.849887499999999
 20
3.231919444444444
 10
2.860693055555555
 20
3.213905555555555
 10
2.87149861111111
 20
3.192280555555555
  0
LWPOLYLINE
  5
1C0
330
2
100
AcDbEntity
  8
PDF_Layer 1
 62
     7
420
 16777215
370
    70
100
AcDbPolyline
 90
        3
 70
     0
 43
0.0
 10
3.130893055555555
 20
4.110962499999999
 10
3.120087499999999
 20
4.089351388888887
 10
3.109268055555555
 20
4.071337499999999
  0
LWPOLYLINE
  5
1C4
330
2
100
AcDbEntity
  8
PDF_Layer 1
 62
     7
420
 16777215
370
    70
100
AcDbPolyline
 90
        2
 70
     0
 43
0.0
 10
3.145304166666666
 20
3.231919444444444
 10
3.152512499999999
 20
3.221113888888888
  0
LWPOLYLINE
  5
1C5
330
2
100
AcDbEntity
  8
PDF_Layer 1
 62
     7
420
 16777215
370
    70
100
AcDbPolyline
 90
        3
 70
     0
 43
0.0
 10
3.07324861111111
 20
3.231919444444444
 10
3.084054166666666
 20
3.213905555555555
 10
3.094859722222221
 20
3.192280555555555
  0
LWPOLYLINE
  5
1C6
330
2
100
AcDbEntity
  8
PDF_Layer 1
 62
     7
420
 16777215
370
    70
100
AcDbPolyline
 90
        3
 70
     0
 43
0.0
 10
2.997593055555555
 20
3.231919444444444
 10
3.008398611111111
 20
3.213905555555555
 10
3.022815277777777
 20
3.192280555555555
  0
LWPOLYLINE
  5
1C7
330
2
100
AcDbEntity
  8
PDF_Layer 1
 62
     7
420
 16777215
370
    70
100
AcDbPolyline
 90
        3
 70
     0
 43
0.0
 10
2.925544444444444
 20
3.231919444444444
 10
2.93635
 20
3.213905555555555
 10
2.947155555555555
 20
3.192280555555555
  0
LWPOLYLINE
  5
1CA
330
2
100
AcDbEntity
  8
PDF_Layer 1
 62
     7
420
 16777215
370
    70
100
AcDbPolyline
 90
        9
 70
     0
 43
0.0
 10
3.455131944444443
 20
2.687920833333333
 10
3.64967361111111
 20
2.785198611111111
 10
3.847812499999999
 20
2.871656944444444
 10
4.05317361111111
 20
2.9437125
 10
4.262118055555554
 20
3.008559722222222
 10
4.471076388888888
 20
3.058990277777778
 10
4.683631944444443
 20
3.098615277777777
 10
4.89979861111111
 20
3.127448611111111
 10
5.11954861111111
 20
3.141865277777777
  0
LWPOLYLINE
  5
1CB
330
2
100
AcDbEntity
  8
PDF_Layer 1
 62
     7
420
 16777215
370
    70
100
AcDbPolyline
 90
        9
 70
     0
 43
0.0
 10
5.119554166666667
 20
4.161404166666665
 10
4.899790277777777
 20
4.175806944444443
 10
4.6836375
 20
4.204626388888887
 10
4.471081944444445
 20
4.244265277777776
 10
4.262123611111111
 20
4.29470972222222
 10
4.053165277777778
 20
4.359556944444443
 10
3.847818055555555
 20
4.43159861111111
 10
3.649665277777778
 20
4.518070833333331
 10
3.4551375
 20
4.61534861111111
  0
LWPOLYLINE
  5
1CD
330
2
100
AcDbEntity
  8
PDF_Layer 1
 62
     7
420
 16777215
370
    70
100
AcDbPolyline
 90
        6
 70
     0
 43
0.0
 10
3.444322222222222
 20
2.669908333333332
 10
3.444322222222222
 20
2.673519444444444
 10
3.444322222222222
 20
2.677116666666666
 10
3.447919444444444
 20
2.680713888888888
 10
3.451530555555555
 20
2.68431111111111
 10
3.455127777777778
 20
2.687922222222221
  0
LWPOLYLINE
  5
1D0
330
2
100
AcDbEntity
  8
PDF_Layer 1
 62
     7
420
 16777215
370
    70
100
AcDbPolyline
 90
        9
 70
     0
 43
0.0
 10
3.329040277777777
 20
2.601454166666666
 10
3.343443055555555
 20
2.601454166666666
 10
3.357859722222221
 20
2.605065277777777
 10
3.368665277777777
 20
2.608662499999999
 10
3.383081944444444
 20
2.612259722222222
 10
3.397484722222221
 20
2.619468055555555
 10
3.411901388888888
 20
2.6266625
 10
3.422706944444444
 20
2.633884722222222
 10
3.437123611111111
 20
2.641093055555555
  0
LWPOLYLINE
  5
1D1
330
2
100
AcDbEntity
  8
PDF_Layer 1
 62
     7
420
 16777215
370
    70
100
AcDbPolyline
 90
        9
 70
     0
 43
0.0
 10
3.437120833333333
 20
4.662177777777777
 10
3.422704166666666
 20
4.669386111111111
 10
3.41189861111111
 20
4.676580555555555
 10
3.397481944444444
 20
4.683788888888889
 10
3.383079166666666
 20
4.690997222222222
 10
3.368662499999999
 20
4.694594444444444
 10
3.357856944444444
 20
4.698205555555555
 10
3.343440277777777
 20
4.701802777777777
 10
3.329037499999999
 20
4.701802777777777
  0
LWPOLYLINE
  5
1D2
330
2
100
AcDbEntity
  8
PDF_Layer 1
 62
     7
420
 16777215
370
    70
100
AcDbPolyline
 90
        9
 70
     0
 43
0.0
 10
3.307420833333333
 20
2.579847222222221
 10
3.307420833333333
 20
2.583444444444443
 10
3.311018055555555
 20
2.587055555555554
 10
3.311018055555555
 20
2.590638888888888
 10
3.314629166666666
 20
2.594249999999999
 10
3.318226388888888
 20
2.59786111111111
 10
3.321837499999999
 20
2.59786111111111
 10
3.325434722222222
 20
2.601458333333332
 10
3.329045833333332
 20
2.601458333333332
  0
LWPOLYLINE
  5
1D6
330
2
100
AcDbEntity
  8
PDF_Layer 1
 62
     7
420
 16777215
370
    70
100
AcDbPolyline
 90
        9
 70
     0
 43
0.0
 10
3.152506944444444
 20
2.529405555555555
 10
3.174131944444444
 20
2.525794444444444
 10
3.192145833333333
 20
2.525794444444444
 10
3.210145833333333
 20
2.529405555555555
 10
3.231770833333333
 20
2.533016666666666
 10
3.249770833333333
 20
2.536613888888888
 10
3.267798611111111
 20
2.543808333333333
 10
3.282201388888888
 20
2.551030555555555
 10
3.300215277777777
 20
2.561822222222222
  0
LWPOLYLINE
  5
1D7
330
2
100
AcDbEntity
  8
PDF_Layer 1
 62
     7
420
 16777215
370
    70
100
AcDbPolyline
 90
        9
 70
     0
 43
0.0
 10
3.300218055555554
 20
4.741427777777778
 10
3.282204166666665
 20
4.752233333333333
 10
3.267801388888888
 20
4.759441666666666
 10
3.24977361111111
 20
4.766636111111111
 10
3.231759722222221
 20
4.770247222222222
 10
3.21014861111111
 20
4.773858333333333
 10
3.192134722222221
 20
4.777455555555556
 10
3.174120833333332
 20
4.777455555555556
 10
3.152509722222221
 20
4.773858333333333
  0
LWPOLYLINE
  5
1D8
330
2
100
AcDbEntity
  8
PDF_Layer 1
 62
     7
420
 16777215
370
    70
100
AcDbPolyline
 90
        9
 70
     0
 43
0.0
 10
5.93014861111111
 20
3.426459722222221
 10
5.944565277777776
 20
3.401251388888888
 10
5.958968055555554
 20
3.376029166666666
 10
5.976981944444443
 20
3.354418055555555
 10
5.994995833333332
 20
3.332793055555555
 10
6.016606944444443
 20
3.314779166666666
 10
6.038231944444443
 20
3.296765277777777
 10
6.059843055555554
 20
3.278751388888888
 10
6.085065277777776
 20
3.26434861111111
  0
LWPOLYLINE
  5
1D9
330
2
100
AcDbEntity
  8
PDF_Layer 1
 62
     7
420
 16777215
370
    70
100
AcDbPolyline
 90
        9
 70
     0
 43
0.0
 10
6.0850625
 20
4.038913888888888
 10
6.059840277777778
 20
4.02451111111111
 10
6.038229166666666
 20
4.006483333333332
 10
6.016604166666667
 20
3.988469444444444
 10
5.994993055555555
 20
3.970455555555555
 10
5.976979166666667
 20
3.948858333333332
 10
5.958965277777777
 20
3.927233333333333
 10
5.944562499999999
 20
3.902024999999999
 10
5.930145833333333
 20
3.876788888888888
  0
LWPOLYLINE
  5
1DA
330
2
100
AcDbEntity
  8
PDF_Layer 1
 62
     7
420
 16777215
370
    70
100
AcDbPolyline
 90
        9
 70
     0
 43
0.0
 10
6.747951388888888
 20
3.653429166666666
 10
6.744340277777777
 20
3.70387361111111
 10
6.740743055555554
 20
3.757901388888888
 10
6.726326388888888
 20
3.808345833333333
 10
6.71192361111111
 20
3.858776388888888
 10
6.693909722222222
 20
3.905609722222221
 10
6.668687499999999
 20
3.952443055555555
 10
6.639868055555555
 20
3.999276388888888
 10
6.607451388888888
 20
4.038915277777777
  0
LWPOLYLINE
  5
1DB
330
2
100
AcDbEntity
  8
PDF_Layer 1
 62
     7
420
 16777215
370
    70
100
AcDbPolyline
 90
        9
 70
     0
 43
0.0
 10
6.607448611111109
 20
3.264349999999999
 10
6.639865277777776
 20
3.303974999999999
 10
6.66869861111111
 20
3.350808333333333
 10
6.693906944444443
 20
3.397641666666666
 10
6.711920833333332
 20
3.444474999999999
 10
6.726337499999998
 20
3.494919444444444
 10
6.740740277777776
 20
3.54535
 10
6.744337499999998
 20
3.599391666666666
 10
6.74794861111111
 20
3.653433333333333
  0
LWPOLYLINE
  5
1DC
330
2
100
AcDbEntity
  8
PDF_Layer 1
 62
     7
420
 16777215
370
    70
100
AcDbPolyline
 90
        2
 70
     0
 43
0.0
 10
6.164320833333332
 20
3.260741666666666
 10
6.535390277777776
 20
3.260741666666666
  0
LWPOLYLINE
  5
1DD
330
2
100
AcDbEntity
  8
PDF_Layer 1
 62
     7
420
 16777215
370
    70
100
AcDbPolyline
 90
        4
 70
     0
 43
0.0
 10
6.535393055555554
 20
4.042520833333332
 10
6.34444861111111
 20
4.042520833333332
 42
-0.0872856688684312
 10
6.171522222222223
 20
4.042520833333332
 10
6.164313888888889
 20
4.042520833333332
  0
LWPOLYLINE
  5
1E5
330
2
100
AcDbEntity
  8
PDF_Layer 1
 62
     7
420
 16777215
370
    70
100
AcDbPolyline
 90
        8
 70
     0
 43
0.0
 10
6.607448611111109
 20
3.855183333333332
 10
6.607448611111109
 20
3.865974999999999
 10
6.607448611111109
 20
3.916419444444443
 10
6.607448611111109
 20
3.959641666666666
 10
6.607448611111109
 20
3.995683333333332
 10
6.607448611111109
 20
4.020905555555555
 10
6.607448611111109
 20
4.035308333333333
 10
6.607448611111109
 20
4.042516666666665
  0
LWPOLYLINE
  5
1E6
330
2
100
AcDbEntity
  8
PDF_Layer 1
 62
     7
420
 16777215
370
    70
100
AcDbPolyline
 90
        8
 70
     0
 43
0.0
 10
6.607448611111109
 20
3.260741666666666
 10
6.607448611111109
 20
3.267949999999999
 10
6.607448611111109
 20
3.282366666666665
 10
6.607448611111109
 20
3.307574999999999
 10
6.607448611111109
 20
3.343602777777777
 10
6.607448611111109
 20
3.386824999999999
 10
6.607448611111109
 20
3.437269444444444
 10
6.607448611111109
 20
3.448074999999999
  0
LWPOLYLINE
  5
1E8
330
2
100
AcDbEntity
  8
PDF_Layer 1
 62
     7
420
 16777215
370
    70
100
AcDbPolyline
 90
        9
 70
     0
 43
0.0
 10
6.607448611111109
 20
4.042520833333332
 10
6.607448611111109
 20
4.049729166666666
 10
6.603837499999999
 20
4.060534722222221
 10
6.596643055555554
 20
4.064131944444444
 10
6.585823611111109
 20
4.071340277777776
 10
6.578629166666665
 20
4.071340277777776
 10
6.567809722222221
 20
4.067729166666666
 10
6.560615277777776
 20
4.064131944444444
 10
6.557004166666665
 20
4.053312499999999
  0
LWPOLYLINE
  5
1E9
330
2
100
AcDbEntity
  8
PDF_Layer 1
 62
     7
420
 16777215
370
    70
100
AcDbPolyline
 90
        9
 70
     0
 43
0.0
 10
6.095872222222221
 20
3.253540277777777
 10
6.099469444444443
 20
3.246318055555555
 10
6.103080555555555
 20
3.23912361111111
 10
6.110288888888888
 20
3.235526388888888
 10
6.117483333333333
 20
3.231915277777777
 10
6.128288888888888
 20
3.231915277777777
 10
6.135497222222221
 20
3.235526388888888
 10
6.139094444444443
 20
3.242734722222221
 10
6.142705555555555
 20
3.246318055555555
  0
LWPOLYLINE
  5
1EA
330
2
100
AcDbEntity
  8
PDF_Layer 1
 62
     7
420
 16777215
370
    70
100
AcDbPolyline
 90
        9
 70
     0
 43
0.0
 10
6.142706944444443
 20
4.056924999999999
 10
6.139095833333333
 20
4.06053611111111
 10
6.13549861111111
 20
4.067730555555555
 10
6.128290277777777
 20
4.071341666666666
 10
6.117484722222221
 20
4.071341666666666
 10
6.110290277777777
 20
4.067730555555555
 10
6.103068055555555
 20
4.064133333333333
 10
6.099470833333333
 20
4.056924999999999
 10
6.09587361111111
 20
4.049716666666665
  0
LWPOLYLINE
  5
1ED
330
2
100
AcDbEntity
  8
PDF_Layer 1
 62
     7
420
 16777215
370
    70
100
AcDbPolyline
 90
        4
 70
     0
 43
0.0
 10
4.517911111111111
 20
3.069797222222222
 10
4.687230555555555
 20
3.087811111111111
 10
4.899799999999999
 20
3.098616666666666
 10
5.112341666666666
 20
3.102227777777777
  0
LWPOLYLINE
  5
1EE
330
2
100
AcDbEntity
  8
PDF_Layer 1
 62
     7
420
 16777215
370
    70
100
AcDbPolyline
 90
        4
 70
     0
 43
0.0
 10
5.112345833333332
 20
4.20103611111111
 10
4.899790277777777
 20
4.204633333333332
 10
4.687234722222221
 20
4.215438888888888
 10
4.517915277777777
 20
4.233452777777777
  0
LWPOLYLINE
  5
1F0
330
2
100
AcDbEntity
  8
PDF_Layer 1
 62
     7
420
 16777215
370
    70
100
AcDbPolyline
 90
        2
 70
     0
 43
0.0
 10
12.11589861111111
 20
2.648288888888888
 10
12.04384305555555
 20
2.850038888888888
  0
LWPOLYLINE
  5
1F3
330
2
100
AcDbEntity
  8
PDF_Layer 1
 62
     7
420
 16777215
370
    70
100
AcDbPolyline
 90
        2
 70
     0
 43
0.0
 10
6.603841666666665
 20
3.242730555555555
 10
10.31457777777777
 20
3.242730555555555
  0
LWPOLYLINE
  5
1F4
330
2
100
AcDbEntity
  8
PDF_Layer 1
 62
     7
420
 16777215
370
    70
100
AcDbPolyline
 90
        2
 70
     0
 43
0.0
 10
6.142706944444443
 20
3.242730555555555
 10
6.557012499999999
 20
3.242730555555555
  0
LWPOLYLINE
  5
1F5
330
2
100
AcDbEntity
  8
PDF_Layer 1
 62
     7
420
 16777215
370
    70
100
AcDbPolyline
 90
        2
 70
     0
 43
0.0
 10
5.195211111111111
 20
3.242730555555555
 10
6.099474999999999
 20
3.242730555555555
  0
LWPOLYLINE
  5
1F6
330
2
100
AcDbEntity
  8
PDF_Layer 1
 62
     7
420
 16777215
370
    70
100
AcDbPolyline
 90
        2
 70
     0
 43
0.0
 10
6.09947361111111
 20
4.060533333333333
 10
5.195209722222221
 20
4.060533333333333
  0
LWPOLYLINE
  5
1F7
330
2
100
AcDbEntity
  8
PDF_Layer 1
 62
     7
420
 16777215
370
    70
100
AcDbPolyline
 90
        2
 70
     0
 43
0.0
 10
6.557006944444444
 20
4.060533333333333
 10
6.142701388888888
 20
4.060533333333333
  0
LWPOLYLINE
  5
1FA
330
2
100
AcDbEntity
  8
PDF_Layer 1
 62
     7
420
 16777215
370
    70
100
AcDbPolyline
 90
        9
 70
     0
 43
0.0
 10
11.35213194444444
 20
2.370890277777777
 10
11.39177083333333
 20
2.248404166666666
 10
11.42778472222222
 20
2.125904166666666
 10
11.45660416666666
 20
2.003418055555555
 10
11.48902083333333
 20
1.877320833333333
 10
11.51425694444444
 20
1.754834722222221
 10
11.53946527777777
 20
1.628737499999999
 10
11.55747916666666
 20
1.502640277777777
 10
11.57549305555555
 20
1.376556944444444
  0
LWPOLYLINE
  5
1FD
330
2
100
AcDbEntity
  8
PDF_Layer 1
 62
     7
420
 16777215
370
    70
100
AcDbPolyline
 90
       24
 70
     0
 43
0.0
 10
11.61512638888889
 20
1.203626388888888
 10
11.6187375
 20
1.207237499999999
 10
11.63314027777778
 20
1.210834722222222
 10
11.65834861111111
 20
1.218043055555555
 10
11.69077916666666
 20
1.232445833333333
 10
11.73401527777778
 20
1.246862499999999
 10
11.78084861111111
 20
1.264876388888888
 10
11.8384875
 20
1.286487499999999
 10
11.8997375
 20
1.308098611111111
 10
11.96458472222222
 20
1.333320833333333
 10
12.03302916666667
 20
1.358543055555555
 10
12.10508472222222
 20
1.383765277777777
 10
12.17714027777778
 20
1.408973611111111
 10
12.24918194444444
 20
1.434209722222222
 10
12.31764027777778
 20
1.459418055555555
 10
12.38609861111111
 20
1.484626388888888
 10
12.44733472222222
 20
1.506251388888888
 10
12.50139027777778
 20
1.527876388888888
 10
12.55180694444444
 20
1.545890277777777
 10
12.59144583333333
 20
1.560293055555555
 10
12.62747361111111
 20
1.571098611111111
 10
12.64908472222222
 20
1.581904166666666
 10
12.6634875
 20
1.585501388888888
 10
12.67070972222222
 20
1.5891125
  0
LWPOLYLINE
  5
1FE
330
2
100
AcDbEntity
  8
PDF_Layer 1
 62
     7
420
 16777215
370
    70
100
AcDbPolyline
 90
        9
 70
     0
 43
0.0
 10
12.67070833333333
 20
1.589111111111111
 10
12.68872222222222
 20
1.599916666666666
 10
12.703125
 20
1.614319444444444
 10
12.71033333333333
 20
1.632347222222222
 10
12.71033333333333
 20
1.653958333333333
 10
12.703125
 20
1.675583333333333
 10
12.68872222222222
 20
1.689986111111111
 10
12.67070833333333
 20
1.700791666666666
 10
12.65268055555555
 20
1.708
  0
LWPOLYLINE
  5
1FF
330
2
100
AcDbEntity
  8
PDF_Layer 1
 62
     7
420
 16777215
370
    70
100
AcDbPolyline
 90
        9
 70
     0
 43
0.0
 10
11.55027916666666
 20
1.308105555555555
 10
11.53947361111111
 20
1.290091666666666
 10
11.53226527777778
 20
1.268466666666666
 10
11.53226527777778
 20
1.250466666666666
 10
11.53947361111111
 20
1.228855555555555
 10
11.55389027777777
 20
1.214438888888888
 10
11.57190416666666
 20
1.203633333333333
 10
11.59350138888889
 20
1.20003611111111
 10
11.61512638888889
 20
1.203633333333333
  0
LWPOLYLINE
  5
200
330
2
100
AcDbEntity
  8
PDF_Layer 1
 62
     7
420
 16777215
370
    25
100
AcDbPolyline
 90
        2
 70
     0
 43
0.0
 10
3.125705555555555
 20
9.731099999999999
 10
3.125705555555555
 20
11.56123888888888
  0
LWPOLYLINE
  5
201
330
2
100
AcDbEntity
  8
PDF_Layer 1
 62
     7
420
 16777215
370
    25
100
AcDbPolyline
 90
        2
 70
     0
 43
0.0
 10
5.377359722222222
 20
9.731099999999999
 10
5.377359722222222
 20
11.56123888888888
  0
LWPOLYLINE
  5
202
330
2
100
AcDbEntity
  8
PDF_Layer 1
 62
     7
420
 16777215
370
    25
100
AcDbPolyline
 90
        2
 70
     0
 43
0.0
 10
3.125705555555555
 20
11.51068055555555
 10
5.377358333333332
 20
11.51068055555555
  0
LWPOLYLINE
  5
203
330
2
100
AcDbEntity
  8
PDF_Layer 1
 62
     7
420
 16777215
370
    25
100
AcDbPolyline
 90
        2
 70
     0
 43
0.0
 10
3.06352361111111
 20
11.51068055555555
 10
2.477231944444444
 20
11.51068055555555
  0
LWPOLYLINE
  5
204
330
2
100
AcDbEntity
  8
PDF_Layer 1
 62
     7
420
 16777215
370
    25
100
AcDbPolyline
 90
        2
 70
     0
 43
0.0
 10
5.439548611111111
 20
11.51068055555555
 10
6.025840277777778
 20
11.51068055555555
  0
LWPOLYLINE
  5
205
330
2
100
AcDbEntity
  8
PDF_Layer 1
 62
     7
420
 16777215
370
    25
100
AcDbPolyline
 90
        2
 70
     0
 43
0.0
 10
7.31198472222222
 20
9.731099999999999
 10
7.31198472222222
 20
11.56123888888888
  0
LWPOLYLINE
  5
206
330
2
100
AcDbEntity
  8
PDF_Layer 1
 62
     7
420
 16777215
370
    25
100
AcDbPolyline
 90
        2
 70
     0
 43
0.0
 10
9.354681944444442
 20
9.731099999999999
 10
9.354681944444442
 20
11.56123888888888
  0
LWPOLYLINE
  5
207
330
2
100
AcDbEntity
  8
PDF_Layer 1
 62
     7
420
 16777215
370
    25
100
AcDbPolyline
 90
        2
 70
     0
 43
0.0
 10
7.305934722222221
 20
11.48515555555555
 10
9.348629166666665
 20
11.48515555555555
  0
LWPOLYLINE
  5
208
330
2
100
AcDbEntity
  8
PDF_Layer 1
 62
     7
420
 16777215
370
    25
100
AcDbPolyline
 90
        2
 70
     0
 43
0.0
 10
7.279513888888888
 20
11.48515555555555
 10
6.701791666666665
 20
11.48515555555555
  0
LWPOLYLINE
  5
209
330
2
100
AcDbEntity
  8
PDF_Layer 1
 62
     7
420
 16777215
370
    25
100
AcDbPolyline
 90
        2
 70
     0
 43
0.0
 10
12.42053194444445
 20
11.8566625
 10
12.42053194444445
 20
6.034773611111112
  0
LWPOLYLINE
  5
20A
330
2
100
AcDbEntity
  8
PDF_Layer 1
 62
     7
420
 16777215
370
    25
100
AcDbPolyline
 90
        2
 70
     0
 43
0.0
 10
14.66137638888888
 20
9.677055555555556
 10
14.66498749999999
 20
11.85666666666667
  0
LWPOLYLINE
  5
20B
330
2
100
AcDbEntity
  8
PDF_Layer 1
 62
     7
420
 16777215
370
    25
100
AcDbPolyline
 90
        2
 70
     0
 43
0.0
 10
4.24973611111111
 20
9.731099999999999
 10
4.24973611111111
 20
6.034780555555554
  0
LWPOLYLINE
  5
20C
330
2
100
AcDbEntity
  8
PDF_Layer 1
 62
     7
420
 16777215
370
    25
100
AcDbPolyline
 90
        2
 70
     0
 43
0.0
 10
8.286281944444443
 20
3.180541666666666
 10
8.286281944444443
 20
1.794458333333333
  0
LWPOLYLINE
  5
20D
330
2
100
AcDbEntity
  8
PDF_Layer 1
 62
     7
420
 16777215
370
    25
100
AcDbPolyline
 90
        2
 70
     0
 43
0.0
 10
8.286281944444443
 20
4.122708333333332
 10
8.286281944444443
 20
4.709013888888888
  0
LWPOLYLINE
  5
20E
330
2
100
AcDbEntity
  8
PDF_Layer 1
 62
     7
420
 16777215
370
    25
100
AcDbPolyline
 90
        2
 70
     0
 43
0.0
 10
10.314575
 20
3.653429166666666
 10
13.61099166666666
 20
3.653429166666666
  0
LWPOLYLINE
  5
20F
330
2
100
AcDbEntity
  8
PDF_Layer 1
 62
     7
420
 16777215
370
    25
100
AcDbPolyline
 90
        2
 70
     0
 43
0.0
 10
13.40564027777778
 20
1.394572222222222
 10
13.40564027777778
 20
3.653433333333333
  0
LWPOLYLINE
  5
210
330
2
100
AcDbEntity
  8
PDF_Layer 1
 62
     7
420
 16777215
370
    25
100
AcDbPolyline
 90
        2
 70
     0
 43
0.0
 10
13.40564027777778
 20
3.715616666666666
 10
13.40564027777778
 20
4.301908333333333
  0
LWPOLYLINE
  5
211
330
2
100
AcDbEntity
  8
PDF_Layer 1
 62
     7
420
 16777215
370
    25
100
AcDbPolyline
 90
        2
 70
     0
 43
0.0
 10
13.40564027777778
 20
1.332383333333333
 10
13.40564027777778
 20
0.7460916666666668
  0
LWPOLYLINE
  5
212
330
2
100
AcDbEntity
  8
PDF_Layer 1
 62
     7
420
 16777215
370
    25
100
AcDbPolyline
 90
        2
 70
     0
 43
0.0
 10
12.1771375
 20
1.408976388888888
 10
14.3315125
 20
1.394573611111111
  0
LWPOLYLINE
  5
214
330
2
100
AcDbEntity
  8
PDF_Layer 1
 62
     7
420
 16777215
370
    25
100
AcDbPolyline
 90
       11
 70
     0
 43
0.0
 10
13.98658611111111
 20
2.134113888888888
 10
13.98566944444444
 20
2.136711111111111
 10
13.96044722222222
 20
2.194363888888888
 10
13.93162777777777
 20
2.251988888888889
 10
13.90280833333333
 20
2.309641666666666
 10
13.87398888888889
 20
2.367280555555555
 10
13.84157222222222
 20
2.421322222222222
 10
13.80554444444444
 20
2.47896111111111
 10
13.76950277777777
 20
2.529405555555555
 10
13.73347499999999
 20
2.583447222222222
 10
13.69385
 20
2.633877777777777
  0
LWPOLYLINE
  5
215
330
2
100
AcDbEntity
  8
PDF_Layer 1
 62
     7
420
 16777215
370
    25
100
AcDbPolyline
 90
       12
 70
     0
 43
0.0
 10
14.04284722222222
 20
0.8237569444444442
 10
14.04330555555555
 20
0.8253541666666666
 10
14.06131944444444
 20
0.8865902777777776
 10
14.07573611111111
 20
0.9478402777777777
 10
14.09013888888889
 20
1.012701388888888
 10
14.10095833333333
 20
1.073937499999999
 10
14.11176388888889
 20
1.138784722222222
 10
14.11895833333333
 20
1.203631944444444
 10
14.12256944444444
 20
1.268479166666666
 10
14.12616666666666
 20
1.329729166666666
 10
14.12616666666666
 20
1.394576388888888
 42
0.0903144334782671
 10
14.00727777777777
 20
2.075461111111111
  0
LWPOLYLINE
  5
216
330
2
100
AcDbEntity
  8
PDF_Layer 1
 62
     7
420
 16777215
370
    25
100
AcDbPolyline
 90
        2
 70
     0
 43
0.0
 10
12.14111388888889
 20
1.394572222222222
 10
12.14111388888889
 20
0.238113888888889
  0
LWPOLYLINE
  5
217
330
2
100
AcDbEntity
  8
PDF_Layer 1
 62
     7
420
 16777215
370
    25
100
AcDbPolyline
 90
        2
 70
     0
 43
0.0
 10
3.152506944444444
 20
2.529405555555555
 10
3.152506944444444
 20
0.238113888888889
  0
MTEXT
  5
218
330
2
100
AcDbEntity
  8
PDF_Text
 62
     7
420
 16777215
100
AcDbMText
 10
3.766968055555554
 20
11.56590953333333
 30
0.0
 40
0.3626266167534721
 41
0.0
 46
0.0
 71
     7
 72
     5
  1
Ø55
  7
PDF Arial
 73
     1
 44
1.0
  0
MTEXT
  5
219
330
2
100
AcDbEntity
  8
PDF_Text
 62
     7
420
 16777215
100
AcDbMText
 10
7.860712866666665
 20
11.5263956
 30
0.0
 40
0.3626266167534721
 41
0.0
 46
0.0
 71
     7
 72
     5
  1
Ø50
  7
PDF Arial
 73
     1
 44
1.0
  0
MTEXT
  5
21A
330
2
100
AcDbEntity
  8
PDF_Text
 62
     7
420
 16777215
100
AcDbMText
 10
13.28076192222222
 20
11.82251133333333
 30
0.0
 40
0.3626266167534721
 41
0.0
 46
0.0
 71
     7
 72
     5
  1
55
  7
PDF Arial
 73
     1
 44
1.0
  0
MTEXT
  5
21B
330
2
100
AcDbEntity
  8
PDF_Text
 62
     7
420
 16777215
100
AcDbMText
 10
7.967603122222221
 20
6.1600995
 30
0.0
 40
0.3626266167534721
 41
0.0
 46
0.0
 71
     7
 72
     5
  1
200
  7
PDF Arial
 73
     1
 44
1.0
  0
MTEXT
  5
21C
330
2
100
AcDbEntity
  8
PDF_Text
 62
     7
420
 16777215
100
AcDbMText
 10
7.208787499999999
 20
0.3437136999999999
 30
0.0
 40
0.3626266167534721
 41
0.0
 46
0.0
 71
     7
 72
     5
  1
220
  7
PDF Arial
 73
     1
 44
1.0
  0
MTEXT
  5
21D
330
2
100
AcDbEntity
  8
PDF_Text
 62
     7
420
 16777215
100
AcDbMText
 10
8.2001363
 20
1.8244625
 30
0.0
 40
0.3626266167534721
 41
0.0
 46
0.0
 71
     7
 72
     5
  1
Ø20
  7
PDF Arial
 11
0.0000000000000001
 21
1.0
 31
0.0
 73
     1
 44
1.0
  0
MTEXT
  5
21E
330
2
100
AcDbEntity
  8
PDF_Text
 62
     7
420
 16777215
100
AcDbMText
 10
13.35768768888889
 20
2.268365277777778
 30
0.0
 40
0.3626266167534721
 41
0.0
 46
0.0
 71
     7
 72
     5
  1
55
  7
PDF Arial
 11
0.0000000000000001
 21
1.0
 31
0.0
 73
     1
 44
1.0
  0
MTEXT
  5
21F
330
2
100
AcDbEntity
  8
PDF_Text
 62
     7
420
 16777215
100
AcDbMText
 10
14.11631428333333
 20
2.020135652777777
 30
0.0
 40
0.3626266167534721
 41
0.0
 46
0.0
 71
     7
 72
     5
  1
20°
  7
PDF Arial
 11
0.131790536684848
 21
-0.9912775869756764
 31
0.0
 73
     1
 44
1.0
  0
LWPOLYLINE
  5
220
330
2
100
AcDbEntity
  8
PDF_Layer 1
 62
     7
420
 16777215
370
    70
100
AcDbPolyline
 90
        3
 70
     0
 43
0.0
 10
13.52654583333333
 20
9.925644444444444
 42
2.14342729891132
 10
12.42053194444444
 20
8.603463888888889
 42
0.3645418093306279
 10
13.52654583333332
 20
9.532950000000001
  0
LWPOLYLINE
  5
221
330
2
100
AcDbEntity
  8
PDF_Layer 1
 62
     7
420
 16777215
370
    70
100
AcDbPolyline
 90
        3
 70
     0
 43
0.0
 10
3.140115277777776
 20
9.532949999999999
 42
0.3620209139809878
 10
4.249740277777776
 20
8.603463888888889
 42
2.142092865989817
 10
3.140115277777774
 20
9.925644444444444
  0
LWPOLYLINE
  5
222
330
2
100
AcDbEntity
  8
PDF_Layer 1
 62
     7
420
 16777215
370
    70
100
AcDbPolyline
 90
        3
 70
     0
 43
0.0
 10
8.742226388888887
 20
9.500533333333333
 42
0.5773051937383399
 10
8.335143055555555
 20
10.19583888888889
 42
0.5770214509382298
 10
7.928031944444438
 20
9.500533333333331
  0
LWPOLYLINE
  5
223
330
2
100
AcDbEntity
  8
PDF_Layer 1
 62
     7
420
 16777215
370
    70
100
AcDbPolyline
 90
        3
 70
     0
 43
0.0
 10
12.81682361111111
 20
9.893213888888888
 42
0.8155140176885932
 10
11.99182361111111
 20
9.731102777777778
 42
0.8178004395240371
 10
12.81682361111113
 20
9.565380555555545
  0
LWPOLYLINE
  5
224
330
2
100
AcDbEntity
  8
PDF_Layer 1
 62
     7
420
 16777215
370
    70
100
AcDbPolyline
 90
        3
 70
     0
 43
0.0
 10
12.90329583333329
 20
9.896811111111098
 42
0.8440105854452975
 10
11.90896249999999
 20
9.731102777777778
 42
0.8510918138645632
 10
12.90329583333333
 20
9.565380555555556
  0
LWPOLYLINE
  5
225
330
2
100
AcDbEntity
  8
PDF_Layer 1
 62
     7
420
 16777215
370
    70
100
AcDbPolyline
 90
        3
 70
     0
 43
0.0
 10
13.36803194444444
 20
9.914825
 42
0.9053272388107975
 10
11.45501805555555
 20
9.731102777777778
 42
0.9078013926341538
 10
13.36803194444444
 20
9.543769444444444
  0
LWPOLYLINE
  5
226
330
2
100
AcDbEntity
  8
PDF_Layer 1
 62
     7
420
 16777215
370
    70
100
AcDbPolyline
 90
        3
 70
     0
 43
0.0
 10
13.47250416666668
 20
9.922033333333336
 42
0.913134502602549
 10
11.34694861111111
 20
9.731102777777778
 42
0.9148393856949111
 10
13.47250416666666
 20
9.536547222222221
  0
LWPOLYLINE
  5
227
330
2
100
AcDbEntity
  8
PDF_Layer 1
 62
     7
420
 16777215
370
    70
100
AcDbPolyline
 90
        3
 70
     0
 43
0.0
 10
13.47611527777777
 20
9.922033333333333
 42
0.9119656899543397
 10
11.34694861111111
 20
9.731102777777778
 42
0.9131820439524455
 10
13.47611527777778
 20
9.536547222222219
  0
LWPOLYLINE
  5
228
330
2
100
AcDbEntity
  8
PDF_Layer 1
 62
     7
420
 16777215
370
    70
100
AcDbPolyline
 90
        3
 70
     0
 43
0.0
 10
3.259004166666663
 20
9.540158333333334
 42
0.910100046815077
 10
5.258476388888887
 20
9.731102777777778
 42
0.9112352130196534
 10
3.259004166666665
 20
9.918436111111111
  0
LWPOLYLINE
  5
229
330
2
100
AcDbEntity
  8
PDF_Layer 1
 62
     7
420
 16777215
370
    70
100
AcDbPolyline
 90
        3
 70
     0
 43
0.0
 10
3.179754166666663
 20
9.536547222222221
 42
0.9177245916705295
 10
5.337740277777776
 20
9.731102777777778
 42
0.9167899132136684
 10
3.179754166666666
 20
9.922033333333333
  0
VIEWPORT
  5
4A
330
C
100
AcDbEntity
 67
     1
  8
0
100
AcDbViewport
 10
17.24759499286355
 20
11.49745669559334
 30
0.0
 40
36.33732196730226
 41
27.12504315869042
 68
     1
 69
     1
 12
17.24759499286355
 22
11.49745669559334
 13
0.0
 23
0.0
 14
0.5
 24
0.5
 15
0.5
 25
0.5
 16
0.0
 26
0.0
 36
1.0
 17
0.0
 27
0.0
 37
0.0
 42
50.0
 43
0.0
 44
0.0
 45
27.12504315869042
 50
0.0
 51
0.0
 72
  1000
 90
    32864
  1

281
     0
 71
     1
 74
     0
110
0.0
120
0.0
130
0.0
111
1.0
121
0.0
131
0.0
112
0.0
122
1.0
132
0.0
 79
     0
146
0.0
170
     0
 61
     5
348
88
292
     1
282
     1
141
0.0
142
0.0
 63
   250
421
  3355443
  0
ENDSEC
  0
SECTION
  2
OBJECTS
  0
DICTIONARY
  5
7
330
0
100
AcDbDictionary
281
     1
  3
ACAD_CIP_PREVIOUS_PRODUCT_INFO
350
CD
  3
ACAD_COLOR
350
55
  3
ACAD_DETAILVIEWSTYLE
350
C5
  3
ACAD_GROUP
350
1F
  3
ACAD_LAYOUT
350
B
  3
ACAD_MATERIAL
350
54
  3
ACAD_MLEADERSTYLE
350
C1
  3
ACAD_MLINESTYLE
350
20
  3
ACAD_PLOTSETTINGS
350
21
  3
ACAD_PLOTSTYLENAME
350
6
  3
ACAD_SCALELIST
350
AF
  3
ACAD_SECTIONVIEWSTYLE
350
C3
  3
ACAD_TABLESTYLE
350
93
  3
ACAD_VISUALSTYLE
350
82
  3
ACDB_RECOMPOSE_DATA
350
24F
  3
AcDbVariableDictionary
350
9B
  0
DICTIONARY
  5
22B
330
4
100
AcDbDictionary
280
     1
281
     1
  3
ADSK_XREC_LAYER_RECONCILED
360
22C
  0
DICTIONARY
  5
22D
330
25
100
AcDbDictionary
280
     1
281
     1
  3
ADSK_XREC_LAYER_RECONCILED
360
22E
  0
DICTIONARY
  5
22F
330
CE
100
AcDbDictionary
280
     1
281
     1
  3
ADSK_XREC_LAYER_RECONCILED
360
230
  0
DICTIONARY
  5
231
330
E1
100
AcDbDictionary
280
     1
281
     1
  3
ADSK_XREC_LAYER_RECONCILED
360
232
  0
XRECORD
  5
CD
102
{ACAD_REACTORS
330
7
102
}
330
7
100
AcDbXrecord
280
     1
300
ACD
300
2017
300
ACD_F_S
  0
DICTIONARY
  5
55
102
{ACAD_REACTORS
330
7
102
}
330
7
100
AcDbDictionary
281
     1
  0
DICTIONARY
  5
C5
102
{ACAD_REACTORS
330
7
102
}
330
7
100
AcDbDictionary
281
     1
  3
Imperial24
350
C6
  0
DICTIONARY
  5
1F
102
{ACAD_REACTORS
330
7
102
}
330
7
100
AcDbDictionary
281
     1
  0
DICTIONARY
  5
B
102
{ACAD_REACTORS
330
7
102
}
330
7
100
AcDbDictionary
281
     1
  3
Generic 24in x 36in Title Block
350
F
  3
Model
350
A
  0
DICTIONARY
  5
54
102
{ACAD_REACTORS
330
7
102
}
330
7
100
AcDbDictionary
281
     1
  3
ByBlock
350
80
  3
ByLayer
350
7F
  3
Global
350
81
  0
DICTIONARY
  5
C1
102
{ACAD_REACTORS
330
7
102
}
330
7
100
AcDbDictionary
281
     1
  3
Standard
350
C2
  0
DICTIONARY
  5
20
102
{ACAD_REACTORS
330
7
102
}
330
7
100
AcDbDictionary
281
     1
  3
Standard
350
22
  0
DICTIONARY
  5
21
102
{ACAD_REACTORS
330
7
102
}
330
7
100
AcDbDictionary
281
     1
  0
ACDBDICTIONARYWDFLT
  5
6
102
{ACAD_REACTORS
330
7
102
}
330
7
100
AcDbDictionary
281
     1
  3
Normal
350
5
100
AcDbDictionaryWithDefault
340
5
  0
DICTIONARY
  5
AF
102
{ACAD_REACTORS
330
7
102
}
330
7
100
AcDbDictionary
281
     1
  3
A0
350
B0
  3
A1
350
B1
  3
A2
350
B2
  3
A3
350
B3
  3
A4
350
B4
  3
A5
350
B5
  3
A6
350
B6
  3
A7
350
B7
  3
A8
350
B8
  3
A9
350
B9
  3
B0
350
BA
  3
B1
350
BB
  3
B2
350
BC
  3
B3
350
BD
  3
B4
350
BE
  3
B5
350
BF
  3
B6
350
C0
  0
DICTIONARY
  5
C3
102
{ACAD_REACTORS
330
7
102
}
330
7
100
AcDbDictionary
281
     1
  3
Imperial24
350
C4
  0
DICTIONARY
  5
93
102
{ACAD_REACTORS
330
7
102
}
330
7
100
AcDbDictionary
281
     1
  3
Standard
350
94
  0
DICTIONARY
  5
82
102
{ACAD_REACTORS
330
7
102
}
330
7
100
AcDbDictionary
281
     1
  3
2dWireframe
350
88
  3
3D Hidden
350
8A
  3
3dWireframe
350
89
  3
Basic
350
87
  3
Brighten
350
8E
  3
ColorChange
350
92
  3
Conceptual
350
8B
  3
Dim
350
8D
  3
EdgeColorOff
350
AE
  3
Facepattern
350
91
  3
Flat
350
83
  3
FlatWithEdges
350
84
  3
Gouraud
350
85
  3
GouraudWithEdges
350
86
  3
Hidden
350
A6
  3
JitterOff
350
AC
  3
Linepattern
350
90
  3
OverhangOff
350
AD
  3
Realistic
350
8C
  3
Shaded
350
AB
  3
Shaded with edges
350
AA
  3
Shades of Gray
350
A7
  3
Sketchy
350
A8
  3
Thicken
350
8F
  3
Wireframe
350
A5
  3
X-Ray
350
A9
  0
XRECORD
  5
24F
102
{ACAD_REACTORS
330
7
102
}
330
7
100
AcDbXrecord
280
     1
 90
        1
330
94
330
C4
330
C6
  0
DICTIONARY
  5
9B
102
{ACAD_REACTORS
330
7
102
}
330
7
100
AcDbDictionary
281
     1
  3
CANNOSCALE
350
245
  3
CMLEADERSTYLE
350
241
  3
CTABLESTYLE
350
9C
  3
CVIEWDETAILSTYLE
350
242
  3
CVIEWSECTIONSTYLE
350
243
  3
LAYEREVAL
350
247
  3
LAYERNOTIFY
350
248
  3
LIGHTINGUNITS
350
246
  3
MSLTSCALE
350
244
  0
XRECORD
  5
22C
102
{ACAD_REACTORS
330
22B
102
}
330
22B
100
AcDbXrecord
280
     1
290
     1
  0
XRECORD
  5
22E
102
{ACAD_REACTORS
330
22D
102
}
330
22D
100
AcDbXrecord
280
     1
290
     1
  0
XRECORD
  5
230
102
{ACAD_REACTORS
330
22F
102
}
330
22F
100
AcDbXrecord
280
     1
290
     1
  0
XRECORD
  5
232
102
{ACAD_REACTORS
330
231
102
}
330
231
100
AcDbXrecord
280
     1
290
     1
  0
ACDBDETAILVIEWSTYLE
  5
C6
102
{ACAD_XDICTIONARY
360
24D
102
}
102
{ACAD_REACTORS
330
C5
102
}
330
C5
100
AcDbModelDocViewStyle
 70
     0
  3
Imperial24
290
     0
100
AcDbDetailViewStyle
 70
     0
 71
     0
 90
        3
 71
     1
340
12
 62
   256
 40
0.24
340
0
 62
   256
 40
0.24
300

 40
0.36
280
     3
 71
     2
340
8
 90
       25
 62
   256
 71
     3
340
12
 62
   256
 40
0.24
 90
        1
 40
0.75
 90
        1
300
%<\AcVar ViewType \f "%tc1">% %<\AcVar ViewDetailId>%\PSCALE %<\AcVar ViewScale \f "%sn">%
 71
     4
340
8
 90
       25
 62
   256
340
8
 90
       25
 62
   256
280
     0
  0
LAYOUT
  5
F
102
{ACAD_REACTORS
330
B
102
}
330
B
100
AcDbPlotSettings
  1

  2
none_device
  4
ARCH_D_(24.00_x_36.00_Inches)
  6

 40
6.4
 41
19.1
 42
6.4
 43
19.1
 44
609.5999755859375
 45
914.4000244140626
 46
6.095999999999999
 47
-0.254
 48
0.0
 49
0.0
140
0.0
141
0.0
142
1.0
143
1.0
 70
   692
 72
     0
 73
     1
 74
     1
  7

 75
    16
147
1.0
 76
     0
 77
     2
 78
   300
148
0.2650993882970653
149
0.268587724897764
100
AcDbLayout
  1
Generic 24in x 36in Title Block
 70
     1
 71
     1
 10
-0.7524054877282309
 20
-0.5025428238148726
 11
35.24759547345533
 21
23.49745621500156
 12
0.0
 22
0.0
 32
0.0
 14
1.000000000000000E+20
 24
1.000000000000000E+20
 34
1.000000000000000E+20
 15
-1.000000000000000E+20
 25
-1.000000000000000E+20
 35
-1.000000000000000E+20
146
0.0
 13
0.0
 23
0.0
 33
0.0
 16
1.0
 26
0.0
 36
0.0
 17
0.0
 27
1.0
 37
0.0
 76
     0
330
C
331
4A
  0
LAYOUT
  5
A
102
{ACAD_REACTORS
330
B
102
}
330
B
100
AcDbPlotSettings
  1

  2
none_device
  4
Letter_(8.50_x_11.00_Inches)
  6

 40
6.349999904632568
 41
6.349999904632568
 42
6.350006103515625
 43
6.350006103515625
 44
215.8999938964844
 45
279.3999938964844
 46
20.37045378159827
 47
10.87052656611426
 48
0.0
 49
0.0
140
0.0
141
0.0
142
1.0
143
3.59932905303845
 70
 11956
 72
     0
 73
     1
 74
     1
  7

 75
     0
147
0.2778295580271631
 76
     0
 77
     2
 78
   300
148
5.106903281790129
149
0.2718425107115592
100
AcDbLayout
  1
Model
 70
     1
 71
     0
 10
0.0
 20
0.0
 11
12.0
 21
9.0
 12
0.0
 22
0.0
 32
0.0
 14
0.0
 24
0.0
 34
0.0
 15
0.0
 25
0.0
 35
0.0
146
0.0
 13
0.0
 23
0.0
 33
0.0
 16
1.0
 26
0.0
 36
0.0
 17
0.0
 27
1.0
 37
0.0
 76
     0
330
2
331
7D
  0
MATERIAL
  5
80
102
{ACAD_REACTORS
330
54
102
}
330
54
100
AcDbMaterial
  1
ByBlock
 73
     1
 78
     1
172
     1
176
     1
270
     1
274
     1
 94
       63
  0
MATERIAL
  5
7F
102
{ACAD_REACTORS
330
54
102
}
330
54
100
AcDbMaterial
  1
ByLayer
 73
     1
 78
     1
172
     1
176
     1
270
     1
274
     1
 94
       63
  0
MATERIAL
  5
81
102
{ACAD_REACTORS
330
54
102
}
330
54
100
AcDbMaterial
  1
Global
 73
     1
 78
     1
172
     1
176
     1
270
     1
274
     1
 94
       63
  0
MLEADERSTYLE
  5
C2
102
{ACAD_REACTORS
330
C1
102
}
330
C1
100
AcDbMLeaderStyle
179
     2
170
     2
171
     1
172
     0
 90
        2
 40
0.0
 41
0.0
173
     1
 91
-1056964608
340
15
 92
       -2
290
     1
 42
0.09
291
     1
 43
0.36
  3
Standard
 44
0.18
300

342
12
174
     1
178
     6
175
     1
176
     0
 93
-1056964608
 45
0.18
292
     0
297
     0
 46
0.18
 94
-1056964608
 47
1.0
 49
1.0
140
1.0
293
     1
141
0.0
294
     1
177
     0
142
1.0
295
     1
296
     0
143
0.125
271
     0
272
     9
273
     9
298
     1
  0
MLINESTYLE
  5
22
102
{ACAD_REACTORS
330
20
102
}
330
20
100
AcDbMlineStyle
  2
STANDARD
 70
     0
  3

 62
   256
 51
90.0
 52
90.0
 71
     2
 49
0.5
 62
   256
  6
BYLAYER
 49
-0.5
 62
   256
  6
BYLAYER
  0
ACDBPLACEHOLDER
  5
5
102
{ACAD_REACTORS
330
6
102
}
330
6
  0
SCALE
  5
B0
102
{ACAD_REACTORS
330
AF
102
}
330
AF
100
AcDbScale
 70
     0
300
1:1
140
1.0
141
1.0
290
     1
  0
SCALE
  5
B1
102
{ACAD_REACTORS
330
AF
102
}
330
AF
100
AcDbScale
 70
     0
300
1/128" = 1'-0"
140
0.0078125
141
12.0
290
     0
  0
SCALE
  5
B2
102
{ACAD_REACTORS
330
AF
102
}
330
AF
100
AcDbScale
 70
     0
300
1/64" = 1'-0"
140
0.015625
141
12.0
290
     0
  0
SCALE
  5
B3
102
{ACAD_REACTORS
330
AF
102
}
330
AF
100
AcDbScale
 70
     0
300
1/32" = 1'-0"
140
0.03125
141
12.0
290
     0
  0
SCALE
  5
B4
102
{ACAD_REACTORS
330
AF
102
}
330
AF
100
AcDbScale
 70
     0
300
1/16" = 1'-0"
140
0.0625
141
12.0
290
     0
  0
SCALE
  5
B5
102
{ACAD_REACTORS
330
AF
102
}
330
AF
100
AcDbScale
 70
     0
300
3/32" = 1'-0"
140
0.09375
141
12.0
290
     0
  0
SCALE
  5
B6
102
{ACAD_REACTORS
330
AF
102
}
330
AF
100
AcDbScale
 70
     0
300
1/8" = 1'-0"
140
0.125
141
12.0
290
     0
  0
SCALE
  5
B7
102
{ACAD_REACTORS
330
AF
102
}
330
AF
100
AcDbScale
 70
     0
300
3/16" = 1'-0"
140
0.1875
141
12.0
290
     0
  0
SCALE
  5
B8
102
{ACAD_REACTORS
330
AF
102
}
330
AF
100
AcDbScale
 70
     0
300
1/4" = 1'-0"
140
0.25
141
12.0
290
     0
  0
SCALE
  5
B9
102
{ACAD_REACTORS
330
AF
102
}
330
AF
100
AcDbScale
 70
     0
300
3/8" = 1'-0"
140
0.375
141
12.0
290
     0
  0
SCALE
  5
BA
102
{ACAD_REACTORS
330
AF
102
}
330
AF
100
AcDbScale
 70
     0
300
1/2" = 1'-0"
140
0.5
141
12.0
290
     0
  0
SCALE
  5
BB
102
{ACAD_REACTORS
330
AF
102
}
330
AF
100
AcDbScale
 70
     0
300
3/4" = 1'-0"
140
0.75
141
12.0
290
     0
  0
SCALE
  5
BC
102
{ACAD_REACTORS
330
AF
102
}
330
AF
100
AcDbScale
 70
     0
300
1" = 1'-0"
140
1.0
141
12.0
290
     0
  0
SCALE
  5
BD
102
{ACAD_REACTORS
330
AF
102
}
330
AF
100
AcDbScale
 70
     0
300
1-1/2" = 1'-0"
140
1.5
141
12.0
290
     0
  0
SCALE
  5
BE
102
{ACAD_REACTORS
330
AF
102
}
330
AF
100
AcDbScale
 70
     0
300
3" = 1'-0"
140
3.0
141
12.0
290
     0
  0
SCALE
  5
BF
102
{ACAD_REACTORS
330
AF
102
}
330
AF
100
AcDbScale
 70
     0
300
6" = 1'-0"
140
6.0
141
12.0
290
     0
  0
SCALE
  5
C0
102
{ACAD_REACTORS
330
AF
102
}
330
AF
100
AcDbScale
 70
     0
300
1'-0" = 1'-0"
140
12.0
141
12.0
290
     0
  0
ACDBSECTIONVIEWSTYLE
  5
C4
102
{ACAD_XDICTIONARY
360
24B
102
}
102
{ACAD_REACTORS
330
C3
102
}
330
C3
100
AcDbModelDocViewStyle
 70
     0
  3
Imperial24
290
     0
100
AcDbSectionViewStyle
 70
     0
 71
     0
 90
       78
 71
     1
340
12
 62
   256
 40
0.24
340
0
340
0
 62
   256
 40
0.24
300
I, O, Q, S, X, Z
 40
0.48
 90
        3
 40
0.18
 90
        1
 71
     2
340
8
 90
       25
 62
   256
340
8
 90
       50
 62
   256
 40
0.24
 40
0.0
 40
0.24
 71
     3
340
12
 62
   256
 40
0.24
 90
        1
 40
0.75
 90
        1
300
%<\AcVar ViewType \f "%tc1">% %<\AcVar ViewSectionStartId>%-%<\AcVar ViewSectionEndId>%\PSCALE %<\AcVar ViewScale \f "%sn">%
 71
     4
 62
   256
 62
   257
300
ANSI31
 40
1.0
 90
        0
290
     0
290
     0
 90
        6
 40
0.0
 40
1.570796326794896
 40
0.2617993877991494
 40
1.308996938995747
 40
-0.2617993877991494
 40
1.832595714594046
  0
TABLESTYLE
  5
94
102
{ACAD_XDICTIONARY
360
249
102
}
102
{ACAD_REACTORS
330
93
102
}
330
93
100
AcDbTableStyle
280
     0
  3
Standard
 70
     0
 71
     0
 40
0.06
 41
0.06
280
     0
281
     0
  7
Standard
140
0.18
170
     2
 62
     0
 63
     7
283
     0
 90
      512
 91
        0
  1

274
    -2
284
     1
 64
     0
275
    -2
285
     1
 65
     0
276
    -2
286
     1
 66
     0
277
    -2
287
     1
 67
     0
278
    -2
288
     1
 68
     0
279
    -2
289
     1
 69
     0
  7
Standard
140
0.25
170
     5
 62
     0
 63
     7
283
     0
 90
      512
 91
        0
  1

274
    -2
284
     1
 64
     0
275
    -2
285
     1
 65
     0
276
    -2
286
     1
 66
     0
277
    -2
287
     1
 67
     0
278
    -2
288
     1
 68
     0
279
    -2
289
     1
 69
     0
  7
Standard
140
0.18
170
     5
 62
     0
 63
     7
283
     0
 90
      512
 91
        0
  1

274
    -2
284
     1
 64
     0
275
    -2
285
     1
 65
     0
276
    -2
286
     1
 66
     0
277
    -2
287
     1
 67
     0
278
    -2
288
     1
 68
     0
279
    -2
289
     1
 69
     0
  0
VISUALSTYLE
  5
88
102
{ACAD_REACTORS
330
82
102
}
330
82
100
AcDbVisualStyle
  2
2dWireframe
 70
     4
177
     3
291
     0
 70
    58
 90
        0
176
     1
 90
        2
176
     1
 90
        1
176
     1
 90
        0
176
     1
 40
0.6
176
     1
 40
30.0
176
     1
 62
     7
420
 16777215
176
     1
 90
        1
176
     1
 90
        4
176
     1
 62
     7
176
     1
 62
   257
176
     1
 90
        1
176
     1
 90
        1
176
     1
 40
1.0
176
     1
 90
        0
176
     1
 62
   257
176
     1
 40
1.0
176
     1
 90
        1
176
     1
 90
        6
176
     1
 90
        2
176
     1
 62
     7
176
     1
 90
        5
176
     1
 90
        0
176
     1
 90
        0
176
     1
290
     0
176
     1
 90
        1
176
     1
 40
0.0
176
     1
 90
        0
176
     1
290
     1
176
     1
290
     1
176
     1
290
     0
176
     1
290
     0
176
     1
290
     0
176
     1
290
     0
176
     1
290
     0
176
     1
290
     0
176
     1
290
     0
176
     1
 90
       50
176
     1
 40
0.0
176
     1
 40
1.0
176
     1
 90
        0
176
     1
 62
    18
420
        0
176
     1
 90
       50
176
     1
 90
        3
176
     1
 62
     5
420
      255
176
     1
290
     0
176
     1
 90
       50
176
     1
 90
       50
176
     1
 90
       50
176
     1
290
     0
176
     1
 90
       50
176
     1
 62
   256
176
     0
 40
1.0
176
     0
 90
        2
176
     1
  1
strokes_ogs.tif
176
     1
290
     0
176
     1
 40
1.0
176
     1
 40
1.0
176
     1
  0
VISUALSTYLE
  5
8A
102
{ACAD_REACTORS
330
82
102
}
330
82
100
AcDbVisualStyle
  2
3D Hidden
 70
     6
177
     3
291
     0
 70
    58
 90
        1
176
     1
 90
        2
176
     1
 90
        2
176
     1
 90
        0
176
     1
 40
0.6
176
     1
 40
30.0
176
     1
 62
     7
420
 16777215
176
     1
 90
        2
176
     1
 90
       10
176
     1
 62
     7
176
     1
 62
   257
176
     1
 90
        2
176
     1
 90
        2
176
     1
 40
40.0
176
     1
 90
        0
176
     1
 62
   257
176
     1
 40
1.0
176
     1
 90
        1
176
     1
 90
        6
176
     1
 90
        2
176
     1
 62
     7
176
     1
 90
        3
176
     1
 90
        0
176
     1
 90
        0
176
     1
290
     0
176
     1
 90
        1
176
     1
 40
0.0
176
     1
 90
        0
176
     1
290
     0
176
     1
290
     1
176
     1
290
     1
176
     1
290
     0
176
     1
290
     0
176
     1
290
     0
176
     1
290
     0
176
     1
290
     0
176
     1
290
     0
176
     1
 90
       50
176
     1
 40
0.0
176
     1
 40
1.0
176
     1
 90
        0
176
     1
 62
    18
420
        0
176
     1
 90
       50
176
     1
 90
        3
176
     1
 62
     5
420
      255
176
     1
290
     0
176
     1
 90
       50
176
     1
 90
       50
176
     1
 90
       50
176
     1
290
     0
176
     1
 90
       50
176
     1
 62
   256
176
     0
 40
1.0
176
     0
 90
        2
176
     1
  1
strokes_ogs.tif
176
     1
290
     0
176
     1
 40
1.0
176
     1
 40
1.0
176
     1
  0
VISUALSTYLE
  5
89
102
{ACAD_REACTORS
330
82
102
}
330
82
100
AcDbVisualStyle
  2
3dWireframe
 70
     5
177
     3
291
     0
 70
    58
 90
        0
176
     1
 90
        2
176
     1
 90
        1
176
     1
 90
        0
176
     1
 40
0.6
176
     1
 40
30.0
176
     1
 62
     7
420
 16777215
176
     1
 90
        1
176
     1
 90
        4
176
     1
 62
     7
176
     1
 62
   257
176
     1
 90
        1
176
     1
 90
        1
176
     1
 40
1.0
176
     1
 90
        0
176
     1
 62
   257
176
     1
 40
1.0
176
     1
 90
        1
176
     1
 90
        6
176
     1
 90
        2
176
     1
 62
     7
176
     1
 90
        5
176
     1
 90
        0
176
     1
 90
        0
176
     1
290
     0
176
     1
 90
        1
176
     1
 40
0.0
176
     1
 90
        0
176
     1
290
     0
176
     1
290
     1
176
     1
290
     1
176
     1
290
     0
176
     1
290
     0
176
     1
290
     0
176
     1
290
     0
176
     1
290
     0
176
     1
290
     0
176
     1
 90
       50
176
     1
 40
0.0
176
     1
 40
1.0
176
     1
 90
        0
176
     1
 62
    18
420
        0
176
     1
 90
       50
176
     1
 90
        3
176
     1
 62
     5
420
      255
176
     1
290
     0
176
     1
 90
       50
176
     1
 90
       50
176
     1
 90
       50
176
     1
290
     0
176
     1
 90
       50
176
     1
 62
   256
176
     0
 40
1.0
176
     0
 90
        2
176
     1
  1
strokes_ogs.tif
176
     1
290
     0
176
     1
 40
1.0
176
     1
 40
1.0
176
     1
  0
VISUALSTYLE
  5
87
102
{ACAD_REACTORS
330
82
102
}
330
82
100
AcDbVisualStyle
  2
Basic
 70
     7
177
     3
291
     1
 70
    58
 90
        1
176
     1
 90
        0
176
     1
 90
        1
176
     1
 90
        0
176
     1
 40
0.6
176
     1
 40
30.0
176
     1
 62
     7
420
 16777215
176
     1
 90
        0
176
     1
 90
        4
176
     1
 62
     7
176
     1
 62
   257
176
     1
 90
        1
176
     1
 90
        1
176
     1
 40
1.0
176
     1
 90
        8
176
     1
 62
     7
176
     1
 40
1.0
176
     1
 90
        1
176
     1
 90
        6
176
     1
 90
        2
176
     1
 62
     7
176
     1
 90
        5
176
     1
 90
        0
176
     1
 90
        0
176
     1
290
     0
176
     1
 90
        1
176
     1
 40
0.0
176
     1
 90
        0
176
     1
290
     0
176
     1
290
     1
176
     1
290
     1
176
     1
290
     0
176
     1
290
     0
176
     1
290
     0
176
     1
290
     0
176
     1
290
     0
176
     1
290
     0
176
     1
 90
       50
176
     1
 40
0.0
176
     1
 40
1.0
176
     1
 90
        0
176
     1
 62
    18
420
        0
176
     1
 90
       50
176
     1
 90
        3
176
     1
 62
     5
420
      255
176
     1
290
     0
176
     1
 90
       50
176
     1
 90
       50
176
     1
 90
       50
176
     1
290
     0
176
     1
 90
       50
176
     1
 62
   256
176
     0
 40
1.0
176
     0
 90
        2
176
     1
  1
strokes_ogs.tif
176
     1
290
     0
176
     1
 40
1.0
176
     1
 40
1.0
176
     1
  0
VISUALSTYLE
  5
8E
102
{ACAD_REACTORS
330
82
102
}
330
82
100
AcDbVisualStyle
  2
Brighten
 70
    12
177
     3
291
     1
 70
    58
 90
        2
176
     1
 90
        2
176
     1
 90
        1
176
     1
 90
        0
176
     1
 40
0.6
176
     1
 40
30.0
176
     1
 62
     7
420
 16777215
176
     1
 90
        1
176
     1
 90
        4
176
     1
 62
     7
176
     1
 62
   257
176
     1
 90
        1
176
     1
 90
        1
176
     1
 40
1.0
176
     1
 90
        8
176
     1
 62
     7
176
     1
 40
1.0
176
     1
 90
        1
176
     1
 90
        6
176
     1
 90
        2
176
     1
 62
     7
176
     1
 90
        5
176
     1
 90
        0
176
     1
 90
        0
176
     1
290
     0
176
     1
 90
        1
176
     1
 40
50.0
176
     1
 90
        0
176
     1
290
     0
176
     1
290
     1
176
     1
290
     1
176
     1
290
     0
176
     1
290
     0
176
     1
290
     0
176
     1
290
     0
176
     1
290
     0
176
     1
290
     0
176
     1
 90
       50
176
     1
 40
0.0
176
     1
 40
1.0
176
     1
 90
        0
176
     1
 62
    18
420
        0
176
     1
 90
       50
176
     1
 90
        3
176
     1
 62
     5
420
      255
176
     1
290
     0
176
     1
 90
       50
176
     1
 90
       50
176
     1
 90
       50
176
     1
290
     0
176
     1
 90
       50
176
     1
 62
   256
176
     0
 40
1.0
176
     0
 90
        2
176
     1
  1
strokes_ogs.tif
176
     1
290
     0
176
     1
 40
1.0
176
     1
 40
1.0
176
     1
  0
VISUALSTYLE
  5
92
102
{ACAD_REACTORS
330
82
102
}
330
82
100
AcDbVisualStyle
  2
ColorChange
 70
    16
177
     3
291
     1
 70
    58
 90
        2
176
     1
 90
        2
176
     1
 90
        3
176
     1
 90
        0
176
     1
 40
0.6
176
     1
 40
30.0
176
     1
 62
     8
420
  8421504
176
     1
 90
        1
176
     1
 90
        4
176
     1
 62
     7
176
     1
 62
   257
176
     1
 90
        1
176
     1
 90
        1
176
     1
 40
1.0
176
     1
 90
        8
176
     1
 62
     8
420
  8421504
176
     1
 40
1.0
176
     1
 90
        1
176
     1
 90
        6
176
     1
 90
        2
176
     1
 62
     7
176
     1
 90
        5
176
     1
 90
        0
176
     1
 90
        0
176
     1
290
     0
176
     1
 90
        1
176
     1
 40
0.0
176
     1
 90
        0
176
     1
290
     0
176
     1
290
     1
176
     1
290
     1
176
     1
290
     0
176
     1
290
     0
176
     1
290
     0
176
     1
290
     0
176
     1
290
     0
176
     1
290
     0
176
     1
 90
       50
176
     1
 40
0.0
176
     1
 40
1.0
176
     1
 90
        0
176
     1
 62
    18
420
        0
176
     1
 90
       50
176
     1
 90
        3
176
     1
 62
     5
420
      255
176
     1
290
     0
176
     1
 90
       50
176
     1
 90
       50
176
     1
 90
       50
176
     1
290
     0
176
     1
 90
       50
176
     1
 62
   256
176
     0
 40
1.0
176
     0
 90
        2
176
     1
  1
strokes_ogs.tif
176
     1
290
     0
176
     1
 40
1.0
176
     1
 40
1.0
176
     1
  0
VISUALSTYLE
  5
8B
102
{ACAD_REACTORS
330
82
102
}
330
82
100
AcDbVisualStyle
  2
Conceptual
 70
     9
177
     3
291
     0
 70
    58
 90
        3
176
     1
 90
        2
176
     1
 90
        1
176
     1
 90
        0
176
     1
 40
0.6
176
     1
 40
30.0
176
     1
 62
     7
420
 16777215
176
     1
 90
        2
176
     1
 90
        2
176
     1
 62
     7
176
     1
 62
   257
176
     1
 90
        1
176
     1
 90
        1
176
     1
 40
40.0
176
     1
 90
        8
176
     1
 62
     7
176
     1
 40
1.0
176
     1
 90
        1
176
     1
 90
        6
176
     1
 90
        2
176
     1
 62
     7
176
     1
 90
        5
176
     1
 90
        0
176
     1
 90
        0
176
     1
290
     0
176
     1
 90
        1
176
     1
 40
0.0
176
     1
 90
        0
176
     1
290
     0
176
     1
290
     1
176
     1
290
     1
176
     1
290
     0
176
     1
290
     0
176
     1
290
     0
176
     1
290
     0
176
     1
290
     0
176
     1
290
     0
176
     1
 90
       50
176
     1
 40
0.0
176
     1
 40
1.0
176
     1
 90
        0
176
     1
 62
    18
420
        0
176
     1
 90
       50
176
     1
 90
        3
176
     1
 62
     5
420
      255
176
     1
290
     0
176
     1
 90
       50
176
     1
 90
       50
176
     1
 90
       50
176
     1
290
     0
176
     1
 90
       50
176
     1
 62
   256
176
     0
 40
1.0
176
     0
 90
        2
176
     1
  1
strokes_ogs.tif
176
     1
290
     0
176
     1
 40
1.0
176
     1
 40
1.0
176
     1
  0
VISUALSTYLE
  5
8D
102
{ACAD_REACTORS
330
82
102
}
330
82
100
AcDbVisualStyle
  2
Dim
 70
    11
177
     3
291
     1
 70
    58
 90
        2
176
     1
 90
        2
176
     1
 90
        1
176
     1
 90
        0
176
     1
 40
0.6
176
     1
 40
30.0
176
     1
 62
     7
420
 16777215
176
     1
 90
        1
176
     1
 90
        4
176
     1
 62
     7
176
     1
 62
   257
176
     1
 90
        1
176
     1
 90
        1
176
     1
 40
1.0
176
     1
 90
        8
176
     1
 62
     7
176
     1
 40
1.0
176
     1
 90
        1
176
     1
 90
        6
176
     1
 90
        2
176
     1
 62
     7
176
     1
 90
        5
176
     1
 90
        0
176
     1
 90
        0
176
     1
290
     0
176
     1
 90
        1
176
     1
 40
-50.0
176
     1
 90
        0
176
     1
290
     0
176
     1
290
     1
176
     1
290
     1
176
     1
290
     0
176
     1
290
     0
176
     1
290
     0
176
     1
290
     0
176
     1
290
     0
176
     1
290
     0
176
     1
 90
       50
176
     1
 40
0.0
176
     1
 40
1.0
176
     1
 90
        0
176
     1
 62
    18
420
        0
176
     1
 90
       50
176
     1
 90
        3
176
     1
 62
     5
420
      255
176
     1
290
     0
176
     1
 90
       50
176
     1
 90
       50
176
     1
 90
       50
176
     1
290
     0
176
     1
 90
       50
176
     1
 62
   256
176
     0
 40
1.0
176
     0
 90
        2
176
     1
  1
strokes_ogs.tif
176
     1
290
     0
176
     1
 40
1.0
176
     1
 40
1.0
176
     1
  0
VISUALSTYLE
  5
AE
102
{ACAD_REACTORS
330
82
102
}
330
82
100
AcDbVisualStyle
  2
EdgeColorOff
 70
    22
177
     3
291
     1
 70
    58
 90
        2
176
     0
 90
        2
176
     0
 90
        0
176
     0
 90
        0
176
     0
 40
0.6
176
     0
 40
30.0
176
     0
 62
     7
420
 16777215
176
     0
 90
        1
176
     0
 90
        4
176
     0
 62
     7
176
     0
 62
   257
176
     0
 90
        1
176
     0
 90
        1
176
     0
 40
1.0
176
     0
 90
        8
176
     2
 62
     7
176
     0
 40
1.0
176
     0
 90
        1
176
     0
 90
        6
176
     0
 90
        2
176
     0
 62
     7
176
     0
 90
        5
176
     0
 90
        0
176
     0
 90
        0
176
     0
290
     0
176
     0
 90
        1
176
     0
 40
0.0
176
     0
 90
        0
176
     0
290
     0
176
     0
290
     1
176
     0
290
     1
176
     0
290
     0
176
     0
290
     0
176
     0
290
     0
176
     0
290
     0
176
     0
290
     0
176
     0
290
     0
176
     0
 90
       50
176
     0
 40
0.0
176
     0
 40
1.0
176
     0
 90
        0
176
     0
 62
    18
420
        0
176
     0
 90
       50
176
     0
 90
        3
176
     0
 62
     5
420
      255
176
     0
290
     0
176
     0
 90
       50
176
     0
 90
       50
176
     0
 90
       50
176
     0
290
     0
176
     0
 90
       50
176
     0
 62
   256
176
     0
 40
1.0
176
     0
 90
        2
176
     0
  1
strokes_ogs.tif
176
     0
290
     0
176
     0
 40
1.0
176
     0
 40
1.0
176
     0
  0
VISUALSTYLE
  5
91
102
{ACAD_REACTORS
330
82
102
}
330
82
100
AcDbVisualStyle
  2
Facepattern
 70
    15
177
     3
291
     1
 70
    58
 90
        2
176
     1
 90
        2
176
     1
 90
        1
176
     1
 90
        0
176
     1
 40
0.6
176
     1
 40
30.0
176
     1
 62
     7
420
 16777215
176
     1
 90
        1
176
     1
 90
        4
176
     1
 62
     7
176
     1
 62
   257
176
     1
 90
        1
176
     1
 90
        1
176
     1
 40
1.0
176
     1
 90
        8
176
     1
 62
     7
176
     1
 40
1.0
176
     1
 90
        1
176
     1
 90
        6
176
     1
 90
        2
176
     1
 62
     7
176
     1
 90
        5
176
     1
 90
        0
176
     1
 90
        0
176
     1
290
     0
176
     1
 90
        1
176
     1
 40
0.0
176
     1
 90
        0
176
     1
290
     0
176
     1
290
     1
176
     1
290
     1
176
     1
290
     0
176
     1
290
     0
176
     1
290
     0
176
     1
290
     0
176
     1
290
     0
176
     1
290
     0
176
     1
 90
       50
176
     1
 40
0.0
176
     1
 40
1.0
176
     1
 90
        0
176
     1
 62
    18
420
        0
176
     1
 90
       50
176
     1
 90
        3
176
     1
 62
     5
420
      255
176
     1
290
     0
176
     1
 90
       50
176
     1
 90
       50
176
     1
 90
       50
176
     1
290
     0
176
     1
 90
       50
176
     1
 62
   256
176
     0
 40
1.0
176
     0
 90
        2
176
     1
  1
strokes_ogs.tif
176
     1
290
     0
176
     1
 40
1.0
176
     1
 40
1.0
176
     1
  0
VISUALSTYLE
  5
83
102
{ACAD_REACTORS
330
82
102
}
330
82
100
AcDbVisualStyle
  2
Flat
 70
     0
177
     3
291
     1
 70
    58
 90
        2
176
     1
 90
        1
176
     1
 90
        1
176
     1
 90
        2
176
     1
 40
0.6
176
     1
 40
30.0
176
     1
 62
     7
420
 16777215
176
     1
 90
        0
176
     1
 90
        4
176
     1
 62
     7
176
     1
 62
   257
176
     1
 90
        1
176
     1
 90
        1
176
     1
 40
1.0
176
     1
 90
        8
176
     1
 62
     7
176
     1
 40
1.0
176
     1
 90
        1
176
     1
 90
        6
176
     1
 90
        2
176
     1
 62
     7
176
     1
 90
        5
176
     1
 90
        0
176
     1
 90
        0
176
     1
290
     0
176
     1
 90
        1
176
     1
 40
0.0
176
     1
 90
        0
176
     1
290
     0
176
     1
290
     1
176
     1
290
     1
176
     1
290
     0
176
     1
290
     0
176
     1
290
     0
176
     1
290
     0
176
     1
290
     0
176
     1
290
     0
176
     1
 90
       50
176
     1
 40
0.0
176
     1
 40
1.0
176
     1
 90
        0
176
     1
 62
    18
420
        0
176
     1
 90
       50
176
     1
 90
        3
176
     1
 62
     5
420
      255
176
     1
290
     0
176
     1
 90
       50
176
     1
 90
       50
176
     1
 90
       50
176
     1
290
     0
176
     1
 90
       50
176
     1
 62
   256
176
     0
 40
1.0
176
     0
 90
        2
176
     1
  1
strokes_ogs.tif
176
     1
290
     0
176
     1
 40
1.0
176
     1
 40
1.0
176
     1
  0
VISUALSTYLE
  5
84
102
{ACAD_REACTORS
330
82
102
}
330
82
100
AcDbVisualStyle
  2
FlatWithEdges
 70
     1
177
     3
291
     1
 70
    58
 90
        2
176
     1
 90
        1
176
     1
 90
        1
176
     1
 90
        2
176
     1
 40
0.6
176
     1
 40
30.0
176
     1
 62
     7
420
 16777215
176
     1
 90
        1
176
     1
 90
        4
176
     1
 62
     7
176
     1
 62
   257
176
     1
 90
        1
176
     1
 90
        1
176
     1
 40
1.0
176
     1
 90
        0
176
     1
 62
   257
176
     1
 40
1.0
176
     1
 90
        1
176
     1
 90
        6
176
     1
 90
        2
176
     1
 62
     7
176
     1
 90
        5
176
     1
 90
        0
176
     1
 90
        0
176
     1
290
     0
176
     1
 90
        1
176
     1
 40
0.0
176
     1
 90
        0
176
     1
290
     0
176
     1
290
     1
176
     1
290
     1
176
     1
290
     0
176
     1
290
     0
176
     1
290
     0
176
     1
290
     0
176
     1
290
     0
176
     1
290
     0
176
     1
 90
       50
176
     1
 40
0.0
176
     1
 40
1.0
176
     1
 90
        0
176
     1
 62
    18
420
        0
176
     1
 90
       50
176
     1
 90
        3
176
     1
 62
     5
420
      255
176
     1
290
     0
176
     1
 90
       50
176
     1
 90
       50
176
     1
 90
       50
176
     1
290
     0
176
     1
 90
       50
176
     1
 62
   256
176
     0
 40
1.0
176
     0
 90
        2
176
     1
  1
strokes_ogs.tif
176
     1
290
     0
176
     1
 40
1.0
176
     1
 40
1.0
176
     1
  0
VISUALSTYLE
  5
85
102
{ACAD_REACTORS
330
82
102
}
330
82
100
AcDbVisualStyle
  2
Gouraud
 70
     2
177
     3
291
     1
 70
    58
 90
        2
176
     1
 90
        2
176
     1
 90
        1
176
     1
 90
        2
176
     1
 40
0.6
176
     1
 40
30.0
176
     1
 62
     7
420
 16777215
176
     1
 90
        0
176
     1
 90
        4
176
     1
 62
     7
176
     1
 62
   257
176
     1
 90
        1
176
     1
 90
        1
176
     1
 40
1.0
176
     1
 90
        0
176
     1
 62
     7
176
     1
 40
1.0
176
     1
 90
        1
176
     1
 90
        6
176
     1
 90
        2
176
     1
 62
     7
176
     1
 90
        5
176
     1
 90
        0
176
     1
 90
        0
176
     1
290
     0
176
     1
 90
        1
176
     1
 40
0.0
176
     1
 90
        0
176
     1
290
     0
176
     1
290
     1
176
     1
290
     1
176
     1
290
     0
176
     1
290
     0
176
     1
290
     0
176
     1
290
     0
176
     1
290
     0
176
     1
290
     0
176
     1
 90
       50
176
     1
 40
0.0
176
     1
 40
1.0
176
     1
 90
        0
176
     1
 62
    18
420
        0
176
     1
 90
       50
176
     1
 90
        3
176
     1
 62
     5
420
      255
176
     1
290
     0
176
     1
 90
       50
176
     1
 90
       50
176
     1
 90
       50
176
     1
290
     0
176
     1
 90
       50
176
     1
 62
   256
176
     0
 40
1.0
176
     0
 90
        2
176
     1
  1
strokes_ogs.tif
176
     1
290
     0
176
     1
 40
1.0
176
     1
 40
1.0
176
     1
  0
VISUALSTYLE
  5
86
102
{ACAD_REACTORS
330
82
102
}
330
82
100
AcDbVisualStyle
  2
GouraudWithEdges
 70
     3
177
     3
291
     1
 70
    58
 90
        2
176
     1
 90
        2
176
     1
 90
        1
176
     1
 90
        2
176
     1
 40
0.6
176
     1
 40
30.0
176
     1
 62
     7
420
 16777215
176
     1
 90
        1
176
     1
 90
        4
176
     1
 62
     7
176
     1
 62
   257
176
     1
 90
        1
176
     1
 90
        1
176
     1
 40
1.0
176
     1
 90
        0
176
     1
 62
   257
176
     1
 40
1.0
176
     1
 90
        1
176
     1
 90
        6
176
     1
 90
        2
176
     1
 62
     7
176
     1
 90
        5
176
     1
 90
        0
176
     1
 90
        0
176
     1
290
     0
176
     1
 90
        1
176
     1
 40
0.0
176
     1
 90
        0
176
     1
290
     0
176
     1
290
     1
176
     1
290
     1
176
     1
290
     0
176
     1
290
     0
176
     1
290
     0
176
     1
290
     0
176
     1
290
     0
176
     1
290
     0
176
     1
 90
       50
176
     1
 40
0.0
176
     1
 40
1.0
176
     1
 90
        0
176
     1
 62
    18
420
        0
176
     1
 90
       50
176
     1
 90
        3
176
     1
 62
     5
420
      255
176
     1
290
     0
176
     1
 90
       50
176
     1
 90
       50
176
     1
 90
       50
176
     1
290
     0
176
     1
 90
       50
176
     1
 62
   256
176
     0
 40
1.0
176
     0
 90
        2
176
     1
  1
strokes_ogs.tif
176
     1
290
     0
176
     1
 40
1.0
176
     1
 40
1.0
176
     1
  0
VISUALSTYLE
  5
A6
102
{ACAD_REACTORS
330
82
102
}
330
82
100
AcDbVisualStyle
  2
Hidden
 70
     6
177
     3
291
     0
 70
    58
 90
        1
176
     1
 90
        2
176
     1
 90
        2
176
     1
 90
        0
176
     1
 40
0.6
176
     1
 40
30.0
176
     1
 62
     7
420
 16777215
176
     1
 90
        2
176
     1
 90
        2
176
     1
 62
     7
176
     1
 62
   257
176
     1
 90
        2
176
     1
 90
        1
176
     1
 40
40.0
176
     1
 90
        0
176
     1
 62
   257
176
     1
 40
1.0
176
     1
 90
        1
176
     1
 90
        6
176
     1
 90
        2
176
     1
 62
     7
176
     1
 90
        3
176
     1
 90
        0
176
     1
 90
        0
176
     1
290
     0
176
     1
 90
        1
176
     1
 40
0.0
176
     1
 90
        0
176
     1
290
     0
176
     1
290
     1
176
     1
290
     1
176
     1
290
     0
176
     1
290
     0
176
     1
290
     0
176
     1
290
     0
176
     1
290
     0
176
     1
290
     0
176
     1
 90
       50
176
     1
 40
0.0
176
     1
 40
1.0
176
     1
 90
        0
176
     1
 62
    18
420
        0
176
     1
 90
       50
176
     1
 90
        3
176
     1
 62
     5
420
      255
176
     1
290
     0
176
     1
 90
       50
176
     1
 90
       50
176
     1
 90
       50
176
     1
290
     0
176
     1
 90
       50
176
     1
 62
   256
176
     0
 40
1.0
176
     0
 90
        2
176
     1
  1
strokes_ogs.tif
176
     1
290
     0
176
     1
 40
1.0
176
     1
 40
1.0
176
     1
  0
VISUALSTYLE
  5
AC
102
{ACAD_REACTORS
330
82
102
}
330
82
100
AcDbVisualStyle
  2
JitterOff
 70
    20
177
     3
291
     1
 70
    58
 90
        2
176
     0
 90
        2
176
     0
 90
        0
176
     0
 90
        0
176
     0
 40
0.6
176
     0
 40
30.0
176
     0
 62
     7
420
 16777215
176
     0
 90
        1
176
     0
 90
        4
176
     0
 62
     7
176
     0
 62
   257
176
     0
 90
        1
176
     0
 90
        1
176
     0
 40
1.0
176
     0
 90
       10
176
     2
 62
     7
176
     0
 40
1.0
176
     0
 90
        1
176
     0
 90
        6
176
     0
 90
        2
176
     0
 62
     7
176
     0
 90
        5
176
     0
 90
        0
176
     0
 90
        0
176
     0
290
     0
176
     0
 90
        1
176
     0
 40
0.0
176
     0
 90
        0
176
     0
290
     0
176
     0
290
     1
176
     0
290
     1
176
     0
290
     0
176
     0
290
     0
176
     0
290
     0
176
     0
290
     0
176
     0
290
     0
176
     0
290
     0
176
     0
 90
       50
176
     0
 40
0.0
176
     0
 40
1.0
176
     0
 90
        0
176
     0
 62
    18
420
        0
176
     0
 90
       50
176
     0
 90
        3
176
     0
 62
     5
420
      255
176
     0
290
     0
176
     0
 90
       50
176
     0
 90
       50
176
     0
 90
       50
176
     0
290
     0
176
     0
 90
       50
176
     0
 62
   256
176
     0
 40
1.0
176
     0
 90
        2
176
     0
  1
strokes_ogs.tif
176
     0
290
     0
176
     0
 40
1.0
176
     0
 40
1.0
176
     0
  0
VISUALSTYLE
  5
90
102
{ACAD_REACTORS
330
82
102
}
330
82
100
AcDbVisualStyle
  2
Linepattern
 70
    14
177
     3
291
     1
 70
    58
 90
        2
176
     1
 90
        2
176
     1
 90
        1
176
     1
 90
        0
176
     1
 40
0.6
176
     1
 40
30.0
176
     1
 62
     7
420
 16777215
176
     1
 90
        1
176
     1
 90
        4
176
     1
 62
     7
176
     1
 62
   257
176
     1
 90
        7
176
     1
 90
        7
176
     1
 40
1.0
176
     1
 90
        8
176
     1
 62
     7
176
     1
 40
1.0
176
     1
 90
        1
176
     1
 90
        6
176
     1
 90
        2
176
     1
 62
     7
176
     1
 90
        5
176
     1
 90
        0
176
     1
 90
        0
176
     1
290
     0
176
     1
 90
        1
176
     1
 40
0.0
176
     1
 90
        0
176
     1
290
     0
176
     1
290
     1
176
     1
290
     1
176
     1
290
     0
176
     1
290
     0
176
     1
290
     0
176
     1
290
     0
176
     1
290
     0
176
     1
290
     0
176
     1
 90
       50
176
     1
 40
0.0
176
     1
 40
1.0
176
     1
 90
        0
176
     1
 62
    18
420
        0
176
     1
 90
       50
176
     1
 90
        3
176
     1
 62
     5
420
      255
176
     1
290
     0
176
     1
 90
       50
176
     1
 90
       50
176
     1
 90
       50
176
     1
290
     0
176
     1
 90
       50
176
     1
 62
   256
176
     0
 40
1.0
176
     0
 90
        2
176
     1
  1
strokes_ogs.tif
176
     1
290
     0
176
     1
 40
1.0
176
     1
 40
1.0
176
     1
  0
VISUALSTYLE
  5
AD
102
{ACAD_REACTORS
330
82
102
}
330
82
100
AcDbVisualStyle
  2
OverhangOff
 70
    21
177
     3
291
     1
 70
    58
 90
        2
176
     0
 90
        2
176
     0
 90
        0
176
     0
 90
        0
176
     0
 40
0.6
176
     0
 40
30.0
176
     0
 62
     7
420
 16777215
176
     0
 90
        1
176
     0
 90
        4
176
     0
 62
     7
176
     0
 62
   257
176
     0
 90
        1
176
     0
 90
        1
176
     0
 40
1.0
176
     0
 90
        9
176
     2
 62
     7
176
     0
 40
1.0
176
     0
 90
        1
176
     0
 90
        6
176
     0
 90
        2
176
     0
 62
     7
176
     0
 90
        5
176
     0
 90
        0
176
     0
 90
        0
176
     0
290
     0
176
     0
 90
        1
176
     0
 40
0.0
176
     0
 90
        0
176
     0
290
     0
176
     0
290
     1
176
     0
290
     1
176
     0
290
     0
176
     0
290
     0
176
     0
290
     0
176
     0
290
     0
176
     0
290
     0
176
     0
290
     0
176
     0
 90
       50
176
     0
 40
0.0
176
     0
 40
1.0
176
     0
 90
        0
176
     0
 62
    18
420
        0
176
     0
 90
       50
176
     0
 90
        3
176
     0
 62
     5
420
      255
176
     0
290
     0
176
     0
 90
       50
176
     0
 90
       50
176
     0
 90
       50
176
     0
290
     0
176
     0
 90
       50
176
     0
 62
   256
176
     0
 40
1.0
176
     0
 90
        2
176
     0
  1
strokes_ogs.tif
176
     0
290
     0
176
     0
 40
1.0
176
     0
 40
1.0
176
     0
  0
VISUALSTYLE
  5
8C
102
{ACAD_REACTORS
330
82
102
}
330
82
100
AcDbVisualStyle
  2
Realistic
 70
     8
177
     3
291
     0
 70
    58
 90
        2
176
     1
 90
        2
176
     1
 90
        1
176
     1
 90
        0
176
     1
 40
0.6
176
     1
 40
30.0
176
     1
 62
     7
420
 16777215
176
     1
 90
        1
176
     1
 90
        0
176
     1
 62
     7
176
     1
 62
   257
176
     1
 90
        1
176
     1
 90
        1
176
     1
 40
1.0
176
     1
 90
        8
176
     1
 62
     7
176
     1
 40
1.0
176
     1
 90
        1
176
     1
 90
        6
176
     1
 90
        2
176
     1
 62
     7
176
     1
 90
        5
176
     1
 90
        0
176
     1
 90
        0
176
     1
290
     0
176
     1
 90
       13
176
     1
 40
0.0
176
     1
 90
        0
176
     1
290
     0
176
     1
290
     1
176
     1
290
     1
176
     1
290
     0
176
     1
290
     0
176
     1
290
     0
176
     1
290
     0
176
     1
290
     0
176
     1
290
     0
176
     1
 90
       50
176
     1
 40
0.0
176
     1
 40
1.0
176
     1
 90
        0
176
     1
 62
    18
420
        0
176
     1
 90
       50
176
     1
 90
        3
176
     1
 62
     5
420
      255
176
     1
290
     0
176
     1
 90
       50
176
     1
 90
       50
176
     1
 90
       50
176
     1
290
     0
176
     1
 90
       50
176
     1
 62
   256
176
     0
 40
1.0
176
     0
 90
        2
176
     1
  1
strokes_ogs.tif
176
     1
290
     0
176
     1
 40
1.0
176
     1
 40
1.0
176
     1
  0
VISUALSTYLE
  5
AB
102
{ACAD_REACTORS
330
82
102
}
330
82
100
AcDbVisualStyle
  2
Shaded
 70
    27
177
     3
291
     0
 70
    58
 90
        2
176
     1
 90
        2
176
     1
 90
        1
176
     1
 90
        2
176
     1
 40
0.6
176
     1
 40
30.0
176
     1
 62
     7
420
 16777215
176
     1
 90
        0
176
     1
 90
        4
176
     1
 62
     7
176
     1
 62
   257
176
     1
 90
        1
176
     1
 90
        1
176
     1
 40
1.0
176
     1
 90
        8
176
     1
 62
   257
176
     1
 40
1.0
176
     1
 90
        1
176
     1
 90
        6
176
     1
 90
        2
176
     1
 62
     8
420
  7895160
176
     1
 90
        3
176
     1
 90
        0
176
     1
 90
        0
176
     1
290
     0
176
     1
 90
        5
176
     1
 40
0.0
176
     1
 90
        0
176
     1
290
     0
176
     1
290
     1
176
     1
290
     1
176
     1
290
     0
176
     1
290
     0
176
     1
290
     0
176
     1
290
     0
176
     1
290
     0
176
     1
290
     0
176
     1
 90
       50
176
     1
 40
0.0
176
     1
 40
1.0
176
     1
 90
        0
176
     1
 62
    18
420
        0
176
     1
 90
       50
176
     1
 90
        3
176
     1
 62
     5
420
      255
176
     1
290
     0
176
     1
 90
       50
176
     1
 90
       50
176
     1
 90
       50
176
     1
290
     0
176
     1
 90
       50
176
     1
 62
   256
176
     0
 40
1.0
176
     0
 90
        2
176
     1
  1
strokes_ogs.tif
176
     1
290
     0
176
     1
 40
1.0
176
     1
 40
1.0
176
     1
  0
VISUALSTYLE
  5
AA
102
{ACAD_REACTORS
330
82
102
}
330
82
100
AcDbVisualStyle
  2
Shaded with edges
 70
    26
177
     3
291
     0
 70
    58
 90
        2
176
     1
 90
        2
176
     1
 90
        1
176
     1
 90
        2
176
     1
 40
0.6
176
     1
 40
30.0
176
     1
 62
     7
420
 16777215
176
     1
 90
        1
176
     1
 90
        2
176
     1
 62
     7
176
     1
 62
   257
176
     1
 90
        2
176
     1
 90
        1
176
     1
 40
1.0
176
     1
 90
        8
176
     1
 62
   257
176
     1
 40
1.0
176
     1
 90
        1
176
     1
 90
        6
176
     1
 90
        2
176
     1
 62
     7
176
     1
 90
        3
176
     1
 90
        0
176
     1
 90
        0
176
     1
290
     0
176
     1
 90
        5
176
     1
 40
0.0
176
     1
 90
        0
176
     1
290
     0
176
     1
290
     1
176
     1
290
     1
176
     1
290
     0
176
     1
290
     0
176
     1
290
     0
176
     1
290
     0
176
     1
290
     0
176
     1
290
     0
176
     1
 90
       50
176
     1
 40
0.0
176
     1
 40
1.0
176
     1
 90
        0
176
     1
 62
    18
420
        0
176
     1
 90
       50
176
     1
 90
        3
176
     1
 62
     5
420
      255
176
     1
290
     0
176
     1
 90
       50
176
     1
 90
       50
176
     1
 90
       50
176
     1
290
     0
176
     1
 90
       50
176
     1
 62
   256
176
     0
 40
1.0
176
     0
 90
        2
176
     1
  1
strokes_ogs.tif
176
     1
290
     0
176
     1
 40
1.0
176
     1
 40
1.0
176
     1
  0
VISUALSTYLE
  5
A7
102
{ACAD_REACTORS
330
82
102
}
330
82
100
AcDbVisualStyle
  2
Shades of Gray
 70
    23
177
     3
291
     0
 70
    58
 90
        2
176
     1
 90
        2
176
     1
 90
        3
176
     1
 90
        0
176
     1
 40
0.6
176
     1
 40
30.0
176
     1
 62
     7
420
 16777215
176
     1
 90
        2
176
     1
 90
        2
176
     1
 62
     7
176
     1
 62
     7
176
     1
 90
        1
176
     1
 90
        1
176
     1
 40
40.0
176
     1
 90
        8
176
     1
 62
     7
176
     1
 40
1.0
176
     1
 90
        1
176
     1
 90
        6
176
     1
 90
        2
176
     1
 62
     7
176
     1
 90
        3
176
     1
 90
        0
176
     1
 90
        0
176
     1
290
     0
176
     1
 90
        1
176
     1
 40
0.0
176
     1
 90
        0
176
     1
290
     0
176
     1
290
     1
176
     1
290
     1
176
     1
290
     0
176
     1
290
     0
176
     1
290
     0
176
     1
290
     0
176
     1
290
     0
176
     1
290
     0
176
     1
 90
       50
176
     1
 40
0.0
176
     1
 40
1.0
176
     1
 90
        0
176
     1
 62
    18
420
        0
176
     1
 90
       50
176
     1
 90
        3
176
     1
 62
     5
420
      255
176
     1
290
     0
176
     1
 90
       50
176
     1
 90
       50
176
     1
 90
       50
176
     1
290
     0
176
     1
 90
       50
176
     1
 62
   256
176
     0
 40
1.0
176
     0
 90
        2
176
     1
  1
strokes_ogs.tif
176
     1
290
     0
176
     1
 40
1.0
176
     1
 40
1.0
176
     1
  0
VISUALSTYLE
  5
A8
102
{ACAD_REACTORS
330
82
102
}
330
82
100
AcDbVisualStyle
  2
Sketchy
 70
    24
177
     3
291
     0
 70
    58
 90
        1
176
     1
 90
        2
176
     1
 90
        2
176
     1
 90
        0
176
     1
 40
0.6
176
     1
 40
30.0
176
     1
 62
     7
420
 16777215
176
     1
 90
        2
176
     1
 90
        2
176
     1
 62
     7
176
     1
 62
     7
176
     1
 90
        1
176
     1
 90
        1
176
     1
 40
40.0
176
     1
 90
       11
176
     1
 62
     7
176
     1
 40
1.0
176
     1
 90
        1
176
     1
 90
        6
176
     1
 90
        2
176
     1
 62
     7
176
     1
 90
        6
176
     1
 90
        0
176
     1
 90
        0
176
     1
290
     0
176
     1
 90
        1
176
     1
 40
0.0
176
     1
 90
        0
176
     1
290
     0
176
     1
290
     1
176
     1
290
     1
176
     1
290
     0
176
     1
290
     0
176
     1
290
     0
176
     1
290
     0
176
     1
290
     0
176
     1
290
     0
176
     1
 90
       50
176
     1
 40
0.0
176
     1
 40
1.0
176
     1
 90
        0
176
     1
 62
    18
420
        0
176
     1
 90
       50
176
     1
 90
        3
176
     1
 62
     5
420
      255
176
     1
290
     0
176
     1
 90
       50
176
     1
 90
       50
176
     1
 90
       50
176
     1
290
     0
176
     1
 90
       50
176
     1
 62
   256
176
     0
 40
1.0
176
     0
 90
        2
176
     1
  1
strokes_ogs.tif
176
     1
290
     0
176
     1
 40
1.0
176
     1
 40
1.0
176
     1
  0
VISUALSTYLE
  5
8F
102
{ACAD_REACTORS
330
82
102
}
330
82
100
AcDbVisualStyle
  2
Thicken
 70
    13
177
     3
291
     1
 70
    58
 90
        2
176
     1
 90
        2
176
     1
 90
        1
176
     1
 90
        0
176
     1
 40
0.6
176
     1
 40
30.0
176
     1
 62
     7
420
 16777215
176
     1
 90
        1
176
     1
 90
        4
176
     1
 62
     7
176
     1
 62
   257
176
     1
 90
        1
176
     1
 90
        1
176
     1
 40
1.0
176
     1
 90
       12
176
     1
 62
     7
176
     1
 40
1.0
176
     1
 90
        1
176
     1
 90
        6
176
     1
 90
        2
176
     1
 62
     7
176
     1
 90
        5
176
     1
 90
        0
176
     1
 90
        0
176
     1
290
     0
176
     1
 90
        1
176
     1
 40
0.0
176
     1
 90
        0
176
     1
290
     0
176
     1
290
     1
176
     1
290
     1
176
     1
290
     0
176
     1
290
     0
176
     1
290
     0
176
     1
290
     0
176
     1
290
     0
176
     1
290
     0
176
     1
 90
       50
176
     1
 40
0.0
176
     1
 40
1.0
176
     1
 90
        0
176
     1
 62
    18
420
        0
176
     1
 90
       50
176
     1
 90
        3
176
     1
 62
     5
420
      255
176
     1
290
     0
176
     1
 90
       50
176
     1
 90
       50
176
     1
 90
       50
176
     1
290
     0
176
     1
 90
       50
176
     1
 62
   256
176
     0
 40
1.0
176
     0
 90
        2
176
     1
  1
strokes_ogs.tif
176
     1
290
     0
176
     1
 40
1.0
176
     1
 40
1.0
176
     1
  0
VISUALSTYLE
  5
A5
102
{ACAD_REACTORS
330
82
102
}
330
82
100
AcDbVisualStyle
  2
Wireframe
 70
     5
177
     3
291
     0
 70
    58
 90
        0
176
     1
 90
        2
176
     1
 90
        0
176
     1
 90
        0
176
     1
 40
0.6
176
     1
 40
30.0
176
     1
 62
     7
420
 16777215
176
     1
 90
        1
176
     1
 90
        4
176
     1
 62
     7
176
     1
 62
   257
176
     1
 90
        1
176
     1
 90
        1
176
     1
 40
1.0
176
     1
 90
        0
176
     1
 62
   257
176
     1
 40
1.0
176
     1
 90
        1
176
     1
 90
        6
176
     1
 90
        2
176
     1
 62
     7
176
     1
 90
        3
176
     1
 90
        0
176
     1
 90
        0
176
     1
290
     0
176
     1
 90
        1
176
     1
 40
0.0
176
     1
 90
        0
176
     1
290
     0
176
     1
290
     1
176
     1
290
     1
176
     1
290
     0
176
     1
290
     0
176
     1
290
     0
176
     1
290
     0
176
     1
290
     0
176
     1
290
     0
176
     1
 90
       50
176
     1
 40
0.0
176
     1
 40
1.0
176
     1
 90
        0
176
     1
 62
    18
420
        0
176
     1
 90
       50
176
     1
 90
        3
176
     1
 62
     5
420
      255
176
     1
290
     0
176
     1
 90
       50
176
     1
 90
       50
176
     1
 90
       50
176
     1
290
     0
176
     1
 90
       50
176
     1
 62
   256
176
     0
 40
1.0
176
     0
 90
        2
176
     1
  1
strokes_ogs.tif
176
     1
290
     0
176
     1
 40
1.0
176
     1
 40
1.0
176
     1
  0
VISUALSTYLE
  5
A9
102
{ACAD_REACTORS
330
82
102
}
330
82
100
AcDbVisualStyle
  2
X-Ray
 70
    25
177
     3
291
     0
 70
    58
 90
        2
176
     1
 90
        2
176
     1
 90
        1
176
     1
 90
        1
176
     1
 40
0.5
176
     1
 40
30.0
176
     1
 62
     7
420
 16777215
176
     1
 90
        1
176
     1
 90
        0
176
     1
 62
     7
176
     1
 62
   257
176
     1
 90
        1
176
     1
 90
        1
176
     1
 40
1.0
176
     1
 90
        8
176
     1
 62
     7
176
     1
 40
1.0
176
     1
 90
        1
176
     1
 90
        6
176
     1
 90
        2
176
     1
 62
     7
176
     1
 90
        3
176
     1
 90
        0
176
     1
 90
        0
176
     1
290
     0
176
     1
 90
       13
176
     1
 40
0.0
176
     1
 90
        0
176
     1
290
     0
176
     1
290
     1
176
     1
290
     1
176
     1
290
     0
176
     1
290
     0
176
     1
290
     0
176
     1
290
     0
176
     1
290
     0
176
     1
290
     0
176
     1
 90
       50
176
     1
 40
0.0
176
     1
 40
1.0
176
     1
 90
        0
176
     1
 62
    18
420
        0
176
     1
 90
       50
176
     1
 90
        3
176
     1
 62
     5
420
      255
176
     1
290
     0
176
     1
 90
       50
176
     1
 90
       50
176
     1
 90
       50
176
     1
290
     0
176
     1
 90
       50
176
     1
 62
   256
176
     0
 40
1.0
176
     0
 90
        2
176
     1
  1
strokes_ogs.tif
176
     1
290
     0
176
     1
 40
1.0
176
     1
 40
1.0
176
     1
  0
DICTIONARYVAR
  5
245
102
{ACAD_REACTORS
330
9B
102
}
330
9B
100
DictionaryVariables
280
     0
  1
1:1
  0
DICTIONARYVAR
  5
241
102
{ACAD_REACTORS
330
9B
102
}
330
9B
100
DictionaryVariables
280
     0
  1
STANDARD
  0
DICTIONARYVAR
  5
9C
102
{ACAD_REACTORS
330
9B
102
}
330
9B
100
DictionaryVariables
280
     0
  1
STANDARD
  0
DICTIONARYVAR
  5
242
102
{ACAD_REACTORS
330
9B
102
}
330
9B
100
DictionaryVariables
280
     0
  1
Imperial24
  0
DICTIONARYVAR
  5
243
102
{ACAD_REACTORS
330
9B
102
}
330
9B
100
DictionaryVariables
280
     0
  1
Imperial24
  0
DICTIONARYVAR
  5
247
102
{ACAD_REACTORS
330
9B
102
}
330
9B
100
DictionaryVariables
280
     0
  1
1
  0
DICTIONARYVAR
  5
248
102
{ACAD_REACTORS
330
9B
102
}
330
9B
100
DictionaryVariables
280
     0
  1
15
  0
DICTIONARYVAR
  5
246
102
{ACAD_REACTORS
330
9B
102
}
330
9B
100
DictionaryVariables
280
     0
  1
0
  0
DICTIONARYVAR
  5
244
102
{ACAD_REACTORS
330
9B
102
}
330
9B
100
DictionaryVariables
280
     0
  1
0
  0
DICTIONARY
  5
24D
330
C6
100
AcDbDictionary
280
     1
281
     1
  3
ACAD_XREC_ROUNDTRIP
360
24E
  0
DICTIONARY
  5
24B
330
C4
100
AcDbDictionary
280
     1
281
     1
  3
ACAD_XREC_ROUNDTRIP
360
24C
  0
DICTIONARY
  5
249
330
94
100
AcDbDictionary
280
     1
281
     1
  3
ACAD_ROUNDTRIP_2008_TABLESTYLE_CELLSTYLEMAP
360
24A
  0
XRECORD
  5
24E
102
{ACAD_REACTORS
330
24D
102
}
330
24D
100
AcDbXrecord
280
     1
102
DISPLAYNAME
  1
Imperial24
102
FLAGS
 90
        0
  0
XRECORD
  5
24C
102
{ACAD_REACTORS
330
24B
102
}
330
24B
100
AcDbXrecord
280
     1
102
DISPLAYNAME
  1
Imperial24
102
FLAGS
 90
        0
  0
CELLSTYLEMAP
  5
24A
102
{ACAD_REACTORS
330
249
102
}
330
249
100
AcDbCellStyleMap
 90
        3
300
CELLSTYLE
  1
TABLEFORMAT_BEGIN
 90
        5
170
     1
 91
        0
 92
    32768
 62
   257
 93
        1
300
CONTENTFORMAT
  1
CONTENTFORMAT_BEGIN
 90
        0
 91
        0
 92
      512
 93
        0
300

 40
0.0
140
1.0
 94
        5
 62
     0
340
12
144
0.25
309
CONTENTFORMAT_END
171
     0
 94
        6
 95
        1
302
GRIDFORMAT
  1
GRIDFORMAT_BEGIN
 90
        0
 91
        1
 62
     0
 92
       -2
340
0
 93
        0
 40
0.045
309
GRIDFORMAT_END
 95
        2
302
GRIDFORMAT
  1
GRIDFORMAT_BEGIN
 90
        0
 91
        1
 62
     0
 92
       -2
340
0
 93
        0
 40
0.045
309
GRIDFORMAT_END
 95
        4
302
GRIDFORMAT
  1
GRIDFORMAT_BEGIN
 90
        0
 91
        1
 62
     0
 92
       -2
340
0
 93
        0
 40
0.045
309
GRIDFORMAT_END
 95
        8
302
GRIDFORMAT
  1
GRIDFORMAT_BEGIN
 90
        0
 91
        1
 62
     0
 92
       -2
340
0
 93
        0
 40
0.045
309
GRIDFORMAT_END
 95
       16
302
GRIDFORMAT
  1
GRIDFORMAT_BEGIN
 90
        0
 91
        1
 62
     0
 92
       -2
340
0
 93
        0
 40
0.045
309
GRIDFORMAT_END
 95
       32
302
GRIDFORMAT
  1
GRIDFORMAT_BEGIN
 90
        0
 91
        1
 62
     0
 92
       -2
340
0
 93
        0
 40
0.045
309
GRIDFORMAT_END
309
TABLEFORMAT_END
  1
CELLSTYLE_BEGIN
 90
        1
 91
        1
300
_TITLE
309
CELLSTYLE_END
300
CELLSTYLE
  1
TABLEFORMAT_BEGIN
 90
        5
170
     1
 91
        0
 92
        0
 62
   257
 93
        1
300
CONTENTFORMAT
  1
CONTENTFORMAT_BEGIN
 90
        0
 91
        0
 92
      512
 93
        0
300

 40
0.0
140
1.0
 94
        5
 62
     0
340
12
144
0.18
309
CONTENTFORMAT_END
171
     0
 94
        6
 95
        1
302
GRIDFORMAT
  1
GRIDFORMAT_BEGIN
 90
        0
 91
        1
 62
     0
 92
       -2
340
0
 93
        0
 40
0.045
309
GRIDFORMAT_END
 95
        2
302
GRIDFORMAT
  1
GRIDFORMAT_BEGIN
 90
        0
 91
        1
 62
     0
 92
       -2
340
0
 93
        0
 40
0.045
309
GRIDFORMAT_END
 95
        4
302
GRIDFORMAT
  1
GRIDFORMAT_BEGIN
 90
        0
 91
        1
 62
     0
 92
       -2
340
0
 93
        0
 40
0.045
309
GRIDFORMAT_END
 95
        8
302
GRIDFORMAT
  1
GRIDFORMAT_BEGIN
 90
        0
 91
        1
 62
     0
 92
       -2
340
0
 93
        0
 40
0.045
309
GRIDFORMAT_END
 95
       16
302
GRIDFORMAT
  1
GRIDFORMAT_BEGIN
 90
        0
 91
        1
 62
     0
 92
       -2
340
0
 93
        0
 40
0.045
309
GRIDFORMAT_END
 95
       32
302
GRIDFORMAT
  1
GRIDFORMAT_BEGIN
 90
        0
 91
        1
 62
     0
 92
       -2
340
0
 93
        0
 40
0.045
309
GRIDFORMAT_END
309
TABLEFORMAT_END
  1
CELLSTYLE_BEGIN
 90
        2
 91
        1
300
_HEADER
309
CELLSTYLE_END
300
CELLSTYLE
  1
TABLEFORMAT_BEGIN
 90
        5
170
     1
 91
        0
 92
        0
 62
   257
 93
        1
300
CONTENTFORMAT
  1
CONTENTFORMAT_BEGIN
 90
        0
 91
        0
 92
      512
 93
        0
300

 40
0.0
140
1.0
 94
        2
 62
     0
340
12
144
0.18
309
CONTENTFORMAT_END
171
     0
 94
        6
 95
        1
302
GRIDFORMAT
  1
GRIDFORMAT_BEGIN
 90
        0
 91
        1
 62
     0
 92
       -2
340
0
 93
        0
 40
0.045
309
GRIDFORMAT_END
 95
        2
302
GRIDFORMAT
  1
GRIDFORMAT_BEGIN
 90
        0
 91
        1
 62
     0
 92
       -2
340
0
 93
        0
 40
0.045
309
GRIDFORMAT_END
 95
        4
302
GRIDFORMAT
  1
GRIDFORMAT_BEGIN
 90
        0
 91
        1
 62
     0
 92
       -2
340
0
 93
        0
 40
0.045
309
GRIDFORMAT_END
 95
        8
302
GRIDFORMAT
  1
GRIDFORMAT_BEGIN
 90
        0
 91
        1
 62
     0
 92
       -2
340
0
 93
        0
 40
0.045
309
GRIDFORMAT_END
 95
       16
302
GRIDFORMAT
  1
GRIDFORMAT_BEGIN
 90
        0
 91
        1
 62
     0
 92
       -2
340
0
 93
        0
 40
0.045
309
GRIDFORMAT_END
 95
       32
302
GRIDFORMAT
  1
GRIDFORMAT_BEGIN
 90
        0
 91
        1
 62
     0
 92
       -2
340
0
 93
        0
 40
0.045
309
GRIDFORMAT_END
309
TABLEFORMAT_END
  1
CELLSTYLE_BEGIN
 90
        3
 91
        2
300
_DATA
309
CELLSTYLE_END
  0
ENDSEC
  0
EOF
