  0
SECTION
  2
HEADER
  9
$ACADVER
  1
AC1009
  9
$ANGBASE
 50
       0.000000
  9
$ANGDIR
 70
     0
  9
$ATTDIA
 70
     0
  9
$ATTMODE
 70
     0
  9
$ATTREQ
 70
     0
  9
$AUNITS
 70
     0
  9
$AUPREC
 70
     1
  9
$BLIPMODE
 70
     1
  9
$CECOLOR
 62
   256
  9
$CELTYPE
  6
BYLAYER
  9
$CHAMFERA
 40
       0.000000
  9
$CHAMFERB
 40
       0.000000
  9
$CLAYER
  8
0
  9
$COORDS
 70
     1
  9
$DIMALT
 70
     0
  9
$DIMALTD
 70
     2
  9
$DIMALTF
 40
      25.400000
  9
$DIMAPOST
  1

  9
$DIMASO
 70
     0
  9
$DIMASZ
 40
       3.500000
  9
$DIMBLK
  1

  9
$DIMBLK1
  1

  9
$DIMBLK2
  1

  9
$DIMCEN
 40
       1.500000
  9
$DIMCLRD
 70
     0
  9
$DIMCLRE
 70
     0
  9
$DIMCLRT
 70
     0
  9
$DIMDLE
 40
       0.000000
  9
$DIMDLI
 40
       7.000000
  9
$DIMEXE
 40
       1.800000
  9
$DIMEXO
 40
       0.100000
  9
$DIMGAP
 40
       0.090000
  9
$DIMLFAC
 40
       1.000000
  9
$DIMLIM
 70
     0
  9
$DIMPOST
  1

  9
$DIMRND
 40
       0.000000
  9
$DIMSAH
 70
     0
  9
$DIMSCALE
 40
       1.000000
  9
$DIMSE1
 70
     0
  9
$DIMSE2
 70
     0
  9
$DIMSHO
 70
     1
  9
$DIMSOXD
 70
     0
  9
$DIMSTYLE
  2
*UNNAMED
  9
$DIMTAD
 70
     1
  9
$DIMTFAC
 40
       1.000000
  9
$DIMTIH
 70
     0
  9
$DIMTIX
 70
     0
  9
$DIMTM
 40
       0.000000
  9
$DIMTOFL
 70
     0
  9
$DIMTOH
 70
     0
  9
$DIMTOL
 70
     0
  9
$DIMTP
 40
       0.000000
  9
$DIMTSZ
 40
       0.000000
  9
$DIMTVP
 40
       0.000000
  9
$DIMTXT
 40
       3.500000
  9
$DIMZIN
 70
     0
  9
$DRAGMODE
 70
     2
  9
$DWGCODEPAGE
  3
iso8859-1
  9
$ELEVATION
 40
       0.000000
  9
$EXTMAX
 10
    3328.599609
 20
    2126.697754
 30
       0.000000
  9
$EXTMIN
 10
       0.000000
 20
       0.000000
 30
       0.000000
  9
$FILLETRAD
 40
       0.000000
  9
$FILLMODE
 70
     1
  9
$HANDLING
 70
     0
  9
$HANDSEED
  5
0
  9
$INSBASE
 10
       0.000000
 20
       0.000000
 30
       0.000000
  9
$LIMCHECK
 70
     0
  9
$LIMMAX
 10
    3328.599609
 20
    2126.697754
  9
$LIMMIN
 10
       0.000000
 20
       0.000000
  9
$LTSCALE
 40
       1.000000
  9
$LUNITS
 70
     2
  9
$LUPREC
 70
     2
  9
$MAXACTVP
 70
    16
  9
$MENU
  1
ACAD
  9
$MIRRTEXT
 70
     0
  9
$ORTHOMODE
 70
     0
  9
$OSMODE
 70
     0
  9
$PDMODE
 70
     0
  9
$PDSIZE
 40
       0.000000
  9
$PELEVATION
 40
       0.000000
  9
$PEXTMAX
 10
    3328.599609
 20
    2126.697754
 30
       0.000000
  9
$PEXTMIN
 10
       0.000000
 20
       0.000000
 30
       0.000000
  9
$PINSBASE
 10
       0.000000
 20
       0.000000
 30
       0.000000
  9
$PLIMCHECK
 70
     0
  9
$PLIMMAX
 10
    3328.599609
 20
    2126.697754
  9
$PLIMMIN
 10
       0.000000
 20
       0.000000
  9
$PLINEGEN
 70
     0
  9
$PLINEWID
 40
       0.000000
  9
$PSLTSCALE
 70
     1
  9
$PUCSNAME
  2

  9
$PUCSORG
 10
       0.000000
 20
       0.000000
 30
       0.000000
  9
$PUCSXDIR
 10
       1.000000
 20
       0.000000
 30
       0.000000
  9
$PUCSYDIR
 10
       0.000000
 20
       1.000000
 30
       0.000000
  9
$QTEXTMODE
 70
     0
  9
$REGENMODE
 70
     1
  9
$SHADEDGE
 70
     3
  9
$SHADEDIF
 70
    70
  9
$SKETCHINC
 40
       1.000000
  9
$SKPOLY
 70
     0
  9
$SPLFRAME
 70
     0
  9
$SPLINESEGS
 70
     8
  9
$SPLINETYPE
 70
     6
  9
$SURFTAB1
 70
     6
  9
$SURFTAB2
 70
     6
  9
$SURFTYPE
 70
     6
  9
$SURFU
 70
     6
  9
$SURFV
 70
     6
  9
$TDCREATE
 40
2456344.7340277778
  9
$TDINDWG
 40
       0.000000
  9
$TDUPDATE
 40
2456344.7340277778
  9
$TDUSRTIMER
 40
       0.000000
  9
$TEXTSIZE
 40
       3.500000
  9
$TEXTSTYLE
  7
STANDARD
  9
$THICKNESS
 40
       0.000000
  9
$TILEMODE
 70
     1
  9
$TRACEWID
 40
       1.000000
  9
$TREEDEPTH
 70
 -3020
  9
$UCSNAME
  2

  9
$UCSORG
 10
       0.000000
 20
       0.000000
 30
       0.000000
  9
$UCSXDIR
 10
       1.000000
 20
       0.000000
 30
       0.000000
  9
$UCSYDIR
 10
       0.000000
 20
       1.000000
 30
       0.000000
  9
$UNITMODE
 70
     0
  9
$USERI1
 70
     0
  9
$USERI2
 70
     0
  9
$USERI3
 70
     0
  9
$USERI4
 70
     0
  9
$USERI5
 70
     0
  9
$USERR1
 40
       0.000000
  9
$USERR2
 40
       0.000000
  9
$USERR3
 40
       0.000000
  9
$USERR4
 40
       0.000000
  9
$USERR5
 40
       0.000000
  9
$USRTIMER
 70
     0
  9
$VISRETAIN
 70
     0
  9
$WORLDVIEW
 70
     1
  0
ENDSEC
  0
SECTION
  2
TABLES
  0
TABLE
  2
LTYPE
 70
   160
  0
LTYPE
  2
AUSGEZOGEN
 70
     0
  3
________________________________
 72
    65
 73
     2
 40
16.
 49
16.
 49
0.
  0
LTYPE
  2
VERDECKTE_KANTE
 70
     0
  3
__________________________
 72
    65
 73
     2
 40
5.
 49
4.063
 49
-0.938
  0
LTYPE
  2
HILFSLINIE
 70
     0
  3
________________________________
 72
    65
 73
     2
 40
16.
 49
16.
 49
0.
  0
LTYPE
  2
BRUCHLINIE
 70
     0
  3
________________________________
 72
    65
 73
     2
 40
16.
 49
16.
 49
0.
  0
LTYPE
  2
MITTELLINIE
 70
     0
  3
_______________________   ___
 72
    65
 73
     4
 40
13.
 49
9.34
 49
-1.22
 49
1.22
 49
-1.22
  0
LTYPE
  2
SCHNITTLINIE
 70
     0
  3
_______________________   ___
 72
    65
 73
     4
 40
13.
 49
9.34
 49
-1.22
 49
1.22
 49
-1.22
  0
LTYPE
  2
SCHWERLINIE
 70
     0
  3
______________________  __  __
 72
    65
 73
     6
 40
15.
 49
10.31
 49
-0.94
 49
0.94
 49
-0.94
 49
0.94
 49
-0.94
  0
LTYPE
  2
ENTWURFSLINIE
 70
     0
  3
__      __      __      __
 72
    65
 73
     8
 40
16.
 49
1.
 49
-3.
 49
1.
 49
-3.
 49
1.
 49
-3.
 49
1.
 49
-3.
  0
LTYPE
  2
SONDERLINIE1
 70
     0
  3
________________________________
 72
    65
 73
     2
 40
16.
 49
16.
 49
0.
  0
LTYPE
  2
SONDERLINIE2
 70
     0
  3
______________________  __  __
 72
    65
 73
     6
 40
15.
 49
10.31
 49
-0.94
 49
0.94
 49
-0.94
 49
0.94
 49
-0.94
  0
LTYPE
  2
SONDERLINIE3
 70
     0
  3
__________________  __  __  __
 72
    65
 73
     8
 40
16.
 49
9.
 49
-1.
 49
1.
 49
-1.
 49
1.
 49
-1.
 49
1.
 49
-1.
  0
LTYPE
  2
SONDERLINIE4
 70
     0
  3
__________________  __  __  __
 72
    65
 73
     8
 40
16.
 49
9.
 49
-1.
 49
1.
 49
-1.
 49
1.
 49
-1.
 49
1.
 49
-1.
  0
LTYPE
  2
SONDERLINIE5
 70
     0
  3
______________  __  __  __  __
 72
    65
 73
    10
 40
16.
 49
7.
 49
-1.
 49
1.
 49
-1.
 49
1.
 49
-1.
 49
1.
 49
-1.
 49
1.
 49
-1.
  0
LTYPE
  2
SONDERLINIE6
 70
     0
  3
______________  __  __  __  __
 72
    65
 73
    10
 40
16.
 49
7.
 49
-1.
 49
1.
 49
-1.
 49
1.
 49
-1.
 49
1.
 49
-1.
 49
1.
 49
-1.
  0
LTYPE
  2
SONDERLINIE7
 70
     0
  3
__________  __  __  __  __  __
 72
    65
 73
    12
 40
16.
 49
5.
 49
-1.
 49
1.
 49
-1.
 49
1.
 49
-1.
 49
1.
 49
-1.
 49
1.
 49
-1.
 49
1.
 49
-1.
  0
LTYPE
  2
SONDERLINIE8
 70
     0
  3
__________  __  __  __  __  __
 72
    65
 73
    12
 40
16.
 49
5.
 49
-1.
 49
1.
 49
-1.
 49
1.
 49
-1.
 49
1.
 49
-1.
 49
1.
 49
-1.
 49
1.
 49
-1.
  0
LTYPE
  2
HEIZUNG-VORLAUF
 70
     0
  3
 
 72
    65
 73
     2
 40
16.
 49
16.
 49
0.
  0
LTYPE
  2
HEIZUNG-RUECKLAUF
 70
     0
  3
 
 72
    65
 73
     2
 40
5.
 49
4.063
 49
-0.938
  0
LTYPE
  2
TRINKWASSER-KALT
 70
     0
  3
 
 72
    65
 73
     2
 40
16.
 49
16.
 49
0.
  0
LTYPE
  2
TRINKWASSER-WARM
 70
     0
  3
 
 72
    65
 73
     2
 40
5.
 49
4.063
 49
-0.938
  0
LTYPE
  2
TRINKWASSER-ZIRKULATION
 70
     0
  3
 
 72
    65
 73
     4
 40
13.
 49
9.34
 49
-1.22
 49
1.22
 49
-1.22
  0
LTYPE
  2
SANITAER-SCHMUTZWASSER
 70
     0
  3
 
 72
    65
 73
     2
 40
16.
 49
16.
 49
0.
  0
LTYPE
  2
SANITAER-REGENWASSER
 70
     0
  3
 
 72
    65
 73
     2
 40
5.
 49
4.063
 49
-0.938
  0
LTYPE
  2
SANITAER-MISCHWASSER
 70
     0
  3
 
 72
    65
 73
     4
 40
13.
 49
9.34
 49
-1.22
 49
1.22
 49
-1.22
  0
LTYPE
  2
SANITAER-ENTLUEFTUNG
 70
     0
  3
 
 72
    65
 73
     2
 40
5.
 49
4.063
 49
-0.938
  0
LTYPE
  2
SPRINKLER
 70
     0
  3
 
 72
    65
 73
     2
 40
16.
 49
16.
 49
0.
  0
LTYPE
  2
WERKWASSER
 70
     0
  3
 
 72
    65
 73
     2
 40
16.
 49
16.
 49
0.
  0
LTYPE
  2
KUEHLWASSER-VL
 70
     0
  3
 
 72
    65
 73
     2
 40
16.
 49
16.
 49
0.
  0
LTYPE
  2
KUEHLWASSER-RL-D
 70
     0
  3
 
 72
    65
 73
     2
 40
5.
 49
4.063
 49
-0.938
  0
LTYPE
  2
KUEHLWASSER-RL-DI
 70
     0
  3
 
 72
    65
 73
     2
 40
5.
 49
4.063
 49
-0.938
  0
LTYPE
  2
KALTWASSER-KAELTEANL--VL
 70
     0
  3
 
 72
    65
 73
     2
 40
16.
 49
16.
 49
0.
  0
LTYPE
  2
KALTWASSER-KAELTEANL--RL
 70
     0
  3
 
 72
    65
 73
     2
 40
5.
 49
4.063
 49
-0.938
  0
LTYPE
  2
SCHLEIFEMULSION
 70
     0
  3
 
 72
    65
 73
     2
 40
16.
 49
16.
 49
0.
  0
LTYPE
  2
BOHREMULSION
 70
     0
  3
 
 72
    65
 73
     2
 40
16.
 49
16.
 49
0.
  0
LTYPE
  2
SCHNEIDEMULSION
 70
     0
  3
 
 72
    65
 73
     2
 40
16.
 49
16.
 49
0.
  0
LTYPE
  2
DRUCKLUFT-HAUPTNETZ
 70
     0
  3
 
 72
    65
 73
     2
 40
16.
 49
16.
 49
0.
  0
LTYPE
  2
DRUCKLUFT-HOCHDRUCKNETZ
 70
     0
  3
 
 72
    65
 73
     2
 40
16.
 49
16.
 49
0.
  0
LTYPE
  2
DRUCKLUFT-NIEDERDRUCKNETZ
 70
     0
  3
 
 72
    65
 73
     2
 40
16.
 49
16.
 49
0.
  0
LTYPE
  2
MISCHWASSER-DRUCK
 70
     0
  3
 
 72
    65
 73
     2
 40
16.
 49
16.
 49
0.
  0
LTYPE
  2
MISCHWASSER-KANAL
 70
     0
  3
 
 72
    65
 73
     2
 40
16.
 49
16.
 49
0.
  0
LTYPE
  2
OELHALTIGES-ABWASSER-DRUCK
 70
     0
  3
 
 72
    65
 73
     2
 40
16.
 49
16.
 49
0.
  0
LTYPE
  2
OELHALTIGES-ABWASSER-KANAL
 70
     0
  3
 
 72
    65
 73
     2
 40
16.
 49
16.
 49
0.
  0
LTYPE
  2
REGENWASSER-DRUCK
 70
     0
  3
 
 72
    65
 73
     2
 40
16.
 49
16.
 49
0.
  0
LTYPE
  2
REGENWASSER-KANAL
 70
     0
  3
 
 72
    65
 73
     2
 40
16.
 49
16.
 49
0.
  0
LTYPE
  2
SCHMUTZWASSER-DRUCK
 70
     0
  3
 
 72
    65
 73
     2
 40
16.
 49
16.
 49
0.
  0
LTYPE
  2
SCHMUTZWASSER-KANAL
 70
     0
  3
 
 72
    65
 73
     2
 40
16.
 49
16.
 49
0.
  0
LTYPE
  2
ALTEMULSION
 70
     0
  3
 
 72
    65
 73
     2
 40
16.
 49
16.
 49
0.
  0
LTYPE
  2
ALTWASCHWASSER
 70
     0
  3
 
 72
    65
 73
     2
 40
16.
 49
16.
 49
0.
  0
LTYPE
  2
CHROMHALTIGES-SPUELWASSER
 70
     0
  3
 
 72
    65
 73
     2
 40
16.
 49
16.
 49
0.
  0
LTYPE
  2
CYANIDHALTIGES-SPUELWASSER
 70
     0
  3
 
 72
    65
 73
     2
 40
16.
 49
16.
 49
0.
  0
LTYPE
  2
GEKLAERTES-ABWASSER
 70
     0
  3
 
 72
    65
 73
     2
 40
16.
 49
16.
 49
0.
  0
LTYPE
  2
NITRITHALTIGES-SPUELWASSER
 70
     0
  3
 
 72
    65
 73
     2
 40
16.
 49
16.
 49
0.
  0
LTYPE
  2
SAURES-ALKALISCHES-ELUAT
 70
     0
  3
 
 72
    65
 73
     2
 40
16.
 49
16.
 49
0.
  0
LTYPE
  2
SAURES-ALKALISCHES-SPUELWASSER
 70
     0
  3
 
 72
    65
 73
     2
 40
16.
 49
16.
 49
0.
  0
LTYPE
  2
AMIDASULFONSAEURE
 70
     0
  3
 
 72
    65
 73
     2
 40
16.
 49
16.
 49
0.
  0
LTYPE
  2
CHROMHALTIGES-KONZENTRAT
 70
     0
  3
 
 72
    65
 73
     2
 40
16.
 49
16.
 49
0.
  0
LTYPE
  2
CYANIDHALTIGES-KONZENTRAT
 70
     0
  3
 
 72
    65
 73
     2
 40
16.
 49
16.
 49
0.
  0
LTYPE
  2
ELEKTROLYT
 70
     0
  3
 
 72
    65
 73
     2
 40
16.
 49
16.
 49
0.
  0
LTYPE
  2
NATRIUMBISULFIT
 70
     0
  3
 
 72
    65
 73
     2
 40
16.
 49
16.
 49
0.
  0
LTYPE
  2
NATRIUMHYPOCHLORIT
 70
     0
  3
 
 72
    65
 73
     2
 40
16.
 49
16.
 49
0.
  0
LTYPE
  2
NATRONLAUGE
 70
     0
  3
 
 72
    65
 73
     2
 40
16.
 49
16.
 49
0.
  0
LTYPE
  2
NITRITHALTIGES-KONZENTRAT
 70
     0
  3
 
 72
    65
 73
     2
 40
16.
 49
16.
 49
0.
  0
LTYPE
  2
PHOSPHORSAEURE
 70
     0
  3
 
 72
    65
 73
     2
 40
16.
 49
16.
 49
0.
  0
LTYPE
  2
SALPETERSAEURE
 70
     0
  3
 
 72
    65
 73
     2
 40
16.
 49
16.
 49
0.
  0
LTYPE
  2
SALZSAEURE
 70
     0
  3
 
 72
    65
 73
     2
 40
16.
 49
16.
 49
0.
  0
LTYPE
  2
SCHWEFELSAEURE
 70
     0
  3
 
 72
    65
 73
     2
 40
16.
 49
16.
 49
0.
  0
LTYPE
  2
BETRIEBSWAERME-RL
 70
     0
  3
 
 72
    65
 73
     2
 40
5.
 49
4.063
 49
-0.938
  0
LTYPE
  2
BETRIEBSWAERME-VL
 70
     0
  3
 
 72
    65
 73
     2
 40
16.
 49
16.
 49
0.
  0
LTYPE
  2
WARMWASSER-VL
 70
     0
  3
 
 72
    65
 73
     2
 40
16.
 49
16.
 49
0.
  0
LTYPE
  2
WARMWASSER-ZIRKULATION
 70
     0
  3
 
 72
    65
 73
     4
 40
13.
 49
9.34
 49
-1.22
 49
1.22
 49
-1.22
  0
LTYPE
  2
ROHWASSER
 70
     0
  3
 
 72
    65
 73
     2
 40
16.
 49
16.
 49
0.
  0
LTYPE
  2
ARGON
 70
     0
  3
 
 72
    65
 73
     2
 40
16.
 49
16.
 49
0.
  0
LTYPE
  2
CORGON
 70
     0
  3
 
 72
    65
 73
     2
 40
16.
 49
16.
 49
0.
  0
LTYPE
  2
KOHLENDIOXID
 70
     0
  3
 
 72
    65
 73
     2
 40
16.
 49
16.
 49
0.
  0
LTYPE
  2
STICKSTOFF
 70
     0
  3
 
 72
    65
 73
     2
 40
16.
 49
16.
 49
0.
  0
LTYPE
  2
AZETYLEN
 70
     0
  3
 
 72
    65
 73
     2
 40
16.
 49
16.
 49
0.
  0
LTYPE
  2
ERDGAS
 70
     0
  3
 
 72
    65
 73
     2
 40
16.
 49
16.
 49
0.
  0
LTYPE
  2
SAUERSTOFF--TECHNISCH-REIN
 70
     0
  3
 
 72
    65
 73
     2
 40
16.
 49
16.
 49
0.
  0
LTYPE
  2
TRAEGERGAS
 70
     0
  3
 
 72
    65
 73
     2
 40
16.
 49
16.
 49
0.
  0
LTYPE
  2
WASSERSTOFF
 70
     0
  3
 
 72
    65
 73
     2
 40
16.
 49
16.
 49
0.
  0
LTYPE
  2
KRAFTSTOFF-GK-A-I-D
 70
     0
  3
 
 72
    65
 73
     2
 40
16.
 49
16.
 49
0.
  0
LTYPE
  2
KRAFTSTOFF-SONDER-D
 70
     0
  3
 
 72
    65
 73
     2
 40
16.
 49
16.
 49
0.
  0
LTYPE
  2
ACHSOEL
 70
     0
  3
 
 72
    65
 73
     2
 40
16.
 49
16.
 49
0.
  0
LTYPE
  2
ALTOEL
 70
     0
  3
 
 72
    65
 73
     2
 40
16.
 49
16.
 49
0.
  0
LTYPE
  2
BOHROEL
 70
     0
  3
 
 72
    65
 73
     2
 40
16.
 49
16.
 49
0.
  0
LTYPE
  2
ERODIEROEL
 70
     0
  3
 
 72
    65
 73
     2
 40
16.
 49
16.
 49
0.
  0
LTYPE
  2
FETT
 70
     0
  3
 
 72
    65
 73
     2
 40
16.
 49
16.
 49
0.
  0
LTYPE
  2
GETRIEBEOEL
 70
     0
  3
 
 72
    65
 73
     2
 40
16.
 49
16.
 49
0.
  0
LTYPE
  2
HAERTEOEL
 70
     0
  3
 
 72
    65
 73
     2
 40
16.
 49
16.
 49
0.
  0
LTYPE
  2
HONOEL
 70
     0
  3
 
 72
    65
 73
     2
 40
16.
 49
16.
 49
0.
  0
LTYPE
  2
HYDRAULIKOEL
 70
     0
  3
 
 72
    65
 73
     2
 40
16.
 49
16.
 49
0.
  0
LTYPE
  2
MOTOROEL
 70
     0
  3
 
 72
    65
 73
     2
 40
16.
 49
16.
 49
0.
  0
LTYPE
  2
NORMALSPUELOEL
 70
     0
  3
 
 72
    65
 73
     2
 40
16.
 49
16.
 49
0.
  0
LTYPE
  2
RAEUMOEL
 70
     0
  3
 
 72
    65
 73
     2
 40
16.
 49
16.
 49
0.
  0
LTYPE
  2
SCHLEIFOEL
 70
     0
  3
 
 72
    65
 73
     2
 40
16.
 49
16.
 49
0.
  0
LTYPE
  2
SCHNEIDOEL
 70
     0
  3
 
 72
    65
 73
     2
 40
16.
 49
16.
 49
0.
  0
LTYPE
  2
SONDERSPUELOEL
 70
     0
  3
 
 72
    65
 73
     2
 40
16.
 49
16.
 49
0.
  0
LTYPE
  2
ZIEHOEL
 70
     0
  3
 
 72
    65
 73
     2
 40
16.
 49
16.
 49
0.
  0
LTYPE
  2
MONTAGEOEL
 70
     0
  3
 
 72
    65
 73
     2
 40
16.
 49
16.
 49
0.
  0
LTYPE
  2
MONTAGE-GLEITOEL
 70
     0
  3
 
 72
    65
 73
     2
 40
16.
 49
16.
 49
0.
  0
LTYPE
  2
SPUELOEL
 70
     0
  3
 
 72
    65
 73
     2
 40
16.
 49
16.
 49
0.
  0
LTYPE
  2
TIEFBOHROEL
 70
     0
  3
 
 72
    65
 73
     2
 40
16.
 49
16.
 49
0.
  0
LTYPE
  2
AMIN
 70
     0
  3
 
 72
    65
 73
     2
 40
16.
 49
16.
 49
0.
  0
LTYPE
  2
HAERTER
 70
     0
  3
 
 72
    65
 73
     2
 40
16.
 49
16.
 49
0.
  0
LTYPE
  2
HARZ
 70
     0
  3
 
 72
    65
 73
     2
 40
16.
 49
16.
 49
0.
  0
LTYPE
  2
LOESEMITTEL
 70
     0
  3
 
 72
    65
 73
     2
 40
16.
 49
16.
 49
0.
  0
LTYPE
  2
LACK
 70
     0
  3
 
 72
    65
 73
     2
 40
16.
 49
16.
 49
0.
  0
LTYPE
  2
WASCHWASSER
 70
     0
  3
 
 72
    65
 73
     2
 40
16.
 49
16.
 49
0.
  0
LTYPE
  2
GLEITSCHLEIFWASSER
 70
     0
  3
 
 72
    65
 73
     2
 40
16.
 49
16.
 49
0.
  0
LTYPE
  2
VERDUENNUNG
 70
     0
  3
 
 72
    65
 73
     2
 40
16.
 49
16.
 49
0.
  0
LTYPE
  2
KUEHLDECKEN-VORLAUF
 70
     0
  3
 
 72
    65
 73
     2
 40
16.
 49
16.
 49
0.
  0
LTYPE
  2
KUEHLDECKEN-RUECKLAUF
 70
     0
  3
 
 72
    65
 73
     2
 40
5.
 49
4.063
 49
-0.938
  0
LTYPE
  2
KONDENSAT
 70
     0
  3
 
 72
    65
 73
     2
 40
16.
 49
16.
 49
0.
  0
LTYPE
  2
KONDENSAT-REINDAMPF
 70
     0
  3
 
 72
    65
 73
     2
 40
16.
 49
16.
 49
0.
  0
LTYPE
  2
KONDENSAT-HOCHDRUCK
 70
     0
  3
 
 72
    65
 73
     2
 40
16.
 49
16.
 49
0.
  0
LTYPE
  2
DAMPF
 70
     0
  3
 
 72
    65
 73
     2
 40
16.
 49
16.
 49
0.
  0
LTYPE
  2
REINDAMPF
 70
     0
  3
 
 72
    65
 73
     2
 40
16.
 49
16.
 49
0.
  0
LTYPE
  2
DAMPF-HOCHDRUCK
 70
     0
  3
 
 72
    65
 73
     2
 40
16.
 49
16.
 49
0.
  0
LTYPE
  2
KLIMA-ZENTRALE
 70
     0
  3
 
 72
    65
 73
     2
 40
16.
 49
16.
 49
0.
  0
LTYPE
  2
KLIMA-AUSSENLUFT
 70
     0
  3
 
 72
    65
 73
     4
 40
13.
 49
9.34
 49
-1.22
 49
1.22
 49
-1.22
  0
LTYPE
  2
KLIMA-ZULUFT-I
 70
     0
  3
 
 72
    65
 73
     2
 40
16.
 49
16.
 49
0.
  0
LTYPE
  2
KLIMA-ZULUFT-II
 70
     0
  3
 
 72
    65
 73
     2
 40
16.
 49
16.
 49
0.
  0
LTYPE
  2
KLIMA-ZULUFT-III
 70
     0
  3
 
 72
    65
 73
     2
 40
16.
 49
16.
 49
0.
  0
LTYPE
  2
KLIMA-ZULUFT-IV
 70
     0
  3
 
 72
    65
 73
     2
 40
16.
 49
16.
 49
0.
  0
LTYPE
  2
KLIMA-UMLUFT
 70
     0
  3
 
 72
    65
 73
     2
 40
5.
 49
4.063
 49
-0.938
  0
LTYPE
  2
KLIMA-MISCHLUFT
 70
     0
  3
 
 72
    65
 73
     6
 40
11.
 49
3.78
 49
-1.03
 49
3.78
 49
-1.03
 49
0.34
 49
-1.03
  0
LTYPE
  2
KLIMA-ABLUFT
 70
     0
  3
 
 72
    65
 73
     2
 40
5.
 49
4.063
 49
-0.938
  0
LTYPE
  2
KLIMA-FORTLUFT
 70
     0
  3
 
 72
    65
 73
     2
 40
5.
 49
4.063
 49
-0.938
  0
LTYPE
  2
ENTRAUCHUNG
 70
     0
  3
 
 72
    65
 73
     2
 40
5.
 49
4.063
 49
-0.938
  0
LTYPE
  2
ELEKTRO-ZENTRALE
 70
     0
  3
 
 72
    65
 73
     2
 40
16.
 49
16.
 49
0.
  0
LTYPE
  2
STROMSCHIENEN
 70
     0
  3
 
 72
    65
 73
     2
 40
16.
 49
16.
 49
0.
  0
LTYPE
  2
ELEKTRO-LEITUNGSFUEHRUNG
 70
     0
  3
 
 72
    65
 73
     2
 40
16.
 49
16.
 49
0.
  0
LTYPE
  2
ELEKTRO-KABELTRAEGER
 70
     0
  3
 
 72
    65
 73
     2
 40
16.
 49
16.
 49
0.
  0
LTYPE
  2
INNENWAND
 70
     0
  3
 
 72
    65
 73
     2
 40
16.
 49
16.
 49
0.
  0
LTYPE
  2
AUSSENWAND
 70
     0
  3
 
 72
    65
 73
     2
 40
16.
 49
16.
 49
0.
  0
LTYPE
  2
ERDBERUEHREND
 70
     0
  3
 
 72
    65
 73
     2
 40
16.
 49
16.
 49
0.
  0
LTYPE
  2
REINWASSER
 70
     0
  3
 
 72
    65
 73
     2
 40
16.
 49
16.
 49
0.
  0
LTYPE
  2
MESSWASSER
 70
     0
  3
 
 72
    65
 73
     2
 40
16.
 49
16.
 49
0.
  0
LTYPE
  2
SCHWALLWASSER
 70
     0
  3
 
 72
    65
 73
     2
 40
16.
 49
16.
 49
0.
  0
LTYPE
  2
SCHLAMMWASSER
 70
     0
  3
 
 72
    65
 73
     2
 40
16.
 49
16.
 49
0.
  0
LTYPE
  2
ERSTFILTRAT
 70
     0
  3
 
 72
    65
 73
     2
 40
16.
 49
16.
 49
0.
  0
LTYPE
  2
FILTRAT
 70
     0
  3
 
 72
    65
 73
     2
 40
16.
 49
16.
 49
0.
  0
LTYPE
  2
SOLE-FILTRAT
 70
     0
  3
 
 72
    65
 73
     2
 40
16.
 49
16.
 49
0.
  0
LTYPE
  2
SOLE-REINWASSER
 70
     0
  3
 
 72
    65
 73
     2
 40
16.
 49
16.
 49
0.
  0
LTYPE
  2
SOLE-ROHWASSER
 70
     0
  3
 
 72
    65
 73
     2
 40
16.
 49
16.
 49
0.
  0
LTYPE
  2
SPUELWASSER
 70
     0
  3
 
 72
    65
 73
     2
 40
16.
 49
16.
 49
0.
  0
LTYPE
  2
SPUELLUFT
 70
     0
  3
 
 72
    65
 73
     2
 40
16.
 49
16.
 49
0.
  0
LTYPE
  2
CHLORLOESUNG
 70
     0
  3
 
 72
    65
 73
     2
 40
16.
 49
16.
 49
0.
  0
LTYPE
  2
PH-LOESUNG
 70
     0
  3
 
 72
    65
 73
     2
 40
16.
 49
16.
 49
0.
  0
LTYPE
  2
FLOCKUNGSMITTEL
 70
     0
  3
 
 72
    65
 73
     2
 40
16.
 49
16.
 49
0.
  0
LTYPE
  2
SEEWASSER--KALT
 70
     0
  3
 
 72
    65
 73
     2
 40
16.
 49
16.
 49
0.
  0
LTYPE
  2
SEEWASSER--WARM
 70
     0
  3
 
 72
    65
 73
     2
 40
5.
 49
4.063
 49
-0.938
  0
LTYPE
  2
SEEWASSER--ZIRKULATION
 70
     0
  3
 
 72
    65
 73
     4
 40
13.
 49
9.34
 49
-1.22
 49
1.22
 49
-1.22
  0
LTYPE
  2
LABORWASSER--KALT
 70
     0
  3
 
 72
    65
 73
     2
 40
16.
 49
16.
 49
0.
  0
LTYPE
  2
LABORWASSER--WARM
 70
     0
  3
 
 72
    65
 73
     2
 40
5.
 49
4.063
 49
-0.938
  0
LTYPE
  2
LABORWASSER--ZIRKULATION
 70
     0
  3
 
 72
    65
 73
     4
 40
13.
 49
9.34
 49
-1.22
 49
1.22
 49
-1.22
  0
LTYPE
  2
WASSER-VOLL-ENTHAERTET-VL
 70
     0
  3
 
 72
    65
 73
     2
 40
16.
 49
16.
 49
0.
  0
LTYPE
  2
WASSER-VOLL-ENTHAERTET-RL
 70
     0
  3
 
 72
    65
 73
     2
 40
16.
 49
16.
 49
0.
  0
LTYPE
  2
PROZESSKUEHLWASSER-VL
 70
     0
  3
 
 72
    65
 73
     2
 40
16.
 49
16.
 49
0.
  0
LTYPE
  2
PROZESSKUEHLWASSER-RL
 70
     0
  3
 
 72
    65
 73
     2
 40
16.
 49
16.
 49
0.
  0
ENDTAB
  0
TABLE
  2
LAYER
 70
    25
  0
LAYER
  2
0
 62
     7
  6
AUSGEZOGEN
 70
    64
  0
LAYER
  2
SICHTBARE_KANTE
 62
     7
  6
AUSGEZOGEN
 70
    64
  0
LAYER
  2
VERDECKTE_KANTE
 62
     8
  6
VERDECKTE_KANTE
 70
    64
  0
LAYER
  2
HILFSLINIE
 62
     8
  6
HILFSLINIE
 70
    64
  0
LAYER
  2
BRUCHLINIE
 62
     8
  6
BRUCHLINIE
 70
    64
  0
LAYER
  2
MITTELLINIE
 62
     8
  6
MITTELLINIE
 70
    64
  0
LAYER
  2
SCHNITTLINIE
 62
     7
  6
SCHNITTLINIE
 70
    64
  0
LAYER
  2
SCHWERLINIE
 62
     8
  6
SCHWERLINIE
 70
    64
  0
LAYER
  2
ENTWURFSLINIE
 62
     8
  6
ENTWURFSLINIE
 70
    64
  0
LAYER
  2
SONDERLINIE_1
 62
     8
  6
SONDERLINIE1
 70
    64
  0
LAYER
  2
SONDERLINIE_2
 62
     8
  6
SONDERLINIE2
 70
    64
  0
LAYER
  2
SONDERLINIE_3
 62
     8
  6
SONDERLINIE3
 70
    64
  0
LAYER
  2
SONDERLINIE_4
 62
     8
  6
SONDERLINIE4
 70
    64
  0
LAYER
  2
SONDERLINIE_5
 62
     8
  6
SONDERLINIE5
 70
    64
  0
LAYER
  2
SONDERLINIE_6
 62
     8
  6
SONDERLINIE6
 70
    64
  0
LAYER
  2
SONDERLINIE_7
 62
     8
  6
SONDERLINIE7
 70
    64
  0
LAYER
  2
SONDERLINIE_8
 62
     8
  6
SONDERLINIE8
 70
    64
  0
LAYER
  2
2D-TEXT
 62
     7
  6
AUSGEZOGEN
 70
    64
  0
LAYER
  2
SCHRAFFUR
 62
     8
  6
HILFSLINIE
 70
    64
  0
LAYER
  2
SYMBOL
 62
     7
  6
HILFSLINIE
 70
    64
  0
LAYER
  2
BEMASSUNG
 62
     8
  6
HILFSLINIE
 70
    64
  0
LAYER
  2
OBERFLAECHENZEICHEN
 62
     8
  6
HILFSLINIE
 70
    64
  0
LAYER
  2
FORM-LAGE-TOLERANZEN
 62
     8
  6
HILFSLINIE
 70
    64
  0
LAYER
  2
SCHWEISSZEICHEN
 62
     8
  6
HILFSLINIE
 70
    64
  0
LAYER
  2
GRUNDEBENE
 62
     7
  6
AUSGEZOGEN
 70
    64
  0
ENDTAB
  0
TABLE
  2
STYLE
 70
    23
  0
STYLE
  2
STANDARD
 70
     0
 40
     0
 41
       1.000000
 50
       0.000000
 71
     0
 42
       3.500000
  3
isocp
  4

  0
STYLE
  2
DIN-6776
 70
     0
 40
     0
 41
       1.000000
 50
       0.000000
 71
     0
 42
       3.500000
  3
isocp
  4

  0
STYLE
  2
ROMAN
 70
     0
 40
     0
 41
       1.000000
 50
       0.000000
 71
     0
 42
       3.500000
  3
romans.shx
  4

  0
STYLE
  2
SCRIPT
 70
     0
 40
     0
 41
       1.000000
 50
       0.000000
 71
     0
 42
       3.500000
  3
scripts.shx
  4

  0
STYLE
  2
GRIECHISCH
 70
     0
 40
     0
 41
       1.000000
 50
       0.000000
 71
     0
 42
       3.500000
  3
greeks.shx
  4

  0
STYLE
  2
KYRILLISCH
 70
     0
 40
     0
 41
       1.000000
 50
       0.000000
 71
     0
 42
       3.500000
  3
cyrillic.shx
  4

  0
STYLE
  2
MATH--FORMELZEICHEN
 70
     0
 40
     0
 41
       1.000000
 50
       0.000000
 71
     0
 42
       3.500000
  3
symath.shx
  4

  0
STYLE
  2
DOPPELLINIE
 70
     0
 40
     0
 41
       1.000000
 50
       0.000000
 71
     0
 42
       3.500000
  3
swissko.ttf
  4

  0
STYLE
  2
SERIFENSCHRIFT
 70
     0
 40
     0
 41
       1.000000
 50
       0.000000
 71
     0
 42
       3.500000
  3
romanc__.ttf
  4

  0
STYLE
  2
ARIAL
 70
     0
 40
     0
 41
       1.000000
 50
       0.000000
 71
     0
 42
       3.500000
  3
arial.ttf
  4

  0
STYLE
  2
ARIAL-FETT
 70
     0
 40
     0
 41
       1.000000
 50
       0.000000
 71
     0
 42
       3.500000
  3
arialbd.ttf
  4

  0
STYLE
  2
TIMES-NEW-ROMAN
 70
     0
 40
     0
 41
       1.000000
 50
       0.000000
 71
     0
 42
       3.500000
  3
times.ttf
  4

  0
STYLE
  2
TIMES-NEW-ROMAN-FETT
 70
     0
 40
     0
 41
       1.000000
 50
       0.000000
 71
     0
 42
       3.500000
  3
timesbd.ttf
  4

  0
STYLE
  2
DIN-6776-OSTEUROPA
 70
     0
 40
     0
 41
       1.000000
 50
       0.000000
 71
     0
 42
       3.500000
  3
txt
  4

  0
STYLE
  2
DIN-6776-KYRILLISCH
 70
     0
 40
     0
 41
       1.000000
 50
       0.000000
 71
     0
 42
       3.500000
  3
txt
  4

  0
STYLE
  2
ARIAL-OSTEUROPA
 70
     0
 40
     0
 41
       1.000000
 50
       0.000000
 71
     0
 42
       3.500000
  3
arial.ttf
  4

  0
STYLE
  2
ARIAL-KYRILLISCH
 70
     0
 40
     0
 41
       1.000000
 50
       0.000000
 71
     0
 42
       3.500000
  3
arial.ttf
  4

  0
STYLE
  2
ARIAL-FETT-OSTEUROPA
 70
     0
 40
     0
 41
       1.000000
 50
       0.000000
 71
     0
 42
       3.500000
  3
arialbd.ttf
  4

  0
STYLE
  2
ARIAL-FETT-KYRILLISCH
 70
     0
 40
     0
 41
       1.000000
 50
       0.000000
 71
     0
 42
       3.500000
  3
arialbd.ttf
  4

  0
STYLE
  2
TIMES-N-R-OSTEUROPA
 70
     0
 40
     0
 41
       1.000000
 50
       0.000000
 71
     0
 42
       3.500000
  3
times.ttf
  4

  0
STYLE
  2
TIMES-N-R-KYRILLISCH
 70
     0
 40
     0
 41
       1.000000
 50
       0.000000
 71
     0
 42
       3.500000
  3
times.ttf
  4

  0
STYLE
  2
TIMES-N-R-FETT-OSTEUROPA
 70
     0
 40
     0
 41
       1.000000
 50
       0.000000
 71
     0
 42
       3.500000
  3
timesbd.ttf
  4

  0
STYLE
  2
TIMES-N-R-FETT-KYRILLISCH
 70
     0
 40
     0
 41
       1.000000
 50
       0.000000
 71
     0
 42
       3.500000
  3
timesbd.ttf
  4

  0
ENDTAB
  0
TABLE
  2
VIEW
 70
     0
  0
ENDTAB
  0
TABLE
  2
VPORT
 70
     2
  0
VPORT
  2
*ACTIVE
 70
     0
 10
       0.000000
 20
       0.000000
 11
       1.000000
 21
       1.000000
 12
    1664.299805
 22
    1063.348877
 13
       0.000000
 23
       0.000000
 14
       1.000000
 24
       1.000000
 15
       0.000000
 25
       0.000000
 16
       0.000000
 26
       0.000000
 36
       1.000000
 17
       0.000000
 27
       0.000000
 37
       0.000000
 40
    2126.697754
 41
       1.565149
 42
      50.000000
 43
       0.000000
 44
       0.000000
 50
       0.000000
 51
       0.000000
 71
     0
 72
   100
 73
     1
 74
     1
 75
     0
 76
     0
 77
     0
 78
     0
  0
ENDTAB
  0
TABLE
  2
DIMSTYLE
 70
     1
  0
DIMSTYLE
  2
STDBEM
 70
     0
  3

  4

  5

  6

  7

 40
       1.000000
 41
       3.500000
 42
       0.100000
 43
       7.000000
 44
       1.800000
 45
       0.000000
 46
       0.000000
 47
       0.000000
 48
       0.000000
140
       3.500000
141
       1.500000
142
       0.000000
143
      25.400000
144
       1.000000
145
       0.000000
146
       1.000000
147
       0.090000
 71
     0
 72
     0
 73
     0
 74
     0
 75
     0
 76
     0
 77
     1
 78
     0
170
     0
171
     2
172
     0
173
     0
174
     0
175
     0
176
     0
177
     0
178
     0
  0
ENDTAB
  0
ENDSEC
  0
SECTION
  2
BLOCKS
  0
ENDSEC
  0
SECTION
  2
ENTITIES
  0
LINE
  8
HILFSLINIE
 10
      88.633301
 20
     353.123901
 11
      88.633301
 21
    1107.123901
  0
LINE
  8
HILFSLINIE
 10
     105.633301
 20
    1124.123901
 11
    1859.633301
 21
    1124.123901
  0
LINE
  8
HILFSLINIE
 10
    1859.633301
 20
     336.123901
 11
     105.633301
 21
     336.123901
  0
LINE
  8
HILFSLINIE
 10
     366.188721
 20
     904.234497
 11
     366.188354
 21
     556.012817
  0
LINE
  8
HILFSLINIE
 10
     467.213379
 20
     993.457642
 11
     517.213379
 21
     993.457642
  0
LINE
  8
HILFSLINIE
 10
     467.212891
 20
     466.789917
 11
     517.212891
 21
     466.789917
  0
LINE
  8
HILFSLINIE
 10
    1876.633301
 20
     353.123901
 11
    1876.633301
 21
    1107.123901
  0
LINE
  8
HILFSLINIE
 10
    1599.077881
 20
     904.234497
 11
    1599.078247
 21
     556.012817
  0
LINE
  8
HILFSLINIE
 10
    1498.053223
 20
     993.457642
 11
    1448.053223
 21
     993.457642
  0
LINE
  8
HILFSLINIE
 10
    1498.053711
 20
     466.789917
 11
    1448.053711
 21
     466.789917
  0
LINE
  8
HILFSLINIE
 10
    1499.633545
 20
     552.623901
 11
    1499.633545
 21
     907.623657
  0
LINE
  8
HILFSLINIE
 10
    1479.633545
 20
     927.623657
 11
     485.633057
 21
     927.623657
  0
LINE
  8
HILFSLINIE
 10
    1479.633545
 20
     532.623901
 11
     485.633057
 21
     532.623901
  0
LINE
  8
HILFSLINIE
 10
     465.633057
 20
     552.623901
 11
     465.633057
 21
     907.623657
  0
LINE
  8
HILFSLINIE
 10
    2726.053955
 20
    1418.528320
 11
    2726.515137
 21
    1418.528320
  0
LINE
  8
HILFSLINIE
 10
    2639.212646
 20
    1418.528320
 11
    2638.751465
 21
    1418.528320
  0
LINE
  8
HILFSLINIE
 10
    2638.817139
 20
    1421.527588
 11
    2726.449463
 21
    1421.527588
  0
LINE
  8
HILFSLINIE
 10
    2648.946533
 20
    1415.530396
 11
    2716.320068
 21
    1415.530396
  0
LINE
  8
HILFSLINIE
 10
    1597.415771
 20
    1506.530518
 11
    1597.315308
 21
    1506.530518
  0
LINE
  8
HILFSLINIE
 10
    1012.052856
 20
    1415.416138
 11
    1012.196167
 21
    1415.698975
  0
LINE
  8
HILFSLINIE
 10
    1034.731445
 20
    1431.670288
 11
    1416.706543
 21
    1441.672607
  0
LINE
  8
HILFSLINIE
 10
     939.728149
 20
    1421.696167
 11
    1025.538452
 21
    1421.696167
  0
LINE
  8
HILFSLINIE
 10
     948.946594
 20
    1415.699097
 11
    1016.320068
 21
    1415.699097
  0
LINE
  8
HILFSLINIE
 10
     953.213806
 20
    1415.416138
 11
     953.070496
 21
    1415.698975
  0
LINE
  8
HILFSLINIE
 10
     930.535156
 20
    1431.670288
 11
     548.560059
 21
    1441.672607
  0
LINE
  8
HILFSLINIE
 10
    3295.966309
 20
     730.121704
 11
    2069.300781
 21
     730.121948
  0
ARC
  8
HILFSLINIE
 10
     105.633301
 20
    1107.123901
 40
      17.000000
 50
      90.000000
 51
     180.000000
  0
ARC
  8
HILFSLINIE
 10
     105.633301
 20
     353.123901
 40
      17.000000
 50
     180.000000
 51
     270.000000
  0
ARC
  8
HILFSLINIE
 10
     982.635742
 20
  -88934.320312
 40
   90028.710938
 50
      90.000000
 51
      90.541039
  0
ARC
  8
HILFSLINIE
 10
   15213.795898
 20
     730.153564
 40
   15090.422852
 50
     178.650711
 51
     181.368515
  0
ARC
  8
HILFSLINIE
 10
     982.635742
 20
   90389.570312
 40
   90028.710938
 50
     269.459015
 51
     270.000000
  0
ARC
  8
HILFSLINIE
 10
     132.675476
 20
     369.870819
 40
       5.000000
 50
     181.368530
 51
     269.459351
  0
ARC
  8
HILFSLINIE
 10
     132.555420
 20
    1085.375854
 40
       5.000000
 50
      90.541351
 51
     178.649994
  0
ARC
  8
HILFSLINIE
 10
    1859.633301
 20
    1107.123901
 40
      17.000000
 50
       0.000000
 51
      90.000000
  0
ARC
  8
HILFSLINIE
 10
    1859.633301
 20
     353.123901
 40
      17.000000
 50
     270.000000
 51
       0.000000
  0
ARC
  8
HILFSLINIE
 10
     982.630859
 20
  -88934.320312
 40
   90028.710938
 50
      89.458954
 51
      89.999992
  0
ARC
  8
HILFSLINIE
 10
  -13248.528320
 20
     730.153564
 40
   15090.422852
 50
     358.631470
 51
       1.349291
  0
ARC
  8
HILFSLINIE
 10
     982.630859
 20
   90389.570312
 40
   90028.710938
 50
     270.000000
 51
     270.540985
  0
ARC
  8
HILFSLINIE
 10
    1832.591064
 20
     369.870819
 40
       5.000000
 50
     270.541351
 51
     358.631470
  0
ARC
  8
HILFSLINIE
 10
    1832.711182
 20
    1085.375854
 40
       5.000000
 50
       1.350010
 51
      89.458649
  0
ARC
  8
HILFSLINIE
 10
    1513.317871
 20
     556.669556
 40
      85.762871
 50
     338.707458
 51
     359.561218
  0
ARC
  8
HILFSLINIE
 10
    1513.592041
 20
     556.900269
 40
      85.591843
 50
     313.628265
 51
     338.496918
  0
ARC
  8
HILFSLINIE
 10
    1513.591553
 20
     903.347046
 40
      85.591774
 50
      21.503086
 51
      46.371708
  0
ARC
  8
HILFSLINIE
 10
    1513.316162
 20
     903.577515
 40
      85.764229
 50
       0.438909
 51
      21.292406
  0
ARC
  8
HILFSLINIE
 10
    1479.633545
 20
     907.623657
 40
      20.000025
 50
       0.000000
 51
      90.000000
  0
ARC
  8
HILFSLINIE
 10
    1479.633545
 20
     552.623901
 40
      20.000025
 50
     270.000000
 51
       0.000000
  0
ARC
  8
HILFSLINIE
 10
     451.948730
 20
     556.669556
 40
      85.762871
 50
     180.438751
 51
     201.292542
  0
ARC
  8
HILFSLINIE
 10
     451.674561
 20
     556.900269
 40
      85.591843
 50
     201.503067
 51
     226.371719
  0
ARC
  8
HILFSLINIE
 10
     451.675049
 20
     903.347046
 40
      85.591774
 50
     133.628265
 51
     158.496918
  0
ARC
  8
HILFSLINIE
 10
     451.950439
 20
     903.577515
 40
      85.764229
 50
     158.707596
 51
     179.561096
  0
ARC
  8
HILFSLINIE
 10
     485.633057
 20
     907.623657
 40
      20.000025
 50
      90.000000
 51
     180.000000
  0
ARC
  8
HILFSLINIE
 10
     485.633057
 20
     552.623901
 40
      20.000025
 50
     180.000000
 51
     270.000000
  0
ARC
  8
HILFSLINIE
 10
    1021.610107
 20
    1411.331787
 40
      10.377666
 50
      92.897240
 51
     155.113113
  0
ARC
  8
HILFSLINIE
 10
    1008.106934
 20
    1417.276001
 40
       4.362232
 50
     271.916351
 51
     334.763702
  0
ARC
  8
HILFSLINIE
 10
     943.656494
 20
    1411.331787
 40
      10.377666
 50
      24.886745
 51
      87.102760
  0
ARC
  8
HILFSLINIE
 10
     957.159668
 20
    1417.276001
 40
       4.362232
 50
     205.236618
 51
     268.083618
  0
CIRCLE
  8
HILFSLINIE
 10
     982.633301
 20
     730.123901
 40
      45.000000
  0
POLYLINE
  8
HILFSLINIE
 66
     1
 10
       0.000000
 20
       0.000000
 30
       0.000000
  0
VERTEX
  8
HILFSLINIE
 10
    1498.053711
 20
     466.789917
 30
       0.000000
  0
VERTEX
  8
HILFSLINIE
 10
    1508.251953
 20
     467.251587
 30
       0.000000
  0
VERTEX
  8
HILFSLINIE
 10
    1518.384766
 20
     468.549194
 30
       0.000000
  0
VERTEX
  8
HILFSLINIE
 10
    1528.354980
 20
     470.706421
 30
       0.000000
  0
VERTEX
  8
HILFSLINIE
 10
    1538.091064
 20
     473.747437
 30
       0.000000
  0
VERTEX
  8
HILFSLINIE
 10
    1547.497803
 20
     477.689819
 30
       0.000000
  0
VERTEX
  8
HILFSLINIE
 10
    1556.468994
 20
     482.541382
 30
       0.000000
  0
VERTEX
  8
HILFSLINIE
 10
    1564.895996
 20
     488.303101
 30
       0.000000
  0
VERTEX
  8
HILFSLINIE
 10
    1572.648438
 20
     494.946167
 30
       0.000000
  0
SEQEND
  8
HILFSLINIE
  0
POLYLINE
  8
HILFSLINIE
 66
     1
 10
       0.000000
 20
       0.000000
 30
       0.000000
  0
VERTEX
  8
HILFSLINIE
 10
    1572.647949
 20
     965.301147
 30
       0.000000
  0
VERTEX
  8
HILFSLINIE
 10
    1564.895752
 20
     971.944458
 30
       0.000000
  0
VERTEX
  8
HILFSLINIE
 10
    1556.468994
 20
     977.705688
 30
       0.000000
  0
VERTEX
  8
HILFSLINIE
 10
    1547.497803
 20
     982.557495
 30
       0.000000
  0
VERTEX
  8
HILFSLINIE
 10
    1538.090820
 20
     986.500122
 30
       0.000000
  0
VERTEX
  8
HILFSLINIE
 10
    1528.354736
 20
     989.541138
 30
       0.000000
  0
VERTEX
  8
HILFSLINIE
 10
    1518.384277
 20
     991.698364
 30
       0.000000
  0
VERTEX
  8
HILFSLINIE
 10
    1508.251709
 20
     992.995972
 30
       0.000000
  0
VERTEX
  8
HILFSLINIE
 10
    1498.053223
 20
     993.457642
 30
       0.000000
  0
SEQEND
  8
HILFSLINIE
  0
POLYLINE
  8
HILFSLINIE
 66
     1
 10
       0.000000
 20
       0.000000
 30
       0.000000
  0
VERTEX
  8
HILFSLINIE
 10
    1448.053223
 20
     993.457642
 30
       0.000000
  0
VERTEX
  8
HILFSLINIE
 10
    1113.783936
 20
     994.565308
 30
       0.000000
  0
VERTEX
  8
HILFSLINIE
 10
     982.633301
 20
     994.512939
 30
       0.000000
  0
SEQEND
  8
HILFSLINIE
  0
POLYLINE
  8
HILFSLINIE
 66
     1
 10
       0.000000
 20
       0.000000
 30
       0.000000
  0
VERTEX
  8
HILFSLINIE
 10
     982.633301
 20
     465.734253
 30
       0.000000
  0
VERTEX
  8
HILFSLINIE
 10
    1113.784180
 20
     465.681763
 30
       0.000000
  0
VERTEX
  8
HILFSLINIE
 10
    1448.053711
 20
     466.789917
 30
       0.000000
  0
SEQEND
  8
HILFSLINIE
  0
POLYLINE
  8
HILFSLINIE
 66
     1
 10
       0.000000
 20
       0.000000
 30
       0.000000
  0
VERTEX
  8
HILFSLINIE
 10
     467.212891
 20
     466.789917
 30
       0.000000
  0
VERTEX
  8
HILFSLINIE
 10
     457.014648
 20
     467.251587
 30
       0.000000
  0
VERTEX
  8
HILFSLINIE
 10
     446.881836
 20
     468.549194
 30
       0.000000
  0
VERTEX
  8
HILFSLINIE
 10
     436.911621
 20
     470.706421
 30
       0.000000
  0
VERTEX
  8
HILFSLINIE
 10
     427.175537
 20
     473.747437
 30
       0.000000
  0
VERTEX
  8
HILFSLINIE
 10
     417.768799
 20
     477.689819
 30
       0.000000
  0
VERTEX
  8
HILFSLINIE
 10
     408.797607
 20
     482.541382
 30
       0.000000
  0
VERTEX
  8
HILFSLINIE
 10
     400.370605
 20
     488.303101
 30
       0.000000
  0
VERTEX
  8
HILFSLINIE
 10
     392.618164
 20
     494.946167
 30
       0.000000
  0
SEQEND
  8
HILFSLINIE
  0
POLYLINE
  8
HILFSLINIE
 66
     1
 10
       0.000000
 20
       0.000000
 30
       0.000000
  0
VERTEX
  8
HILFSLINIE
 10
     392.618652
 20
     965.301147
 30
       0.000000
  0
VERTEX
  8
HILFSLINIE
 10
     400.370850
 20
     971.944458
 30
       0.000000
  0
VERTEX
  8
HILFSLINIE
 10
     408.797607
 20
     977.705688
 30
       0.000000
  0
VERTEX
  8
HILFSLINIE
 10
     417.768799
 20
     982.557495
 30
       0.000000
  0
VERTEX
  8
HILFSLINIE
 10
     427.175781
 20
     986.500122
 30
       0.000000
  0
VERTEX
  8
HILFSLINIE
 10
     436.911865
 20
     989.541138
 30
       0.000000
  0
VERTEX
  8
HILFSLINIE
 10
     446.882324
 20
     991.698364
 30
       0.000000
  0
VERTEX
  8
HILFSLINIE
 10
     457.014893
 20
     992.995972
 30
       0.000000
  0
VERTEX
  8
HILFSLINIE
 10
     467.213379
 20
     993.457642
 30
       0.000000
  0
SEQEND
  8
HILFSLINIE
  0
POLYLINE
  8
HILFSLINIE
 66
     1
 10
       0.000000
 20
       0.000000
 30
       0.000000
  0
VERTEX
  8
HILFSLINIE
 10
     517.213379
 20
     993.457642
 30
       0.000000
  0
VERTEX
  8
HILFSLINIE
 10
     851.482666
 20
     994.565308
 30
       0.000000
  0
VERTEX
  8
HILFSLINIE
 10
     982.633301
 20
     994.512939
 30
       0.000000
  0
SEQEND
  8
HILFSLINIE
  0
POLYLINE
  8
HILFSLINIE
 66
     1
 10
       0.000000
 20
       0.000000
 30
       0.000000
  0
VERTEX
  8
HILFSLINIE
 10
     982.633301
 20
     465.734253
 30
       0.000000
  0
VERTEX
  8
HILFSLINIE
 10
     851.482422
 20
     465.681763
 30
       0.000000
  0
VERTEX
  8
HILFSLINIE
 10
     517.212891
 20
     466.789917
 30
       0.000000
  0
SEQEND
  8
HILFSLINIE
  0
POLYLINE
  8
HILFSLINIE
 66
     1
 10
       0.000000
 20
       0.000000
 30
       0.000000
  0
VERTEX
  8
HILFSLINIE
 10
    2544.313965
 20
    1510.123901
 30
       0.000000
  0
VERTEX
  8
HILFSLINIE
 10
    2682.633301
 20
    1510.123901
 30
       0.000000
  0
VERTEX
  8
HILFSLINIE
 10
    2820.952881
 20
    1510.123901
 30
       0.000000
  0
SEQEND
  8
HILFSLINIE
  0
POLYLINE
  8
HILFSLINIE
 66
     1
 10
       0.000000
 20
       0.000000
 30
       0.000000
  0
VERTEX
  8
HILFSLINIE
 10
    2439.428467
 20
    1800.991577
 30
       0.000000
  0
VERTEX
  8
HILFSLINIE
 10
    2561.033691
 20
    1800.992065
 30
       0.000000
  0
VERTEX
  8
HILFSLINIE
 10
    2682.633057
 20
    1800.992065
 30
       0.000000
  0
VERTEX
  8
HILFSLINIE
 10
    2804.232178
 20
    1800.992065
 30
       0.000000
  0
VERTEX
  8
HILFSLINIE
 10
    2925.837646
 20
    1800.991577
 30
       0.000000
  0
SEQEND
  8
HILFSLINIE
  0
POLYLINE
  8
HILFSLINIE
 66
     1
 10
       0.000000
 20
       0.000000
 30
       0.000000
  0
VERTEX
  8
HILFSLINIE
 10
     249.580444
 20
    1804.337158
 30
       0.000000
  0
VERTEX
  8
HILFSLINIE
 10
     244.738953
 20
    1804.065796
 30
       0.000000
  0
VERTEX
  8
HILFSLINIE
 10
     240.076782
 20
    1803.200928
 30
       0.000000
  0
VERTEX
  8
HILFSLINIE
 10
     235.764404
 20
    1801.745972
 30
       0.000000
  0
VERTEX
  8
HILFSLINIE
 10
     231.926086
 20
    1799.814453
 30
       0.000000
  0
VERTEX
  8
HILFSLINIE
 10
     228.593628
 20
    1797.565674
 30
       0.000000
  0
VERTEX
  8
HILFSLINIE
 10
     225.736877
 20
    1795.141357
 30
       0.000000
  0
VERTEX
  8
HILFSLINIE
 10
     223.309265
 20
    1792.650146
 30
       0.000000
  0
VERTEX
  8
HILFSLINIE
 10
     221.260681
 20
    1790.166016
 30
       0.000000
  0
VERTEX
  8
HILFSLINIE
 10
     219.048035
 20
    1786.959229
 30
       0.000000
  0
VERTEX
  8
HILFSLINIE
 10
     217.356934
 20
    1783.972778
 30
       0.000000
  0
VERTEX
  8
HILFSLINIE
 10
     216.118530
 20
    1781.317505
 30
       0.000000
  0
VERTEX
  8
HILFSLINIE
 10
     215.448364
 20
    1779.629883
 30
       0.000000
  0
VERTEX
  8
HILFSLINIE
 10
     214.969482
 20
    1778.292725
 30
       0.000000
  0
VERTEX
  8
HILFSLINIE
 10
     214.656311
 20
    1777.410522
 30
       0.000000
  0
VERTEX
  8
HILFSLINIE
 10
     214.490845
 20
    1777.096191
 30
       0.000000
  0
SEQEND
  8
HILFSLINIE
  0
POLYLINE
  8
HILFSLINIE
 66
     1
 10
       0.000000
 20
       0.000000
 30
       0.000000
  0
VERTEX
  8
HILFSLINIE
 10
     249.580383
 20
    1804.337158
 30
       0.000000
  0
VERTEX
  8
HILFSLINIE
 10
     457.721008
 20
    1804.367065
 30
       0.000000
  0
VERTEX
  8
HILFSLINIE
 10
     665.929199
 20
    1804.387085
 30
       0.000000
  0
VERTEX
  8
HILFSLINIE
 10
     874.133301
 20
    1804.397095
 30
       0.000000
  0
SEQEND
  8
HILFSLINIE
  0
POLYLINE
  8
HILFSLINIE
 66
     1
 10
       0.000000
 20
       0.000000
 30
       0.000000
  0
VERTEX
  8
HILFSLINIE
 10
     874.133301
 20
    1804.397095
 30
       0.000000
  0
VERTEX
  8
HILFSLINIE
 10
     982.620789
 20
    1804.398438
 30
       0.000000
  0
VERTEX
  8
HILFSLINIE
 10
     982.633301
 20
    1804.398438
 30
       0.000000
  0
SEQEND
  8
HILFSLINIE
  0
POLYLINE
  8
HILFSLINIE
 66
     1
 10
       0.000000
 20
       0.000000
 30
       0.000000
  0
VERTEX
  8
HILFSLINIE
 10
    1091.133301
 20
    1804.397095
 30
       0.000000
  0
VERTEX
  8
HILFSLINIE
 10
     982.645813
 20
    1804.398438
 30
       0.000000
  0
VERTEX
  8
HILFSLINIE
 10
     982.633301
 20
    1804.398438
 30
       0.000000
  0
SEQEND
  8
HILFSLINIE
  0
POLYLINE
  8
HILFSLINIE
 66
     1
 10
       0.000000
 20
       0.000000
 30
       0.000000
  0
VERTEX
  8
HILFSLINIE
 10
    1715.686157
 20
    1804.337158
 30
       0.000000
  0
VERTEX
  8
HILFSLINIE
 10
    1507.545532
 20
    1804.367065
 30
       0.000000
  0
VERTEX
  8
HILFSLINIE
 10
    1299.337402
 20
    1804.387085
 30
       0.000000
  0
VERTEX
  8
HILFSLINIE
 10
    1091.133301
 20
    1804.397095
 30
       0.000000
  0
SEQEND
  8
HILFSLINIE
  0
POLYLINE
  8
HILFSLINIE
 66
     1
 10
       0.000000
 20
       0.000000
 30
       0.000000
  0
VERTEX
  8
HILFSLINIE
 10
    1715.686157
 20
    1804.337158
 30
       0.000000
  0
VERTEX
  8
HILFSLINIE
 10
    1720.527588
 20
    1804.065796
 30
       0.000000
  0
VERTEX
  8
HILFSLINIE
 10
    1725.189819
 20
    1803.200928
 30
       0.000000
  0
VERTEX
  8
HILFSLINIE
 10
    1729.502197
 20
    1801.745972
 30
       0.000000
  0
VERTEX
  8
HILFSLINIE
 10
    1733.340454
 20
    1799.814453
 30
       0.000000
  0
VERTEX
  8
HILFSLINIE
 10
    1736.672974
 20
    1797.565674
 30
       0.000000
  0
VERTEX
  8
HILFSLINIE
 10
    1739.529663
 20
    1795.141357
 30
       0.000000
  0
VERTEX
  8
HILFSLINIE
 10
    1741.957275
 20
    1792.650146
 30
       0.000000
  0
VERTEX
  8
HILFSLINIE
 10
    1744.005859
 20
    1790.166016
 30
       0.000000
  0
VERTEX
  8
HILFSLINIE
 10
    1746.218506
 20
    1786.959229
 30
       0.000000
  0
VERTEX
  8
HILFSLINIE
 10
    1747.909668
 20
    1783.972778
 30
       0.000000
  0
VERTEX
  8
HILFSLINIE
 10
    1749.148071
 20
    1781.317505
 30
       0.000000
  0
VERTEX
  8
HILFSLINIE
 10
    1749.818237
 20
    1779.629883
 30
       0.000000
  0
VERTEX
  8
HILFSLINIE
 10
    1750.297119
 20
    1778.292725
 30
       0.000000
  0
VERTEX
  8
HILFSLINIE
 10
    1750.610229
 20
    1777.410522
 30
       0.000000
  0
VERTEX
  8
HILFSLINIE
 10
    1750.775757
 20
    1777.096191
 30
       0.000000
  0
SEQEND
  8
HILFSLINIE
  0
POLYLINE
  8
HILFSLINIE
 66
     1
 10
       0.000000
 20
       0.000000
 30
       0.000000
  0
VERTEX
  8
HILFSLINIE
 10
     214.490723
 20
     450.818970
 30
       0.000000
  0
VERTEX
  8
HILFSLINIE
 10
     212.512329
 20
     590.408569
 30
       0.000000
  0
VERTEX
  8
HILFSLINIE
 10
     211.851807
 20
     730.119019
 30
       0.000000
  0
VERTEX
  8
HILFSLINIE
 10
     212.145386
 20
     823.268677
 30
       0.000000
  0
VERTEX
  8
HILFSLINIE
 10
     213.025574
 20
     916.381226
 30
       0.000000
  0
VERTEX
  8
HILFSLINIE
 10
     214.490723
 20
    1009.428345
 30
       0.000000
  0
SEQEND
  8
HILFSLINIE
  0
POLYLINE
  8
HILFSLINIE
 66
     1
 10
       0.000000
 20
       0.000000
 30
       0.000000
  0
VERTEX
  8
HILFSLINIE
 10
    1091.133301
 20
    1064.471680
 30
       0.000000
  0
VERTEX
  8
HILFSLINIE
 10
     982.645813
 20
    1064.537354
 30
       0.000000
  0
VERTEX
  8
HILFSLINIE
 10
     982.633301
 20
    1064.537354
 30
       0.000000
  0
SEQEND
  8
HILFSLINIE
  0
POLYLINE
  8
HILFSLINIE
 66
     1
 10
       0.000000
 20
       0.000000
 30
       0.000000
  0
VERTEX
  8
HILFSLINIE
 10
     874.133301
 20
    1064.471680
 30
       0.000000
  0
VERTEX
  8
HILFSLINIE
 10
     982.620789
 20
    1064.537354
 30
       0.000000
  0
VERTEX
  8
HILFSLINIE
 10
     982.633301
 20
    1064.537354
 30
       0.000000
  0
SEQEND
  8
HILFSLINIE
  0
POLYLINE
  8
HILFSLINIE
 66
     1
 10
       0.000000
 20
       0.000000
 30
       0.000000
  0
VERTEX
  8
HILFSLINIE
 10
     249.580444
 20
    1061.538696
 30
       0.000000
  0
VERTEX
  8
HILFSLINIE
 10
     244.738953
 20
    1061.255981
 30
       0.000000
  0
VERTEX
  8
HILFSLINIE
 10
     240.076782
 20
    1060.424927
 30
       0.000000
  0
VERTEX
  8
HILFSLINIE
 10
     235.764404
 20
    1058.997314
 30
       0.000000
  0
VERTEX
  8
HILFSLINIE
 10
     231.926086
 20
    1057.003174
 30
       0.000000
  0
VERTEX
  8
HILFSLINIE
 10
     228.593628
 20
    1054.519531
 30
       0.000000
  0
VERTEX
  8
HILFSLINIE
 10
     225.736877
 20
    1051.627319
 30
       0.000000
  0
VERTEX
  8
HILFSLINIE
 10
     223.309265
 20
    1048.397095
 30
       0.000000
  0
VERTEX
  8
HILFSLINIE
 10
     221.260681
 20
    1044.877930
 30
       0.000000
  0
VERTEX
  8
HILFSLINIE
 10
     219.048035
 20
    1039.798462
 30
       0.000000
  0
VERTEX
  8
HILFSLINIE
 10
     217.356934
 20
    1034.333618
 30
       0.000000
  0
VERTEX
  8
HILFSLINIE
 10
     216.118530
 20
    1028.522339
 30
       0.000000
  0
VERTEX
  8
HILFSLINIE
 10
     215.448364
 20
    1023.956665
 30
       0.000000
  0
VERTEX
  8
HILFSLINIE
 10
     214.969482
 20
    1019.229614
 30
       0.000000
  0
VERTEX
  8
HILFSLINIE
 10
     214.656311
 20
    1014.368774
 30
       0.000000
  0
VERTEX
  8
HILFSLINIE
 10
     214.490845
 20
    1009.428345
 30
       0.000000
  0
SEQEND
  8
HILFSLINIE
  0
POLYLINE
  8
HILFSLINIE
 66
     1
 10
       0.000000
 20
       0.000000
 30
       0.000000
  0
VERTEX
  8
HILFSLINIE
 10
     249.580383
 20
    1061.538696
 30
       0.000000
  0
VERTEX
  8
HILFSLINIE
 10
     457.721008
 20
    1062.999756
 30
       0.000000
  0
VERTEX
  8
HILFSLINIE
 10
     665.929199
 20
    1063.977539
 30
       0.000000
  0
VERTEX
  8
HILFSLINIE
 10
     874.133301
 20
    1064.471680
 30
       0.000000
  0
SEQEND
  8
HILFSLINIE
  0
POLYLINE
  8
HILFSLINIE
 66
     1
 10
       0.000000
 20
       0.000000
 30
       0.000000
  0
VERTEX
  8
HILFSLINIE
 10
     214.490845
 20
     450.819214
 30
       0.000000
  0
VERTEX
  8
HILFSLINIE
 10
     214.651611
 20
     445.976685
 30
       0.000000
  0
VERTEX
  8
HILFSLINIE
 10
     214.956482
 20
     441.178833
 30
       0.000000
  0
VERTEX
  8
HILFSLINIE
 10
     215.425598
 20
     436.477905
 30
       0.000000
  0
VERTEX
  8
HILFSLINIE
 10
     216.088135
 20
     431.902222
 30
       0.000000
  0
VERTEX
  8
HILFSLINIE
 10
     217.323181
 20
     426.045532
 30
       0.000000
  0
VERTEX
  8
HILFSLINIE
 10
     219.021912
 20
     420.520386
 30
       0.000000
  0
VERTEX
  8
HILFSLINIE
 10
     221.254333
 20
     415.382202
 30
       0.000000
  0
VERTEX
  8
HILFSLINIE
 10
     223.323853
 20
     411.828491
 30
       0.000000
  0
VERTEX
  8
HILFSLINIE
 10
     225.773804
 20
     408.577515
 30
       0.000000
  0
VERTEX
  8
HILFSLINIE
 10
     228.648315
 20
     405.680542
 30
       0.000000
  0
VERTEX
  8
HILFSLINIE
 10
     231.984314
 20
     403.208130
 30
       0.000000
  0
VERTEX
  8
HILFSLINIE
 10
     235.806091
 20
     401.233032
 30
       0.000000
  0
VERTEX
  8
HILFSLINIE
 10
     240.087036
 20
     399.820190
 30
       0.000000
  0
VERTEX
  8
HILFSLINIE
 10
     244.726135
 20
     398.993286
 30
       0.000000
  0
VERTEX
  8
HILFSLINIE
 10
     249.580444
 20
     398.709106
 30
       0.000000
  0
SEQEND
  8
HILFSLINIE
  0
POLYLINE
  8
HILFSLINIE
 66
     1
 10
       0.000000
 20
       0.000000
 30
       0.000000
  0
VERTEX
  8
HILFSLINIE
 10
     249.580383
 20
     398.709106
 30
       0.000000
  0
VERTEX
  8
HILFSLINIE
 10
     493.885681
 20
     397.043335
 30
       0.000000
  0
VERTEX
  8
HILFSLINIE
 10
     738.259766
 20
     396.043823
 30
       0.000000
  0
VERTEX
  8
HILFSLINIE
 10
     982.633301
 20
     395.710327
 30
       0.000000
  0
SEQEND
  8
HILFSLINIE
  0
POLYLINE
  8
HILFSLINIE
 66
     1
 10
       0.000000
 20
       0.000000
 30
       0.000000
  0
VERTEX
  8
HILFSLINIE
 10
    1715.686157
 20
     398.709106
 30
       0.000000
  0
VERTEX
  8
HILFSLINIE
 10
    1471.380859
 20
     397.043335
 30
       0.000000
  0
VERTEX
  8
HILFSLINIE
 10
    1227.006836
 20
     396.043823
 30
       0.000000
  0
VERTEX
  8
HILFSLINIE
 10
     982.633301
 20
     395.710327
 30
       0.000000
  0
SEQEND
  8
HILFSLINIE
  0
POLYLINE
  8
HILFSLINIE
 66
     1
 10
       0.000000
 20
       0.000000
 30
       0.000000
  0
VERTEX
  8
HILFSLINIE
 10
    1750.775757
 20
     450.819214
 30
       0.000000
  0
VERTEX
  8
HILFSLINIE
 10
    1750.614990
 20
     445.976685
 30
       0.000000
  0
VERTEX
  8
HILFSLINIE
 10
    1750.310059
 20
     441.178833
 30
       0.000000
  0
VERTEX
  8
HILFSLINIE
 10
    1749.840942
 20
     436.477905
 30
       0.000000
  0
VERTEX
  8
HILFSLINIE
 10
    1749.178467
 20
     431.902222
 30
       0.000000
  0
VERTEX
  8
HILFSLINIE
 10
    1747.943359
 20
     426.045532
 30
       0.000000
  0
VERTEX
  8
HILFSLINIE
 10
    1746.244629
 20
     420.520386
 30
       0.000000
  0
VERTEX
  8
HILFSLINIE
 10
    1744.012207
 20
     415.382202
 30
       0.000000
  0
VERTEX
  8
HILFSLINIE
 10
    1741.942749
 20
     411.828491
 30
       0.000000
  0
VERTEX
  8
HILFSLINIE
 10
    1739.492798
 20
     408.577515
 30
       0.000000
  0
VERTEX
  8
HILFSLINIE
 10
    1736.618286
 20
     405.680542
 30
       0.000000
  0
VERTEX
  8
HILFSLINIE
 10
    1733.282227
 20
     403.208130
 30
       0.000000
  0
VERTEX
  8
HILFSLINIE
 10
    1729.460449
 20
     401.233032
 30
       0.000000
  0
VERTEX
  8
HILFSLINIE
 10
    1725.179565
 20
     399.820190
 30
       0.000000
  0
VERTEX
  8
HILFSLINIE
 10
    1720.540405
 20
     398.993286
 30
       0.000000
  0
VERTEX
  8
HILFSLINIE
 10
    1715.686157
 20
     398.709106
 30
       0.000000
  0
SEQEND
  8
HILFSLINIE
  0
POLYLINE
  8
HILFSLINIE
 66
     1
 10
       0.000000
 20
       0.000000
 30
       0.000000
  0
VERTEX
  8
HILFSLINIE
 10
    1750.775879
 20
     450.818970
 30
       0.000000
  0
VERTEX
  8
HILFSLINIE
 10
    1752.754272
 20
     590.408569
 30
       0.000000
  0
VERTEX
  8
HILFSLINIE
 10
    1753.414795
 20
     730.119019
 30
       0.000000
  0
VERTEX
  8
HILFSLINIE
 10
    1753.121216
 20
     823.268677
 30
       0.000000
  0
VERTEX
  8
HILFSLINIE
 10
    1752.240967
 20
     916.381226
 30
       0.000000
  0
VERTEX
  8
HILFSLINIE
 10
    1750.775879
 20
    1009.428345
 30
       0.000000
  0
SEQEND
  8
HILFSLINIE
  0
POLYLINE
  8
HILFSLINIE
 66
     1
 10
       0.000000
 20
       0.000000
 30
       0.000000
  0
VERTEX
  8
HILFSLINIE
 10
    1715.686157
 20
    1061.538696
 30
       0.000000
  0
VERTEX
  8
HILFSLINIE
 10
    1720.527588
 20
    1061.255981
 30
       0.000000
  0
VERTEX
  8
HILFSLINIE
 10
    1725.189819
 20
    1060.424927
 30
       0.000000
  0
VERTEX
  8
HILFSLINIE
 10
    1729.502197
 20
    1058.997314
 30
       0.000000
  0
VERTEX
  8
HILFSLINIE
 10
    1733.340454
 20
    1057.003174
 30
       0.000000
  0
VERTEX
  8
HILFSLINIE
 10
    1736.672974
 20
    1054.519531
 30
       0.000000
  0
VERTEX
  8
HILFSLINIE
 10
    1739.529663
 20
    1051.627319
 30
       0.000000
  0
VERTEX
  8
HILFSLINIE
 10
    1741.957275
 20
    1048.397095
 30
       0.000000
  0
VERTEX
  8
HILFSLINIE
 10
    1744.005859
 20
    1044.877930
 30
       0.000000
  0
VERTEX
  8
HILFSLINIE
 10
    1746.218506
 20
    1039.798462
 30
       0.000000
  0
VERTEX
  8
HILFSLINIE
 10
    1747.909668
 20
    1034.333618
 30
       0.000000
  0
VERTEX
  8
HILFSLINIE
 10
    1749.148071
 20
    1028.522339
 30
       0.000000
  0
VERTEX
  8
HILFSLINIE
 10
    1749.818237
 20
    1023.956665
 30
       0.000000
  0
VERTEX
  8
HILFSLINIE
 10
    1750.297119
 20
    1019.229614
 30
       0.000000
  0
VERTEX
  8
HILFSLINIE
 10
    1750.610229
 20
    1014.368774
 30
       0.000000
  0
VERTEX
  8
HILFSLINIE
 10
    1750.775757
 20
    1009.428345
 30
       0.000000
  0
SEQEND
  8
HILFSLINIE
  0
POLYLINE
  8
HILFSLINIE
 66
     1
 10
       0.000000
 20
       0.000000
 30
       0.000000
  0
VERTEX
  8
HILFSLINIE
 10
    1715.686157
 20
    1061.538696
 30
       0.000000
  0
VERTEX
  8
HILFSLINIE
 10
    1507.545654
 20
    1062.999756
 30
       0.000000
  0
VERTEX
  8
HILFSLINIE
 10
    1299.337402
 20
    1063.977539
 30
       0.000000
  0
VERTEX
  8
HILFSLINIE
 10
    1091.133301
 20
    1064.471680
 30
       0.000000
  0
SEQEND
  8
HILFSLINIE
  0
LINE
  8
MITTELLINIE
 10
    1882.633301
 20
     730.123901
 11
      82.633301
 21
     730.123901
  0
LINE
  8
MITTELLINIE
 10
     982.633301
 20
     330.123901
 11
     982.633301
 21
    1130.123901
  0
LINE
  8
MITTELLINIE
 10
     982.633301
 20
    1830.123901
 11
     982.633301
 21
    1409.916138
  0
LINE
  8
MITTELLINIE
 10
    2682.633301
 20
    1830.123901
 11
    2682.633301
 21
    1380.123901
  0
LINE
  8
MITTELLINIE
 10
    1019.433350
 20
     405.313904
 11
     945.833313
 21
     405.313904
  0
LINE
  8
MITTELLINIE
 10
     942.383301
 20
    1765.123901
 11
    1022.883301
 21
    1765.123901
  0
CIRCLE
  8
MITTELLINIE
 10
     982.633301
 20
    1765.123901
 40
      26.000000
  0
ARC
  8
ENTWURFSLINIE
 10
   -4021.048340
 20
    3322.282959
 40
    7200.000000
 50
     347.832611
 51
     348.039093
  0
ARC
  8
ENTWURFSLINIE
 10
    9386.316406
 20
    3322.282959
 40
    7200.000000
 50
     191.960907
 51
     192.167358
  0
LINE
  8
SICHTBARE_KANTE
 10
     105.633301
 20
    1130.123901
 11
    1859.633301
 21
    1130.123901
  0
LINE
  8
SICHTBARE_KANTE
 10
    1859.633301
 20
     330.123901
 11
     105.633301
 21
     330.123901
  0
LINE
  8
SICHTBARE_KANTE
 10
      82.633301
 20
     353.123901
 11
      82.633301
 21
    1107.123901
  0
LINE
  8
SICHTBARE_KANTE
 10
    1882.633301
 20
     353.123901
 11
    1882.633301
 21
    1107.123901
  0
LINE
  8
SICHTBARE_KANTE
 10
      88.632568
 20
    1830.123901
 11
    1876.633301
 21
    1830.123901
  0
LINE
  8
SICHTBARE_KANTE
 10
      97.633057
 20
    1798.123901
 11
      97.633057
 21
    1801.123901
  0
LINE
  8
SICHTBARE_KANTE
 10
      88.633057
 20
    1798.123901
 11
      97.633057
 21
    1798.123901
  0
LINE
  8
SICHTBARE_KANTE
 10
      82.633057
 20
    1824.123901
 11
      82.633057
 21
    1804.123901
  0
LINE
  8
SICHTBARE_KANTE
 10
      88.820862
 20
    1830.120972
 11
     127.146973
 21
    1828.917358
  0
LINE
  8
SICHTBARE_KANTE
 10
    1867.633545
 20
    1798.123901
 11
    1867.633545
 21
    1800.873901
  0
LINE
  8
SICHTBARE_KANTE
 10
    1876.633545
 20
    1798.123901
 11
    1867.633545
 21
    1798.123901
  0
LINE
  8
SICHTBARE_KANTE
 10
    1882.633545
 20
    1824.123901
 11
    1882.633545
 21
    1804.123901
  0
LINE
  8
SICHTBARE_KANTE
 10
    1876.445801
 20
    1830.120972
 11
    1838.119629
 21
    1828.917358
  0
LINE
  8
SICHTBARE_KANTE
 10
    3082.633301
 20
    1804.123901
 11
    3082.633301
 21
    1824.123901
  0
LINE
  8
SICHTBARE_KANTE
 10
    3076.633789
 20
    1830.123901
 11
    2288.632812
 21
    1830.123901
  0
LINE
  8
SICHTBARE_KANTE
 10
    3076.633301
 20
    1798.123901
 11
    3067.633301
 21
    1798.123901
  0
LINE
  8
SICHTBARE_KANTE
 10
    3067.633301
 20
    1798.123901
 11
    3067.633301
 21
    1800.873901
  0
LINE
  8
SICHTBARE_KANTE
 10
    3044.887695
 20
    1828.384644
 11
    3076.303955
 21
    1830.114868
  0
LINE
  8
SICHTBARE_KANTE
 10
    2282.633301
 20
    1804.123901
 11
    2282.633301
 21
    1824.123901
  0
LINE
  8
SICHTBARE_KANTE
 10
    2288.633301
 20
    1798.123901
 11
    2297.633301
 21
    1798.123901
  0
LINE
  8
SICHTBARE_KANTE
 10
    2297.633301
 20
    1798.123901
 11
    2297.633301
 21
    1800.873901
  0
LINE
  8
SICHTBARE_KANTE
 10
    2320.378906
 20
    1828.384644
 11
    2288.962646
 21
    1830.114868
  0
LINE
  8
SICHTBARE_KANTE
 10
    1876.539917
 20
    1827.122437
 11
    1838.213623
 21
    1825.918823
  0
LINE
  8
SICHTBARE_KANTE
 10
    1879.633545
 20
    1824.123901
 11
    1879.633545
 21
    1804.123901
  0
LINE
  8
SICHTBARE_KANTE
 10
    1876.633545
 20
    1801.123901
 11
    1867.633545
 21
    1801.123901
  0
LINE
  8
SICHTBARE_KANTE
 10
      88.726685
 20
    1827.122437
 11
     127.052795
 21
    1825.918823
  0
LINE
  8
SICHTBARE_KANTE
 10
      85.633057
 20
    1824.123901
 11
      85.633057
 21
    1804.123901
  0
LINE
  8
SICHTBARE_KANTE
 10
      88.633057
 20
    1801.123901
 11
      97.633057
 21
    1801.123901
  0
LINE
  8
SICHTBARE_KANTE
 10
    2320.214111
 20
    1825.389771
 11
    2288.797607
 21
    1827.119995
  0
LINE
  8
SICHTBARE_KANTE
 10
    2285.633301
 20
    1804.123901
 11
    2285.633301
 21
    1824.123901
  0
LINE
  8
SICHTBARE_KANTE
 10
    2288.633301
 20
    1801.123901
 11
    2297.633301
 21
    1801.123901
  0
LINE
  8
SICHTBARE_KANTE
 10
    3045.052734
 20
    1825.389160
 11
    3076.468994
 21
    1827.119385
  0
LINE
  8
SICHTBARE_KANTE
 10
    3079.633301
 20
    1804.123901
 11
    3079.633301
 21
    1824.123901
  0
LINE
  8
SICHTBARE_KANTE
 10
    3076.633301
 20
    1801.123901
 11
    3067.633301
 21
    1801.123901
  0
LINE
  8
SICHTBARE_KANTE
 10
    2880.492432
 20
    1427.882935
 11
    2870.671875
 21
    1426.961304
  0
LINE
  8
SICHTBARE_KANTE
 10
    2718.917969
 20
    1414.030396
 11
    2718.754639
 21
    1413.747681
  0
LINE
  8
SICHTBARE_KANTE
 10
    2716.320068
 20
    1415.530396
 11
    2716.156738
 21
    1415.247681
  0
LINE
  8
SICHTBARE_KANTE
 10
    2708.633301
 20
    1412.747681
 11
    2708.633301
 21
    1409.747681
  0
LINE
  8
SICHTBARE_KANTE
 10
    2484.774170
 20
    1427.882935
 11
    2494.594482
 21
    1426.961304
  0
LINE
  8
SICHTBARE_KANTE
 10
    2646.348633
 20
    1414.030396
 11
    2646.511963
 21
    1413.747681
  0
LINE
  8
SICHTBARE_KANTE
 10
    2648.946533
 20
    1415.530396
 11
    2649.109863
 21
    1415.247681
  0
LINE
  8
SICHTBARE_KANTE
 10
    2656.633301
 20
    1412.747681
 11
    2656.633301
 21
    1409.747681
  0
LINE
  8
SICHTBARE_KANTE
 10
    2653.440186
 20
    1409.747681
 11
    2711.826416
 21
    1409.747681
  0
LINE
  8
SICHTBARE_KANTE
 10
    2653.440186
 20
    1412.747681
 11
    2711.826416
 21
    1412.747681
  0
LINE
  8
SICHTBARE_KANTE
 10
    1606.000854
 20
    1515.093628
 11
    1599.948975
 21
    1504.984741
  0
LINE
  8
SICHTBARE_KANTE
 10
    1035.065796
 20
    1418.902588
 11
    1499.711792
 21
    1431.069702
  0
LINE
  8
SICHTBARE_KANTE
 10
    1025.538452
 20
    1421.696167
 11
    1026.449463
 21
    1421.696167
  0
LINE
  8
SICHTBARE_KANTE
 10
    1034.987183
 20
    1421.901489
 11
    1499.633301
 21
    1434.068726
  0
LINE
  8
SICHTBARE_KANTE
 10
    1026.449463
 20
    1421.696167
 11
    1034.987183
 21
    1421.901489
  0
LINE
  8
SICHTBARE_KANTE
 10
    1016.320068
 20
    1415.699097
 11
    1016.156616
 21
    1415.416138
  0
LINE
  8
SICHTBARE_KANTE
 10
    1008.633301
 20
    1412.916138
 11
    1008.633301
 21
    1409.916138
  0
LINE
  8
SICHTBARE_KANTE
 10
    1018.918091
 20
    1414.199097
 11
    1018.754761
 21
    1413.916138
  0
LINE
  8
SICHTBARE_KANTE
 10
    1026.515137
 20
    1418.696899
 11
    1035.065796
 21
    1418.902588
  0
LINE
  8
SICHTBARE_KANTE
 10
     930.200867
 20
    1418.902588
 11
     465.554749
 21
    1431.069702
  0
LINE
  8
SICHTBARE_KANTE
 10
     939.728149
 20
    1421.696167
 11
     938.817200
 21
    1421.696167
  0
LINE
  8
SICHTBARE_KANTE
 10
     930.279419
 20
    1421.901489
 11
     465.633301
 21
    1434.068726
  0
LINE
  8
SICHTBARE_KANTE
 10
     938.817200
 20
    1421.696167
 11
     930.279419
 21
    1421.901489
  0
LINE
  8
SICHTBARE_KANTE
 10
     948.946594
 20
    1415.699097
 11
     949.109924
 21
    1415.416138
  0
LINE
  8
SICHTBARE_KANTE
 10
     956.633301
 20
    1412.916138
 11
     956.633301
 21
    1409.916138
  0
LINE
  8
SICHTBARE_KANTE
 10
     946.348511
 20
    1414.199097
 11
     946.511841
 21
    1413.916138
  0
LINE
  8
SICHTBARE_KANTE
 10
     938.751465
 20
    1418.696899
 11
     930.200867
 21
    1418.902588
  0
LINE
  8
SICHTBARE_KANTE
 10
     953.440063
 20
    1409.916138
 11
    1011.826538
 21
    1409.916138
  0
LINE
  8
SICHTBARE_KANTE
 10
     953.440063
 20
    1412.916138
 11
    1011.826538
 21
    1412.916138
  0
LINE
  8
SICHTBARE_KANTE
 10
    2416.234375
 20
    1505.605347
 11
    2418.731201
 21
    1495.944092
  0
LINE
  8
SICHTBARE_KANTE
 10
    2416.239502
 20
    1505.605347
 11
    2414.154053
 21
    1513.368896
  0
LINE
  8
SICHTBARE_KANTE
 10
    2417.058350
 20
    1514.121460
 11
    2419.137451
 21
    1506.362061
  0
LINE
  8
SICHTBARE_KANTE
 10
    2946.129150
 20
    1506.362061
 11
    2948.209229
 21
    1514.121216
  0
LINE
  8
SICHTBARE_KANTE
 10
    2949.032227
 20
    1505.605347
 11
    2951.113037
 21
    1513.367920
  0
ARC
  8
SICHTBARE_KANTE
 10
     105.633301
 20
    1107.123901
 40
      23.000000
 50
      90.000000
 51
     180.000000
  0
ARC
  8
SICHTBARE_KANTE
 10
     105.633301
 20
     353.123901
 40
      23.000000
 50
     180.000000
 51
     270.000000
  0
ARC
  8
SICHTBARE_KANTE
 10
    1859.633301
 20
    1107.123901
 40
      23.000000
 50
       0.000000
 51
      90.000000
  0
ARC
  8
SICHTBARE_KANTE
 10
    1859.633301
 20
     353.123901
 40
      23.000000
 50
     270.000000
 51
       0.000000
  0
ARC
  8
SICHTBARE_KANTE
 10
      88.632568
 20
    1804.123413
 40
       5.999504
 50
     179.995331
 51
     270.004669
  0
ARC
  8
SICHTBARE_KANTE
 10
      88.632568
 20
    1824.124390
 40
       5.999504
 50
      88.201492
 51
     180.004654
  0
ARC
  8
SICHTBARE_KANTE
 10
    7652.787109
 20
    5885.587891
 40
    8500.000000
 50
     208.902985
 51
     211.222656
  0
ARC
  8
SICHTBARE_KANTE
 10
     124.008240
 20
    1728.966675
 40
     100.000000
 50
      28.902962
 51
      88.201340
  0
ARC
  8
SICHTBARE_KANTE
 10
    1876.634033
 20
    1804.123413
 40
       5.999504
 50
     269.995331
 51
       0.004663
  0
ARC
  8
SICHTBARE_KANTE
 10
    1876.634033
 20
    1824.124390
 40
       5.999504
 50
     359.995331
 51
      91.797920
  0
ARC
  8
SICHTBARE_KANTE
 10
   -5687.519531
 20
    5885.587891
 40
    8500.000000
 50
     328.777313
 51
     331.096985
  0
ARC
  8
SICHTBARE_KANTE
 10
    1841.258301
 20
    1728.966675
 40
     100.000000
 50
      91.798622
 51
     151.097031
  0
ARC
  8
SICHTBARE_KANTE
 10
    3076.633789
 20
    1824.124390
 40
       5.999504
 50
     359.995331
 51
      93.151505
  0
ARC
  8
SICHTBARE_KANTE
 10
    3076.633789
 20
    1804.123413
 40
       5.999504
 50
     269.995331
 51
       0.004663
  0
ARC
  8
SICHTBARE_KANTE
 10
   -4021.048340
 20
    3322.282959
 40
    7200.000000
 50
     345.455383
 51
     347.832611
  0
ARC
  8
SICHTBARE_KANTE
 10
    3046.537354
 20
    1798.430054
 40
      30.000000
 50
      93.152206
 51
     167.832748
  0
ARC
  8
SICHTBARE_KANTE
 10
    2288.632812
 20
    1824.124390
 40
       5.999504
 50
      86.848488
 51
     180.004654
  0
ARC
  8
SICHTBARE_KANTE
 10
    2288.632812
 20
    1804.123413
 40
       5.999504
 50
     179.995331
 51
     270.004669
  0
ARC
  8
SICHTBARE_KANTE
 10
    9386.316406
 20
    3322.282959
 40
    7200.000000
 50
     192.167358
 51
     194.544586
  0
ARC
  8
SICHTBARE_KANTE
 10
    2318.729248
 20
    1798.430054
 40
      30.000000
 50
      12.167020
 51
      86.847794
  0
ARC
  8
SICHTBARE_KANTE
 10
    2318.729248
 20
    1798.430054
 40
      27.000568
 50
      12.167233
 51
      86.847496
  0
ARC
  8
SICHTBARE_KANTE
 10
    9386.316406
 20
    3322.282959
 40
    7203.000000
 50
     192.167358
 51
     194.544586
  0
ARC
  8
SICHTBARE_KANTE
 10
   -4021.048340
 20
    3322.282959
 40
    7203.000000
 50
     345.455383
 51
     347.832611
  0
ARC
  8
SICHTBARE_KANTE
 10
    3046.537354
 20
    1798.430054
 40
      26.999954
 50
      93.152054
 51
     167.834320
  0
ARC
  8
SICHTBARE_KANTE
 10
     124.008240
 20
    1728.966675
 40
      96.999931
 50
      28.903004
 51
      88.201355
  0
ARC
  8
SICHTBARE_KANTE
 10
    7652.787109
 20
    5885.587891
 40
    8503.000000
 50
     208.902985
 51
     211.222656
  0
ARC
  8
SICHTBARE_KANTE
 10
   -5687.519531
 20
    5885.587891
 40
    8503.000000
 50
     328.777313
 51
     331.097015
  0
ARC
  8
SICHTBARE_KANTE
 10
    1841.258301
 20
    1728.966675
 40
      96.999947
 50
      91.798714
 51
     151.095749
  0
ARC
  8
SICHTBARE_KANTE
 10
    1876.634033
 20
    1824.124390
 40
       2.999512
 50
     359.990662
 51
      91.798065
  0
ARC
  8
SICHTBARE_KANTE
 10
    1876.634033
 20
    1804.123413
 40
       2.999512
 50
     269.990662
 51
       0.009327
  0
ARC
  8
SICHTBARE_KANTE
 10
      88.632568
 20
    1824.124390
 40
       2.999524
 50
      88.201935
 51
     180.009323
  0
ARC
  8
SICHTBARE_KANTE
 10
      88.632568
 20
    1804.123413
 40
       2.999512
 50
     179.990677
 51
     270.009308
  0
ARC
  8
SICHTBARE_KANTE
 10
    2288.632812
 20
    1824.124390
 40
       3.000142
 50
      86.851204
 51
     180.009323
  0
ARC
  8
SICHTBARE_KANTE
 10
    2288.632812
 20
    1804.123413
 40
       2.999512
 50
     179.990677
 51
     270.009308
  0
ARC
  8
SICHTBARE_KANTE
 10
    3076.633789
 20
    1824.124390
 40
       2.999512
 50
     359.990662
 51
      93.149437
  0
ARC
  8
SICHTBARE_KANTE
 10
    3076.633789
 20
    1804.123413
 40
       2.999512
 50
     269.990662
 51
       0.009327
  0
ARC
  8
SICHTBARE_KANTE
 10
    2726.712891
 20
    1409.529419
 40
       9.001084
 50
      91.258888
 51
     149.996826
  0
ARC
  8
SICHTBARE_KANTE
 10
    2711.826416
 20
    1417.748169
 40
       8.000503
 50
     270.000000
 51
     329.997040
  0
ARC
  8
SICHTBARE_KANTE
 10
    2726.712891
 20
    1409.529419
 40
      12.001084
 50
      91.257759
 51
     149.997192
  0
ARC
  8
SICHTBARE_KANTE
 10
    2711.826416
 20
    1417.748169
 40
       5.000496
 50
     270.000000
 51
     329.996277
  0
ARC
  8
SICHTBARE_KANTE
 10
    2638.553711
 20
    1409.529419
 40
       9.001084
 50
      30.003176
 51
      88.741104
  0
ARC
  8
SICHTBARE_KANTE
 10
    2653.440186
 20
    1417.748169
 40
       8.000503
 50
     210.002960
 51
     270.000000
  0
ARC
  8
SICHTBARE_KANTE
 10
    2638.553711
 20
    1409.529419
 40
      12.001084
 50
      30.002800
 51
      88.742233
  0
ARC
  8
SICHTBARE_KANTE
 10
    2653.440186
 20
    1417.748169
 40
       5.000496
 50
     210.003723
 51
     270.000000
  0
ARC
  8
SICHTBARE_KANTE
 10
    1026.713013
 20
    1409.697998
 40
      12.001083
 50
      91.258347
 51
     149.996979
  0
ARC
  8
SICHTBARE_KANTE
 10
    1011.826294
 20
    1417.916626
 40
       5.000498
 50
     270.002777
 51
     329.996277
  0
ARC
  8
SICHTBARE_KANTE
 10
    1011.826294
 20
    1417.916626
 40
       8.000498
 50
     270.001740
 51
     329.997894
  0
ARC
  8
SICHTBARE_KANTE
 10
    1026.713013
 20
    1409.697998
 40
       9.001083
 50
      91.259666
 51
     149.996140
  0
ARC
  8
SICHTBARE_KANTE
 10
     938.553650
 20
    1409.697998
 40
      12.001083
 50
      30.003016
 51
      88.741646
  0
ARC
  8
SICHTBARE_KANTE
 10
     953.440369
 20
    1417.916626
 40
       5.000498
 50
     210.003021
 51
     269.996490
  0
ARC
  8
SICHTBARE_KANTE
 10
     953.440369
 20
    1417.916626
 40
       8.000498
 50
     210.001862
 51
     269.997803
  0
ARC
  8
SICHTBARE_KANTE
 10
     938.553650
 20
    1409.697998
 40
       9.001083
 50
      30.004044
 51
      88.740715
  0
CIRCLE
  8
SICHTBARE_KANTE
 10
     982.633301
 20
     730.123901
 40
      26.000000
  0
POLYLINE
  8
SICHTBARE_KANTE
 66
     1
 10
       0.000000
 20
       0.000000
 30
       0.000000
  0
VERTEX
  8
SICHTBARE_KANTE
 10
    2726.515137
 20
    1418.528320
 30
       0.000000
  0
VERTEX
  8
SICHTBARE_KANTE
 10
    2765.025146
 20
    1419.742432
 30
       0.000000
  0
VERTEX
  8
SICHTBARE_KANTE
 10
    2803.504883
 20
    1421.696777
 30
       0.000000
  0
VERTEX
  8
SICHTBARE_KANTE
 10
    2841.996582
 20
    1424.395264
 30
       0.000000
  0
VERTEX
  8
SICHTBARE_KANTE
 10
    2880.429443
 20
    1427.834473
 30
       0.000000
  0
SEQEND
  8
SICHTBARE_KANTE
  0
POLYLINE
  8
SICHTBARE_KANTE
 66
     1
 10
       0.000000
 20
       0.000000
 30
       0.000000
  0
VERTEX
  8
SICHTBARE_KANTE
 10
    2946.129150
 20
    1506.362061
 30
       0.000000
  0
VERTEX
  8
SICHTBARE_KANTE
 10
    2943.118164
 20
    1494.842285
 30
       0.000000
  0
VERTEX
  8
SICHTBARE_KANTE
 10
    2939.900635
 20
    1483.380127
 30
       0.000000
  0
VERTEX
  8
SICHTBARE_KANTE
 10
    2937.081299
 20
    1474.638428
 30
       0.000000
  0
VERTEX
  8
SICHTBARE_KANTE
 10
    2933.703613
 20
    1466.093872
 30
       0.000000
  0
VERTEX
  8
SICHTBARE_KANTE
 10
    2929.507080
 20
    1457.958252
 30
       0.000000
  0
VERTEX
  8
SICHTBARE_KANTE
 10
    2926.316895
 20
    1453.162842
 30
       0.000000
  0
VERTEX
  8
SICHTBARE_KANTE
 10
    2922.640137
 20
    1448.712036
 30
       0.000000
  0
VERTEX
  8
SICHTBARE_KANTE
 10
    2918.492920
 20
    1444.727661
 30
       0.000000
  0
VERTEX
  8
SICHTBARE_KANTE
 10
    2913.869141
 20
    1441.277466
 30
       0.000000
  0
VERTEX
  8
SICHTBARE_KANTE
 10
    2908.859375
 20
    1438.372070
 30
       0.000000
  0
VERTEX
  8
SICHTBARE_KANTE
 10
    2903.585938
 20
    1436.013062
 30
       0.000000
  0
VERTEX
  8
SICHTBARE_KANTE
 10
    2895.959473
 20
    1433.553101
 30
       0.000000
  0
VERTEX
  8
SICHTBARE_KANTE
 10
    2888.096436
 20
    1431.872925
 30
       0.000000
  0
VERTEX
  8
SICHTBARE_KANTE
 10
    2880.133301
 20
    1430.819824
 30
       0.000000
  0
SEQEND
  8
SICHTBARE_KANTE
  0
POLYLINE
  8
SICHTBARE_KANTE
 66
     1
 10
       0.000000
 20
       0.000000
 30
       0.000000
  0
VERTEX
  8
SICHTBARE_KANTE
 10
    2726.449463
 20
    1421.527588
 30
       0.000000
  0
VERTEX
  8
SICHTBARE_KANTE
 10
    2764.901855
 20
    1422.739868
 30
       0.000000
  0
VERTEX
  8
SICHTBARE_KANTE
 10
    2803.323975
 20
    1424.691284
 30
       0.000000
  0
VERTEX
  8
SICHTBARE_KANTE
 10
    2841.758057
 20
    1427.385742
 30
       0.000000
  0
VERTEX
  8
SICHTBARE_KANTE
 10
    2880.133301
 20
    1430.819824
 30
       0.000000
  0
SEQEND
  8
SICHTBARE_KANTE
  0
POLYLINE
  8
SICHTBARE_KANTE
 66
     1
 10
       0.000000
 20
       0.000000
 30
       0.000000
  0
VERTEX
  8
SICHTBARE_KANTE
 10
    2949.032227
 20
    1505.605347
 30
       0.000000
  0
VERTEX
  8
SICHTBARE_KANTE
 10
    2946.535156
 20
    1495.944092
 30
       0.000000
  0
VERTEX
  8
SICHTBARE_KANTE
 10
    2943.929199
 20
    1486.304688
 30
       0.000000
  0
VERTEX
  8
SICHTBARE_KANTE
 10
    2941.000000
 20
    1476.773560
 30
       0.000000
  0
VERTEX
  8
SICHTBARE_KANTE
 10
    2937.532959
 20
    1467.437500
 30
       0.000000
  0
VERTEX
  8
SICHTBARE_KANTE
 10
    2934.709717
 20
    1461.233398
 30
       0.000000
  0
VERTEX
  8
SICHTBARE_KANTE
 10
    2931.379883
 20
    1455.276733
 30
       0.000000
  0
VERTEX
  8
SICHTBARE_KANTE
 10
    2927.465820
 20
    1449.714844
 30
       0.000000
  0
VERTEX
  8
SICHTBARE_KANTE
 10
    2922.806641
 20
    1444.614624
 30
       0.000000
  0
VERTEX
  8
SICHTBARE_KANTE
 10
    2917.490967
 20
    1440.153564
 30
       0.000000
  0
VERTEX
  8
SICHTBARE_KANTE
 10
    2911.660645
 20
    1436.447021
 30
       0.000000
  0
VERTEX
  8
SICHTBARE_KANTE
 10
    2904.796387
 20
    1433.268799
 30
       0.000000
  0
VERTEX
  8
SICHTBARE_KANTE
 10
    2897.583008
 20
    1430.889648
 30
       0.000000
  0
VERTEX
  8
SICHTBARE_KANTE
 10
    2890.189453
 20
    1429.201538
 30
       0.000000
  0
VERTEX
  8
SICHTBARE_KANTE
 10
    2880.429443
 20
    1427.834473
 30
       0.000000
  0
SEQEND
  8
SICHTBARE_KANTE
  0
POLYLINE
  8
SICHTBARE_KANTE
 66
     1
 10
       0.000000
 20
       0.000000
 30
       0.000000
  0
VERTEX
  8
SICHTBARE_KANTE
 10
    2638.751465
 20
    1418.528320
 30
       0.000000
  0
VERTEX
  8
SICHTBARE_KANTE
 10
    2600.241455
 20
    1419.742432
 30
       0.000000
  0
VERTEX
  8
SICHTBARE_KANTE
 10
    2561.761719
 20
    1421.696777
 30
       0.000000
  0
VERTEX
  8
SICHTBARE_KANTE
 10
    2523.269775
 20
    1424.395264
 30
       0.000000
  0
VERTEX
  8
SICHTBARE_KANTE
 10
    2484.837158
 20
    1427.834473
 30
       0.000000
  0
SEQEND
  8
SICHTBARE_KANTE
  0
POLYLINE
  8
SICHTBARE_KANTE
 66
     1
 10
       0.000000
 20
       0.000000
 30
       0.000000
  0
VERTEX
  8
SICHTBARE_KANTE
 10
    2419.137451
 20
    1506.362061
 30
       0.000000
  0
VERTEX
  8
SICHTBARE_KANTE
 10
    2422.148438
 20
    1494.842285
 30
       0.000000
  0
VERTEX
  8
SICHTBARE_KANTE
 10
    2425.365967
 20
    1483.380127
 30
       0.000000
  0
VERTEX
  8
SICHTBARE_KANTE
 10
    2428.185303
 20
    1474.638428
 30
       0.000000
  0
VERTEX
  8
SICHTBARE_KANTE
 10
    2431.562988
 20
    1466.093872
 30
       0.000000
  0
VERTEX
  8
SICHTBARE_KANTE
 10
    2435.759521
 20
    1457.958252
 30
       0.000000
  0
VERTEX
  8
SICHTBARE_KANTE
 10
    2438.949707
 20
    1453.162842
 30
       0.000000
  0
VERTEX
  8
SICHTBARE_KANTE
 10
    2442.626465
 20
    1448.712036
 30
       0.000000
  0
VERTEX
  8
SICHTBARE_KANTE
 10
    2446.773682
 20
    1444.727661
 30
       0.000000
  0
VERTEX
  8
SICHTBARE_KANTE
 10
    2451.397705
 20
    1441.277466
 30
       0.000000
  0
VERTEX
  8
SICHTBARE_KANTE
 10
    2456.406982
 20
    1438.372070
 30
       0.000000
  0
VERTEX
  8
SICHTBARE_KANTE
 10
    2461.680420
 20
    1436.013062
 30
       0.000000
  0
VERTEX
  8
SICHTBARE_KANTE
 10
    2469.307129
 20
    1433.553101
 30
       0.000000
  0
VERTEX
  8
SICHTBARE_KANTE
 10
    2477.170166
 20
    1431.872925
 30
       0.000000
  0
VERTEX
  8
SICHTBARE_KANTE
 10
    2485.133301
 20
    1430.819824
 30
       0.000000
  0
SEQEND
  8
SICHTBARE_KANTE
  0
POLYLINE
  8
SICHTBARE_KANTE
 66
     1
 10
       0.000000
 20
       0.000000
 30
       0.000000
  0
VERTEX
  8
SICHTBARE_KANTE
 10
    2638.817139
 20
    1421.527588
 30
       0.000000
  0
VERTEX
  8
SICHTBARE_KANTE
 10
    2600.364746
 20
    1422.739868
 30
       0.000000
  0
VERTEX
  8
SICHTBARE_KANTE
 10
    2561.942627
 20
    1424.691284
 30
       0.000000
  0
VERTEX
  8
SICHTBARE_KANTE
 10
    2523.508545
 20
    1427.385742
 30
       0.000000
  0
VERTEX
  8
SICHTBARE_KANTE
 10
    2485.133301
 20
    1430.819824
 30
       0.000000
  0
SEQEND
  8
SICHTBARE_KANTE
  0
POLYLINE
  8
SICHTBARE_KANTE
 66
     1
 10
       0.000000
 20
       0.000000
 30
       0.000000
  0
VERTEX
  8
SICHTBARE_KANTE
 10
    2416.234375
 20
    1505.605347
 30
       0.000000
  0
VERTEX
  8
SICHTBARE_KANTE
 10
    2418.731201
 20
    1495.944092
 30
       0.000000
  0
VERTEX
  8
SICHTBARE_KANTE
 10
    2421.337158
 20
    1486.304688
 30
       0.000000
  0
VERTEX
  8
SICHTBARE_KANTE
 10
    2424.266846
 20
    1476.773560
 30
       0.000000
  0
VERTEX
  8
SICHTBARE_KANTE
 10
    2427.733643
 20
    1467.437500
 30
       0.000000
  0
VERTEX
  8
SICHTBARE_KANTE
 10
    2430.556885
 20
    1461.233398
 30
       0.000000
  0
VERTEX
  8
SICHTBARE_KANTE
 10
    2433.886719
 20
    1455.276733
 30
       0.000000
  0
VERTEX
  8
SICHTBARE_KANTE
 10
    2437.800537
 20
    1449.714844
 30
       0.000000
  0
VERTEX
  8
SICHTBARE_KANTE
 10
    2442.460205
 20
    1444.614624
 30
       0.000000
  0
VERTEX
  8
SICHTBARE_KANTE
 10
    2447.775635
 20
    1440.153564
 30
       0.000000
  0
VERTEX
  8
SICHTBARE_KANTE
 10
    2453.605713
 20
    1436.447021
 30
       0.000000
  0
VERTEX
  8
SICHTBARE_KANTE
 10
    2460.469971
 20
    1433.268799
 30
       0.000000
  0
VERTEX
  8
SICHTBARE_KANTE
 10
    2467.683838
 20
    1430.889648
 30
       0.000000
  0
VERTEX
  8
SICHTBARE_KANTE
 10
    2475.076904
 20
    1429.201538
 30
       0.000000
  0
VERTEX
  8
SICHTBARE_KANTE
 10
    2484.837158
 20
    1427.834473
 30
       0.000000
  0
SEQEND
  8
SICHTBARE_KANTE
  0
POLYLINE
  8
SICHTBARE_KANTE
 66
     1
 10
       0.000000
 20
       0.000000
 30
       0.000000
  0
VERTEX
  8
SICHTBARE_KANTE
 10
    1599.987061
 20
    1504.984863
 30
       0.000000
  0
VERTEX
  8
SICHTBARE_KANTE
 10
    1593.664185
 20
    1494.503540
 30
       0.000000
  0
VERTEX
  8
SICHTBARE_KANTE
 10
    1587.171021
 20
    1484.127441
 30
       0.000000
  0
VERTEX
  8
SICHTBARE_KANTE
 10
    1580.309082
 20
    1473.999878
 30
       0.000000
  0
VERTEX
  8
SICHTBARE_KANTE
 10
    1574.694824
 20
    1466.576782
 30
       0.000000
  0
VERTEX
  8
SICHTBARE_KANTE
 10
    1568.591553
 20
    1459.511230
 30
       0.000000
  0
VERTEX
  8
SICHTBARE_KANTE
 10
    1561.946655
 20
    1452.988281
 30
       0.000000
  0
VERTEX
  8
SICHTBARE_KANTE
 10
    1554.708252
 20
    1447.192993
 30
       0.000000
  0
VERTEX
  8
SICHTBARE_KANTE
 10
    1546.464600
 20
    1442.085449
 30
       0.000000
  0
VERTEX
  8
SICHTBARE_KANTE
 10
    1537.632324
 20
    1437.988892
 30
       0.000000
  0
VERTEX
  8
SICHTBARE_KANTE
 10
    1528.419434
 20
    1434.934692
 30
       0.000000
  0
VERTEX
  8
SICHTBARE_KANTE
 10
    1518.978882
 20
    1432.869263
 30
       0.000000
  0
VERTEX
  8
SICHTBARE_KANTE
 10
    1509.373047
 20
    1431.624268
 30
       0.000000
  0
VERTEX
  8
SICHTBARE_KANTE
 10
    1499.711792
 20
    1431.069702
 30
       0.000000
  0
SEQEND
  8
SICHTBARE_KANTE
  0
POLYLINE
  8
SICHTBARE_KANTE
 66
     1
 10
       0.000000
 20
       0.000000
 30
       0.000000
  0
VERTEX
  8
SICHTBARE_KANTE
 10
    1597.415771
 20
    1506.530518
 30
       0.000000
  0
VERTEX
  8
SICHTBARE_KANTE
 10
    1590.833252
 20
    1495.618774
 30
       0.000000
  0
VERTEX
  8
SICHTBARE_KANTE
 10
    1584.054932
 20
    1484.828369
 30
       0.000000
  0
VERTEX
  8
SICHTBARE_KANTE
 10
    1576.848389
 20
    1474.330200
 30
       0.000000
  0
VERTEX
  8
SICHTBARE_KANTE
 10
    1570.871826
 20
    1466.649292
 30
       0.000000
  0
VERTEX
  8
SICHTBARE_KANTE
 10
    1564.310059
 20
    1459.406982
 30
       0.000000
  0
VERTEX
  8
SICHTBARE_KANTE
 10
    1557.122925
 20
    1452.834961
 30
       0.000000
  0
VERTEX
  8
SICHTBARE_KANTE
 10
    1549.270142
 20
    1447.165161
 30
       0.000000
  0
VERTEX
  8
SICHTBARE_KANTE
 10
    1540.802368
 20
    1442.601318
 30
       0.000000
  0
VERTEX
  8
SICHTBARE_KANTE
 10
    1531.804199
 20
    1439.086670
 30
       0.000000
  0
VERTEX
  8
SICHTBARE_KANTE
 10
    1522.497925
 20
    1436.595581
 30
       0.000000
  0
VERTEX
  8
SICHTBARE_KANTE
 10
    1511.127075
 20
    1434.811646
 30
       0.000000
  0
VERTEX
  8
SICHTBARE_KANTE
 10
    1499.633301
 20
    1434.068726
 30
       0.000000
  0
SEQEND
  8
SICHTBARE_KANTE
  0
POLYLINE
  8
SICHTBARE_KANTE
 66
     1
 10
       0.000000
 20
       0.000000
 30
       0.000000
  0
VERTEX
  8
SICHTBARE_KANTE
 10
     367.850769
 20
    1506.530518
 30
       0.000000
  0
VERTEX
  8
SICHTBARE_KANTE
 10
     374.433289
 20
    1495.618774
 30
       0.000000
  0
VERTEX
  8
SICHTBARE_KANTE
 10
     381.211670
 20
    1484.828369
 30
       0.000000
  0
VERTEX
  8
SICHTBARE_KANTE
 10
     388.418152
 20
    1474.330200
 30
       0.000000
  0
VERTEX
  8
SICHTBARE_KANTE
 10
     394.394714
 20
    1466.649292
 30
       0.000000
  0
VERTEX
  8
SICHTBARE_KANTE
 10
     400.956482
 20
    1459.406982
 30
       0.000000
  0
VERTEX
  8
SICHTBARE_KANTE
 10
     408.143677
 20
    1452.834961
 30
       0.000000
  0
VERTEX
  8
SICHTBARE_KANTE
 10
     415.996399
 20
    1447.165161
 30
       0.000000
  0
VERTEX
  8
SICHTBARE_KANTE
 10
     424.464172
 20
    1442.601318
 30
       0.000000
  0
VERTEX
  8
SICHTBARE_KANTE
 10
     433.462402
 20
    1439.086670
 30
       0.000000
  0
VERTEX
  8
SICHTBARE_KANTE
 10
     442.768616
 20
    1436.595581
 30
       0.000000
  0
VERTEX
  8
SICHTBARE_KANTE
 10
     454.139526
 20
    1434.811646
 30
       0.000000
  0
VERTEX
  8
SICHTBARE_KANTE
 10
     465.633301
 20
    1434.068726
 30
       0.000000
  0
SEQEND
  8
SICHTBARE_KANTE
  0
POLYLINE
  8
SICHTBARE_KANTE
 66
     1
 10
       0.000000
 20
       0.000000
 30
       0.000000
  0
VERTEX
  8
SICHTBARE_KANTE
 10
     365.279602
 20
    1504.984863
 30
       0.000000
  0
VERTEX
  8
SICHTBARE_KANTE
 10
     371.602417
 20
    1494.503540
 30
       0.000000
  0
VERTEX
  8
SICHTBARE_KANTE
 10
     378.095520
 20
    1484.127441
 30
       0.000000
  0
VERTEX
  8
SICHTBARE_KANTE
 10
     384.957458
 20
    1473.999878
 30
       0.000000
  0
VERTEX
  8
SICHTBARE_KANTE
 10
     390.571716
 20
    1466.576782
 30
       0.000000
  0
VERTEX
  8
SICHTBARE_KANTE
 10
     396.675110
 20
    1459.511230
 30
       0.000000
  0
VERTEX
  8
SICHTBARE_KANTE
 10
     403.319885
 20
    1452.988281
 30
       0.000000
  0
VERTEX
  8
SICHTBARE_KANTE
 10
     410.558289
 20
    1447.192993
 30
       0.000000
  0
VERTEX
  8
SICHTBARE_KANTE
 10
     418.802002
 20
    1442.085449
 30
       0.000000
  0
VERTEX
  8
SICHTBARE_KANTE
 10
     427.634277
 20
    1437.988892
 30
       0.000000
  0
VERTEX
  8
SICHTBARE_KANTE
 10
     436.847229
 20
    1434.934692
 30
       0.000000
  0
VERTEX
  8
SICHTBARE_KANTE
 10
     446.287720
 20
    1432.869263
 30
       0.000000
  0
VERTEX
  8
SICHTBARE_KANTE
 10
     455.893555
 20
    1431.624268
 30
       0.000000
  0
VERTEX
  8
SICHTBARE_KANTE
 10
     465.554749
 20
    1431.069702
 30
       0.000000
  0
SEQEND
  8
SICHTBARE_KANTE
  0
POLYLINE
  8
SICHTBARE_KANTE
 66
     1
 10
       0.000000
 20
       0.000000
 30
       0.000000
  0
VERTEX
  8
SICHTBARE_KANTE
 10
     982.633301
 20
     409.876587
 30
       0.000000
  0
VERTEX
  8
SICHTBARE_KANTE
 10
     986.965881
 20
     409.796753
 30
       0.000000
  0
VERTEX
  8
SICHTBARE_KANTE
 10
     991.207520
 20
     409.556763
 30
       0.000000
  0
VERTEX
  8
SICHTBARE_KANTE
 10
     995.207397
 20
     409.165405
 30
       0.000000
  0
VERTEX
  8
SICHTBARE_KANTE
 10
     998.847900
 20
     408.631958
 30
       0.000000
  0
VERTEX
  8
SICHTBARE_KANTE
 10
    1002.031372
 20
     407.973999
 30
       0.000000
  0
VERTEX
  8
SICHTBARE_KANTE
 10
    1004.660278
 20
     407.209595
 30
       0.000000
  0
VERTEX
  8
SICHTBARE_KANTE
 10
    1006.668335
 20
     406.361694
 30
       0.000000
  0
VERTEX
  8
SICHTBARE_KANTE
 10
    1007.989258
 20
     405.454468
 30
       0.000000
  0
VERTEX
  8
SICHTBARE_KANTE
 10
    1008.595581
 20
     404.514282
 30
       0.000000
  0
VERTEX
  8
SICHTBARE_KANTE
 10
    1008.459595
 20
     403.567749
 30
       0.000000
  0
VERTEX
  8
SICHTBARE_KANTE
 10
    1007.595703
 20
     402.641724
 30
       0.000000
  0
VERTEX
  8
SICHTBARE_KANTE
 10
    1006.018188
 20
     401.762817
 30
       0.000000
  0
VERTEX
  8
SICHTBARE_KANTE
 10
    1003.781616
 20
     400.954468
 30
       0.000000
  0
VERTEX
  8
SICHTBARE_KANTE
 10
    1000.940430
 20
     400.240356
 30
       0.000000
  0
VERTEX
  8
SICHTBARE_KANTE
 10
     997.583130
 20
     399.639038
 30
       0.000000
  0
VERTEX
  8
SICHTBARE_KANTE
 10
     993.798523
 20
     399.168091
 30
       0.000000
  0
VERTEX
  8
SICHTBARE_KANTE
 10
     989.699219
 20
     398.838989
 30
       0.000000
  0
VERTEX
  8
SICHTBARE_KANTE
 10
     986.199829
 20
     398.682983
 30
       0.000000
  0
VERTEX
  8
SICHTBARE_KANTE
 10
     982.633301
 20
     398.630493
 30
       0.000000
  0
SEQEND
  8
SICHTBARE_KANTE
  0
POLYLINE
  8
SICHTBARE_KANTE
 66
     1
 10
       0.000000
 20
       0.000000
 30
       0.000000
  0
VERTEX
  8
SICHTBARE_KANTE
 10
     982.633301
 20
     406.928101
 30
       0.000000
  0
VERTEX
  8
SICHTBARE_KANTE
 10
     984.280640
 20
     406.935425
 30
       0.000000
  0
VERTEX
  8
SICHTBARE_KANTE
 10
     988.613647
 20
     406.794556
 30
       0.000000
  0
VERTEX
  8
SICHTBARE_KANTE
 10
     992.775696
 20
     406.494995
 30
       0.000000
  0
VERTEX
  8
SICHTBARE_KANTE
 10
     996.651855
 20
     406.047974
 30
       0.000000
  0
VERTEX
  8
SICHTBARE_KANTE
 10
    1000.127319
 20
     405.464478
 30
       0.000000
  0
VERTEX
  8
SICHTBARE_KANTE
 10
    1003.109619
 20
     404.763550
 30
       0.000000
  0
VERTEX
  8
SICHTBARE_KANTE
 10
    1005.506714
 20
     403.963989
 30
       0.000000
  0
VERTEX
  8
SICHTBARE_KANTE
 10
    1007.258911
 20
     403.090698
 30
       0.000000
  0
VERTEX
  8
SICHTBARE_KANTE
 10
    1007.673584
 20
     402.725464
 30
       0.000000
  0
SEQEND
  8
SICHTBARE_KANTE
  0
POLYLINE
  8
SICHTBARE_KANTE
 66
     1
 10
       0.000000
 20
       0.000000
 30
       0.000000
  0
VERTEX
  8
SICHTBARE_KANTE
 10
     982.633301
 20
     409.876587
 30
       0.000000
  0
VERTEX
  8
SICHTBARE_KANTE
 10
     978.300720
 20
     409.796753
 30
       0.000000
  0
VERTEX
  8
SICHTBARE_KANTE
 10
     974.059082
 20
     409.556763
 30
       0.000000
  0
VERTEX
  8
SICHTBARE_KANTE
 10
     970.059204
 20
     409.165405
 30
       0.000000
  0
VERTEX
  8
SICHTBARE_KANTE
 10
     966.418701
 20
     408.631958
 30
       0.000000
  0
VERTEX
  8
SICHTBARE_KANTE
 10
     963.235229
 20
     407.973999
 30
       0.000000
  0
VERTEX
  8
SICHTBARE_KANTE
 10
     960.606323
 20
     407.209595
 30
       0.000000
  0
VERTEX
  8
SICHTBARE_KANTE
 10
     958.598267
 20
     406.361694
 30
       0.000000
  0
VERTEX
  8
SICHTBARE_KANTE
 10
     957.277283
 20
     405.454468
 30
       0.000000
  0
VERTEX
  8
SICHTBARE_KANTE
 10
     956.671082
 20
     404.514282
 30
       0.000000
  0
VERTEX
  8
SICHTBARE_KANTE
 10
     956.807007
 20
     403.567749
 30
       0.000000
  0
VERTEX
  8
SICHTBARE_KANTE
 10
     957.670898
 20
     402.641724
 30
       0.000000
  0
VERTEX
  8
SICHTBARE_KANTE
 10
     959.248352
 20
     401.762817
 30
       0.000000
  0
VERTEX
  8
SICHTBARE_KANTE
 10
     961.484985
 20
     400.954468
 30
       0.000000
  0
VERTEX
  8
SICHTBARE_KANTE
 10
     964.326233
 20
     400.240356
 30
       0.000000
  0
VERTEX
  8
SICHTBARE_KANTE
 10
     967.683472
 20
     399.639038
 30
       0.000000
  0
VERTEX
  8
SICHTBARE_KANTE
 10
     971.468079
 20
     399.168091
 30
       0.000000
  0
VERTEX
  8
SICHTBARE_KANTE
 10
     975.567383
 20
     398.838989
 30
       0.000000
  0
VERTEX
  8
SICHTBARE_KANTE
 10
     979.066772
 20
     398.682983
 30
       0.000000
  0
VERTEX
  8
SICHTBARE_KANTE
 10
     982.633301
 20
     398.630493
 30
       0.000000
  0
SEQEND
  8
SICHTBARE_KANTE
  0
POLYLINE
  8
SICHTBARE_KANTE
 66
     1
 10
       0.000000
 20
       0.000000
 30
       0.000000
  0
VERTEX
  8
SICHTBARE_KANTE
 10
     982.633301
 20
     406.928101
 30
       0.000000
  0
VERTEX
  8
SICHTBARE_KANTE
 10
     980.985962
 20
     406.935425
 30
       0.000000
  0
VERTEX
  8
SICHTBARE_KANTE
 10
     976.652954
 20
     406.794556
 30
       0.000000
  0
VERTEX
  8
SICHTBARE_KANTE
 10
     972.490906
 20
     406.494995
 30
       0.000000
  0
VERTEX
  8
SICHTBARE_KANTE
 10
     968.614746
 20
     406.047974
 30
       0.000000
  0
VERTEX
  8
SICHTBARE_KANTE
 10
     965.139282
 20
     405.464478
 30
       0.000000
  0
VERTEX
  8
SICHTBARE_KANTE
 10
     962.156921
 20
     404.763550
 30
       0.000000
  0
VERTEX
  8
SICHTBARE_KANTE
 10
     959.759949
 20
     403.963989
 30
       0.000000
  0
VERTEX
  8
SICHTBARE_KANTE
 10
     958.007690
 20
     403.090698
 30
       0.000000
  0
VERTEX
  8
SICHTBARE_KANTE
 10
     957.592957
 20
     402.725464
 30
       0.000000
  0
SEQEND
  8
SICHTBARE_KANTE
  0
TEXT
  8
2D-TEXT
 10
    2502.790039
 20
     957.104858
 40
     100.000008
 50
       0.000060
 51
       0.000000
 41
       0.746667
  1
PURO DUO
  7
DIN-6776
 72
     5
 11
    2945.456543
 21
     957.105347
  0
TEXT
  8
2D-TEXT
 10
    3122.634766
 20
     596.790405
 40
      66.666672
 50
       0.000054
 51
       0.000000
 41
       0.910000
  1
420
  7
DIN-6776
 72
     5
 11
    3235.301514
 21
     596.790527
  0
TEXT
  8
2D-TEXT
 10
    2789.300781
 20
     596.790405
 40
      66.666672
 50
       0.000054
 51
       0.000000
 41
       0.910000
  1
800
  7
DIN-6776
 72
     5
 11
    2901.967529
 21
     596.790527
  0
TEXT
  8
2D-TEXT
 10
    2449.301758
 20
     596.790405
 40
      66.666672
 50
       0.000086
 51
       0.000000
 41
       0.910000
  1
1800
  7
DIN-6776
 72
     5
 11
    2594.468506
 21
     596.790649
  0
TEXT
  8
2D-TEXT
 10
    2115.967773
 20
     596.789917
 40
      66.666672
 50
       0.000054
 51
       0.000000
 41
       0.910000
  1
664
  7
DIN-6776
 72
     5
 11
    2228.634521
 21
     596.790039
  0
TEXT
  8
2D-TEXT
 10
    3115.966797
 20
     796.789917
 40
      66.666672
 50
       0.000076
 51
       0.000000
 41
       0.910000
  1
Tiefe
  7
DIN-6776
 72
     5
 11
    3282.800049
 21
     796.790161
  0
TEXT
  8
2D-TEXT
 10
    2782.634277
 20
     796.789917
 40
      66.666672
 50
       0.000065
 51
       0.000000
 41
       0.910000
  1
Breite
  7
DIN-6776
 72
     5
 11
    2981.404297
 21
     796.790161
  0
TEXT
  8
2D-TEXT
 10
    2449.300293
 20
     796.789917
 40
      66.666672
 50
       0.000054
 51
       0.000000
 41
       0.910000
  1
Laenge
  7
DIN-6776
 72
     5
 11
    2691.967041
 21
     796.790161
  0
TEXT
  8
2D-TEXT
 10
    2115.966797
 20
     796.789673
 40
      66.666672
 50
       0.000062
 51
       0.000000
 41
       0.910000
  1
Modell
  7
DIN-6776
 72
     5
 11
    2323.966797
 21
     796.789917
  0
ENDSEC
  0
EOF
