  0
SECTION
  2
HEADER
  9
$ACADVER
  1
AC1018
  9
$ACADMAINTVER
 70
     0
  9
$DWGCODEPAGE
  3
ASCII
  9
$INSBASE
 10
0.0
 20
0.0
 30
0.0
  9
$EXTMIN
 10
1.000000000000000E+20
 20
1.000000000000000E+20
 30
1.000000000000000E+20
  9
$EXTMAX
 10
-1.000000000000000E+20
 20
-1.000000000000000E+20
 30
-1.000000000000000E+20
  9
$LIMMIN
 10
0.0
 20
0.0
  9
$LIMMAX
 10
12.0
 20
9.0
  9
$ORTHOMODE
 70
     0
  9
$REGENMODE
 70
     1
  9
$FILLMODE
 70
     1
  9
$QTEXTMODE
 70
     0
  9
$MIRRTEXT
 70
     1
  9
$LTSCALE
 40
1.0
  9
$ATTMODE
 70
     1
  9
$TEXTSIZE
 40
0.2
  9
$TRACEWID
 40
0.05
  9
$TEXTSTYLE
  7
Standard
  9
$CLAYER
  8
0
  9
$CELTYPE
  6
ByLayer
  9
$CECOLOR
 62
   256
  9
$CELTSCALE
 40
1.0
  9
$DISPSILH
 70
     0
  9
$DIMSCALE
 40
1.0
  9
$DIMASZ
 40
0.18
  9
$DIMEXO
 40
0.0625
  9
$DIMDLI
 40
0.38
  9
$DIMRND
 40
0.0
  9
$DIMDLE
 40
0.0
  9
$DIMEXE
 40
0.18
  9
$DIMTP
 40
0.0
  9
$DIMTM
 40
0.0
  9
$DIMTXT
 40
0.18
  9
$DIMCEN
 40
0.09
  9
$DIMTSZ
 40
0.0
  9
$DIMTOL
 70
     0
  9
$DIMLIM
 70
     0
  9
$DIMTIH
 70
     1
  9
$DIMTOH
 70
     1
  9
$DIMSE1
 70
     0
  9
$DIMSE2
 70
     0
  9
$DIMTAD
 70
     0
  9
$DIMZIN
 70
     0
  9
$DIMBLK
  1

  9
$DIMASO
 70
     1
  9
$DIMSHO
 70
     1
  9
$DIMPOST
  1

  9
$DIMAPOST
  1

  9
$DIMALT
 70
     0
  9
$DIMALTD
 70
     2
  9
$DIMALTF
 40
25.4
  9
$DIMLFAC
 40
1.0
  9
$DIMTOFL
 70
     0
  9
$DIMTVP
 40
0.0
  9
$DIMTIX
 70
     0
  9
$DIMSOXD
 70
     0
  9
$DIMSAH
 70
     0
  9
$DIMBLK1
  1

  9
$DIMBLK2
  1

  9
$DIMSTYLE
  2
Standard
  9
$DIMCLRD
 70
     0
  9
$DIMCLRE
 70
     0
  9
$DIMCLRT
 70
     0
  9
$DIMTFAC
 40
1.0
  9
$DIMGAP
 40
0.09
  9
$DIMJUST
 70
     0
  9
$DIMSD1
 70
     0
  9
$DIMSD2
 70
     0
  9
$DIMTOLJ
 70
     1
  9
$DIMTZIN
 70
     0
  9
$DIMALTZ
 70
     0
  9
$DIMALTTZ
 70
     0
  9
$DIMUPT
 70
     0
  9
$DIMDEC
 70
     4
  9
$DIMTDEC
 70
     4
  9
$DIMALTU
 70
     2
  9
$DIMALTTD
 70
     2
  9
$DIMTXSTY
  7
Standard
  9
$DIMAUNIT
 70
     0
  9
$DIMADEC
 70
     0
  9
$DIMALTRND
 40
0.0
  9
$DIMAZIN
 70
     0
  9
$DIMDSEP
 70
    46
  9
$DIMATFIT
 70
     3
  9
$DIMFRAC
 70
     0
  9
$DIMLDRBLK
  1

  9
$DIMLUNIT
 70
     2
  9
$DIMLWD
 70
    -2
  9
$DIMLWE
 70
    -2
  9
$DIMTMOVE
 70
     0
  9
$LUNITS
 70
     2
  9
$LUPREC
 70
     4
  9
$SKETCHINC
 40
0.1
  9
$FILLETRAD
 40
0.5
  9
$AUNITS
 70
     0
  9
$AUPREC
 70
     0
  9
$MENU
  1
.
  9
$ELEVATION
 40
0.0
  9
$PELEVATION
 40
0.0
  9
$THICKNESS
 40
0.0
  9
$LIMCHECK
 70
     0
  9
$CHAMFERA
 40
0.5
  9
$CHAMFERB
 40
0.5
  9
$CHAMFERC
 40
1.0
  9
$CHAMFERD
 40
0.0
  9
$SKPOLY
 70
     0
  9
$TDCREATE
 40
2454977.720243055
  9
$TDUCREATE
 40
2454977.678576389
  9
$TDUPDATE
 40
2454977.720243067
  9
$TDUUPDATE
 40
2454977.678576401
  9
$TDINDWG
 40
0.0000000116
  9
$TDUSRTIMER
 40
0.0000000116
  9
$USRTIMER
 70
     1
  9
$ANGBASE
 50
0.0
  9
$ANGDIR
 70
     0
  9
$PDMODE
 70
     0
  9
$PDSIZE
 40
0.0
  9
$PLINEWID
 40
0.0
  9
$SPLFRAME
 70
     0
  9
$SPLINETYPE
 70
     6
  9
$SPLINESEGS
 70
     8
  9
$HANDSEED
  5
1ED
  9
$SURFTAB1
 70
     6
  9
$SURFTAB2
 70
     6
  9
$SURFTYPE
 70
     6
  9
$SURFU
 70
     6
  9
$SURFV
 70
     6
  9
$UCSBASE
  2

  9
$UCSNAME
  2

  9
$UCSORG
 10
0.0
 20
0.0
 30
0.0
  9
$UCSXDIR
 10
1.0
 20
0.0
 30
0.0
  9
$UCSYDIR
 10
0.0
 20
1.0
 30
0.0
  9
$UCSORTHOREF
  2

  9
$UCSORTHOVIEW
 70
     0
  9
$UCSORGTOP
 10
0.0
 20
0.0
 30
0.0
  9
$UCSORGBOTTOM
 10
0.0
 20
0.0
 30
0.0
  9
$UCSORGLEFT
 10
0.0
 20
0.0
 30
0.0
  9
$UCSORGRIGHT
 10
0.0
 20
0.0
 30
0.0
  9
$UCSORGFRONT
 10
0.0
 20
0.0
 30
0.0
  9
$UCSORGBACK
 10
0.0
 20
0.0
 30
0.0
  9
$PUCSBASE
  2

  9
$PUCSNAME
  2

  9
$PUCSORG
 10
0.0
 20
0.0
 30
0.0
  9
$PUCSXDIR
 10
1.0
 20
0.0
 30
0.0
  9
$PUCSYDIR
 10
0.0
 20
1.0
 30
0.0
  9
$PUCSORTHOREF
  2

  9
$PUCSORTHOVIEW
 70
     0
  9
$PUCSORGTOP
 10
0.0
 20
0.0
 30
0.0
  9
$PUCSORGBOTTOM
 10
0.0
 20
0.0
 30
0.0
  9
$PUCSORGLEFT
 10
0.0
 20
0.0
 30
0.0
  9
$PUCSORGRIGHT
 10
0.0
 20
0.0
 30
0.0
  9
$PUCSORGFRONT
 10
0.0
 20
0.0
 30
0.0
  9
$PUCSORGBACK
 10
0.0
 20
0.0
 30
0.0
  9
$USERI1
 70
     0
  9
$USERI2
 70
     0
  9
$USERI3
 70
     0
  9
$USERI4
 70
     0
  9
$USERI5
 70
     0
  9
$USERR1
 40
0.0
  9
$USERR2
 40
0.0
  9
$USERR3
 40
0.0
  9
$USERR4
 40
0.0
  9
$USERR5
 40
0.0
  9
$WORLDVIEW
 70
     1
  9
$SHADEDGE
 70
     3
  9
$SHADEDIF
 70
    70
  9
$TILEMODE
 70
     1
  9
$MAXACTVP
 70
    64
  9
$PINSBASE
 10
0.0
 20
0.0
 30
0.0
  9
$PLIMCHECK
 70
     0
  9
$PEXTMIN
 10
1.000000000000000E+20
 20
1.000000000000000E+20
 30
1.000000000000000E+20
  9
$PEXTMAX
 10
-1.000000000000000E+20
 20
-1.000000000000000E+20
 30
-1.000000000000000E+20
  9
$PLIMMIN
 10
0.0
 20
0.0
  9
$PLIMMAX
 10
12.0
 20
9.0
  9
$UNITMODE
 70
     0
  9
$VISRETAIN
 70
     1
  9
$PLINEGEN
 70
     0
  9
$PSLTSCALE
 70
     1
  9
$TREEDEPTH
 70
  3020
  9
$CMLSTYLE
  2
Standard
  9
$CMLJUST
 70
     0
  9
$CMLSCALE
 40
1.0
  9
$PROXYGRAPHICS
 70
     1
  9
$MEASUREMENT
 70
     0
  9
$CELWEIGHT
370
    -1
  9
$ENDCAPS
280
     0
  9
$JOINSTYLE
280
     0
  9
$LWDISPLAY
290
     1
  9
$INSUNITS
 70
     1
  9
$HYPERLINKBASE
  1

  9
$STYLESHEET
  1

  9
$XEDIT
290
     1
  9
$CEPSNTYPE
380
     0
  9
$PSTYLEMODE
290
     1
  9
$FINGERPRINTGUID
  2
{F697762E-EAA6-96D6-3A6F-7554BEEF2C65}
  9
$VERSIONGUID
  2
{FAEB1C32-E019-11D5-929B-00C0DF256EC4}
  9
$EXTNAMES
290
     1
  9
$PSVPSCALE
 40
0.0
  9
$OLESTARTUP
290
     0
  9
$SORTENTS
280
   127
  9
$INDEXCTL
280
     0
  9
$HIDETEXT
280
     1
  9
$XCLIPFRAME
290
     0
  9
$HALOGAP
280
     0
  9
$OBSCOLOR
 70
   257
  9
$OBSLTYPE
280
     0
  9
$INTERSECTIONDISPLAY
280
     0
  9
$INTERSECTIONCOLOR
 70
   257
  9
$DIMASSOC
280
     2
  9
$PROJECTNAME
  1

  0
ENDSEC
  0
SECTION
  2
CLASSES
  0
CLASS
  1
ACDBDICTIONARYWDFLT
  2
AcDbDictionaryWithDefault
  3
ObjectDBX Classes
 90
        0
 91
        3
280
     0
281
     0
  0
CLASS
  1
VISUALSTYLE
  2
AcDbVisualStyle
  3
ObjectDBX Classes
 90
     4095
 91
        3
280
     0
281
     0
  0
ENDSEC
  0
SECTION
  2
TABLES
  0
TABLE
  2
VPORT
  5
8
330
0
100
AcDbSymbolTable
 70
     1
  0
VPORT
  5
29
330
8
100
AcDbSymbolTableRecord
100
AcDbViewportTableRecord
  2
*Active
 70
     0
 10
0.0
 20
0.0
 11
1.0
 21
1.0
 12
0.0
 22
0.0
 13
0.0
 23
0.0
 14
0.5
 24
0.5
 15
0.5
 25
0.5
 16
0.0
 26
0.0
 36
1.0
 17
10.4709526108492
 27
-12.6235616557008
 37
0.0
 40
22.15365979139954
 41
0.8626268955015546
 42
50.0
 43
0.0
 44
0.0
 50
0.0
 51
0.0
 71
     0
 72
   100
 73
     1
 74
     3
 75
     0
 76
     0
 77
     0
 78
     0
281
     0
 65
     1
110
0.0
120
0.0
130
0.0
111
1.0
121
0.0
131
0.0
112
0.0
122
1.0
132
0.0
 79
     0
146
0.0
  0
ENDTAB
  0
TABLE
  2
LTYPE
  5
5
330
0
100
AcDbSymbolTable
 70
     3
  0
LTYPE
  5
14
330
5
100
AcDbSymbolTableRecord
100
AcDbLinetypeTableRecord
  2
ByBlock
 70
     0
  3

 72
    65
 73
     0
 40
0.0
  0
LTYPE
  5
15
330
5
100
AcDbSymbolTableRecord
100
AcDbLinetypeTableRecord
  2
ByLayer
 70
     0
  3

 72
    65
 73
     0
 40
0.0
  0
LTYPE
  5
16
330
5
100
AcDbSymbolTableRecord
100
AcDbLinetypeTableRecord
  2
Continuous
 70
     0
  3
Solid line
 72
    65
 73
     0
 40
0.0
  0
LTYPE
  5
18D
330
5
100
AcDbSymbolTableRecord
100
AcDbLinetypeTableRecord
  2
AI-Linetype-1
 70
     0
  3
Adobe Illustrator Linetype No. 1
 72
    65
 73
     2
 40
0.2116668062491661
 49
0.1058334031245831
 74
     0
 49
-0.1058334031245831
 74
     0
  0
LTYPE
  5
1A4
330
5
100
AcDbSymbolTableRecord
100
AcDbLinetypeTableRecord
  2
AI-Linetype-2
 70
     0
  3
Adobe Illustrator Linetype No. 2
 72
    65
 73
     2
 40
0.2116668062491661
 49
0.1058334031245831
 74
     0
 49
-0.1058334031245831
 74
     0
  0
ENDTAB
  0
TABLE
  2
LAYER
  5
2
330
0
100
AcDbSymbolTable
 70
     3
  0
LAYER
  5
10
330
2
100
AcDbSymbolTableRecord
100
AcDbLayerTableRecord
  2
0
 70
     0
 62
     7
  6
Continuous
370
    -3
390
F
  0
LAYER
  5
3B
330
2
100
AcDbSymbolTableRecord
100
AcDbLayerTableRecord
  2
Livello 1
 70
     0
 62
     7
  6
Continuous
370
    -3
390
F
  0
LAYER
  5
50
330
2
100
AcDbSymbolTableRecord
100
AcDbLayerTableRecord
  2
None
 70
     0
 62
     7
  6
Continuous
370
    -3
390
F
  0
ENDTAB
  0
TABLE
  2
STYLE
  5
3
330
0
100
AcDbSymbolTable
 70
     1
  0
STYLE
  5
11
330
3
100
AcDbSymbolTableRecord
100
AcDbTextStyleTableRecord
  2
Standard
 70
     0
 40
0.0
 41
1.0
 50
0.0
 71
     0
 42
0.2
  3
txt
  4

  0
ENDTAB
  0
TABLE
  2
VIEW
  5
6
330
0
100
AcDbSymbolTable
 70
     0
  0
ENDTAB
  0
TABLE
  2
UCS
  5
7
330
0
100
AcDbSymbolTable
 70
     0
  0
ENDTAB
  0
TABLE
  2
APPID
  5
9
330
0
100
AcDbSymbolTable
 70
     1
  0
APPID
  5
12
330
9
100
AcDbSymbolTableRecord
100
AcDbRegAppTableRecord
  2
ACAD
 70
     0
  0
ENDTAB
  0
TABLE
  2
DIMSTYLE
  5
A
330
0
100
AcDbSymbolTable
 70
     1
100
AcDbDimStyleTable
  0
DIMSTYLE
105
27
330
A
100
AcDbSymbolTableRecord
100
AcDbDimStyleTableRecord
  2
Standard
 70
     0
340
11
  0
ENDTAB
  0
TABLE
  2
BLOCK_RECORD
  5
1
330
0
100
AcDbSymbolTable
 70
     9
  0
BLOCK_RECORD
  5
1F
330
1
100
AcDbSymbolTableRecord
100
AcDbBlockTableRecord
  2
*Model_Space
340
22
  0
BLOCK_RECORD
  5
1B
330
1
100
AcDbSymbolTableRecord
100
AcDbBlockTableRecord
  2
*Paper_Space
340
1E
  0
BLOCK_RECORD
  5
23
330
1
100
AcDbSymbolTableRecord
100
AcDbBlockTableRecord
  2
*Paper_Space0
340
26
  0
BLOCK_RECORD
  5
81
330
1
100
AcDbSymbolTableRecord
100
AcDbBlockTableRecord
  2
block 2
340
0
102
{BLKREFS
331
82
102
}
  0
BLOCK_RECORD
  5
85
330
1
100
AcDbSymbolTableRecord
100
AcDbBlockTableRecord
  2
block 3
340
0
102
{BLKREFS
331
86
102
}
  0
BLOCK_RECORD
  5
A0
330
1
100
AcDbSymbolTableRecord
100
AcDbBlockTableRecord
  2
block 4
340
0
102
{BLKREFS
331
A1
102
}
  0
BLOCK_RECORD
  5
AD
330
1
100
AcDbSymbolTableRecord
100
AcDbBlockTableRecord
  2
block 5
340
0
102
{BLKREFS
331
AE
102
}
  0
BLOCK_RECORD
  5
C0
330
1
100
AcDbSymbolTableRecord
100
AcDbBlockTableRecord
  2
block 6
340
0
102
{BLKREFS
331
C1
102
}
  0
BLOCK_RECORD
  5
CB
330
1
100
AcDbSymbolTableRecord
100
AcDbBlockTableRecord
  2
block 7
340
0
102
{BLKREFS
331
CC
102
}
  0
BLOCK_RECORD
  5
D6
330
1
100
AcDbSymbolTableRecord
100
AcDbBlockTableRecord
  2
block 8
340
0
102
{BLKREFS
331
D7
102
}
  0
BLOCK_RECORD
  5
134
330
1
100
AcDbSymbolTableRecord
100
AcDbBlockTableRecord
  2
block 9
340
0
102
{BLKREFS
331
135
102
}
  0
ENDTAB
  0
ENDSEC
  0
SECTION
  2
BLOCKS
  0
BLOCK
  5
20
330
1F
100
AcDbEntity
  8
0
100
AcDbBlockBegin
  2
*Model_Space
 70
     0
 71
     0
 10
0.0
 20
0.0
 30
0.0
  3
*Model_Space
  1

  0
ENDBLK
  5
21
330
1F
100
AcDbEntity
  8
0
100
AcDbBlockEnd
  0
BLOCK
  5
1C
330
1B
100
AcDbEntity
 67
     1
  8
0
100
AcDbBlockBegin
  2
*Paper_Space
 70
     0
 71
     0
 10
0.0
 20
0.0
 30
0.0
  3
*Paper_Space
  1

  0
ENDBLK
  5
1D
330
1B
100
AcDbEntity
 67
     1
  8
0
100
AcDbBlockEnd
  0
BLOCK
  5
24
330
23
100
AcDbEntity
  8
0
100
AcDbBlockBegin
  2
*Paper_Space0
 70
     0
 71
     0
 10
0.0
 20
0.0
 30
0.0
  3
*Paper_Space0
  1

  0
ENDBLK
  5
25
330
23
100
AcDbEntity
  8
0
100
AcDbBlockEnd
  0
BLOCK
  5
83
330
81
100
AcDbEntity
  8
0
100
AcDbBlockBegin
  2
block 2
 70
     0
 71
     0
 10
0.0
 20
0.0
 30
0.0
  3
block 2
  1

  0
INSERT
  5
86
330
81
100
AcDbEntity
  8
None
100
AcDbBlockReference
  2
block 3
 10
0.0
 20
0.0
 30
0.0
  0
INSERT
  5
C1
330
81
100
AcDbEntity
  8
None
100
AcDbBlockReference
  2
block 6
 10
0.0
 20
0.0
 30
0.0
  0
ENDBLK
  5
84
330
81
100
AcDbEntity
  8
0
100
AcDbBlockEnd
  0
BLOCK
  5
87
330
85
100
AcDbEntity
  8
0
100
AcDbBlockBegin
  2
block 3
 70
     0
 71
     0
 10
0.0
 20
0.0
 30
0.0
  3
block 3
  1

  0
POLYLINE
  5
89
330
85
100
AcDbEntity
  8
None
370
     0
100
AcDb2dPolyline
 66
     1
 10
0.0
 20
0.0
 30
0.0
  0
VERTEX
  5
8A
330
89
100
AcDbEntity
  8
None
370
     0
100
AcDbVertex
100
AcDb2dVertex
 10
2.412739763810889
 20
-3.172418270419021
 30
0.0
  0
VERTEX
  5
8B
330
89
100
AcDbEntity
  8
None
370
     0
100
AcDbVertex
100
AcDb2dVertex
 10
1.124445457221116
 20
-3.172418270419021
 30
0.0
  0
VERTEX
  5
8C
330
89
100
AcDbEntity
  8
None
370
     0
100
AcDbVertex
100
AcDb2dVertex
 10
1.124445457221116
 20
-1.884055061874088
 30
0.0
  0
VERTEX
  5
8D
330
89
100
AcDbEntity
  8
None
370
     0
100
AcDbVertex
100
AcDb2dVertex
 10
2.412739763810889
 20
-1.884055061874088
 30
0.0
  0
VERTEX
  5
8E
330
89
100
AcDbEntity
  8
None
370
     0
100
AcDbVertex
100
AcDb2dVertex
 10
2.412739763810889
 20
-3.172418270419021
 30
0.0
  0
SEQEND
  5
8F
330
89
100
AcDbEntity
  8
None
370
     0
  0
HATCH
  5
90
330
85
100
AcDbEntity
  8
None
 62
   168
420
  1644058
100
AcDbHatch
 10
0.0
 20
0.0
 30
0.0
210
0.0
220
0.0
230
1.0
  2
SOLID
 70
     1
 71
     0
 91
        1
 92
        1
 93
        4
 72
     1
 10
2.412739763810889
 20
-3.172418270419021
 11
1.124445457221116
 21
-3.172418270419021
 72
     1
 10
1.124445457221116
 20
-3.172418270419021
 11
1.124445457221116
 21
-1.884055061874088
 72
     1
 10
1.124445457221116
 20
-1.884055061874088
 11
2.412739763810889
 21
-1.884055061874088
 72
     1
 10
2.412739763810889
 20
-1.884055061874088
 11
2.412739763810889
 21
-3.172418270419021
 97
        0
 75
     2
 76
     1
 98
        0
  0
POLYLINE
  5
91
330
85
100
AcDbEntity
  8
None
 62
   178
420
        0
370
    30
100
AcDb2dPolyline
 66
     1
 10
0.0
 20
0.0
 30
0.0
  0
VERTEX
  5
92
330
91
100
AcDbEntity
  8
None
 62
   178
420
        0
370
    30
100
AcDbVertex
100
AcDb2dVertex
 10
1.540975001647473
 20
-2.742883481956357
 30
0.0
  0
VERTEX
  5
93
330
91
100
AcDbEntity
  8
None
 62
   178
420
        0
370
    30
100
AcDbVertex
100
AcDb2dVertex
 10
1.768661512471161
 20
-2.313486497404012
 30
0.0
  0
VERTEX
  5
94
330
91
100
AcDbEntity
  8
None
 62
   178
420
        0
370
    30
100
AcDbVertex
100
AcDb2dVertex
 10
1.996227444873321
 20
-2.742883481956357
 30
0.0
  0
VERTEX
  5
95
330
91
100
AcDbEntity
  8
None
 62
   178
420
        0
370
    30
100
AcDbVertex
100
AcDb2dVertex
 10
1.540975001647473
 20
-2.742883481956357
 30
0.0
  0
SEQEND
  5
96
330
91
100
AcDbEntity
  8
None
370
    30
  0
HATCH
  5
97
330
85
100
AcDbEntity
  8
None
 62
   168
420
  1644058
100
AcDbHatch
 10
0.0
 20
0.0
 30
0.0
210
0.0
220
0.0
230
1.0
  2
SOLID
 70
     1
 71
     0
 91
        1
 92
        1
 93
        3
 72
     1
 10
1.540975001647473
 20
-2.742883481956357
 11
1.768661512471161
 21
-2.313486497404012
 72
     1
 10
1.768661512471161
 20
-2.313486497404012
 11
1.996227444873321
 21
-2.742883481956357
 72
     1
 10
1.996227444873321
 20
-2.742883481956357
 11
1.540975001647473
 21
-2.742883481956357
 97
        0
 75
     2
 76
     1
 98
        0
  0
POLYLINE
  5
98
330
85
100
AcDbEntity
  8
None
370
     0
100
AcDb2dPolyline
 66
     1
 10
0.0
 20
0.0
 30
0.0
  0
VERTEX
  5
99
330
98
100
AcDbEntity
  8
None
370
     0
100
AcDbVertex
100
AcDb2dVertex
 10
3.804214748251615
 20
-3.172418270419021
 30
0.0
  0
VERTEX
  5
9A
330
98
100
AcDbEntity
  8
None
370
     0
100
AcDbVertex
100
AcDb2dVertex
 10
2.515782637751523
 20
-3.172418270419021
 30
0.0
  0
VERTEX
  5
9B
330
98
100
AcDbEntity
  8
None
370
     0
100
AcDbVertex
100
AcDb2dVertex
 10
2.515782637751523
 20
-1.884055061874088
 30
0.0
  0
VERTEX
  5
9C
330
98
100
AcDbEntity
  8
None
370
     0
100
AcDbVertex
100
AcDb2dVertex
 10
3.804214748251615
 20
-1.884055061874088
 30
0.0
  0
VERTEX
  5
9D
330
98
100
AcDbEntity
  8
None
370
     0
100
AcDbVertex
100
AcDb2dVertex
 10
3.804214748251615
 20
-3.172418270419021
 30
0.0
  0
SEQEND
  5
9E
330
98
100
AcDbEntity
  8
None
370
     0
  0
HATCH
  5
9F
330
85
100
AcDbEntity
  8
None
 62
   168
420
  1644058
100
AcDbHatch
 10
0.0
 20
0.0
 30
0.0
210
0.0
220
0.0
230
1.0
  2
SOLID
 70
     1
 71
     0
 91
        1
 92
        1
 93
        4
 72
     1
 10
3.804214748251615
 20
-3.172418270419021
 11
2.515782637751523
 21
-3.172418270419021
 72
     1
 10
2.515782637751523
 20
-3.172418270419021
 11
2.515782637751523
 21
-1.884055061874088
 72
     1
 10
2.515782637751523
 20
-1.884055061874088
 11
3.804214748251615
 21
-1.884055061874088
 72
     1
 10
3.804214748251615
 20
-1.884055061874088
 11
3.804214748251615
 21
-3.172418270419021
 97
        0
 75
     2
 76
     1
 98
        0
  0
INSERT
  5
A1
330
85
100
AcDbEntity
  8
None
100
AcDbBlockReference
  2
block 4
 10
0.0
 20
0.0
 30
0.0
  0
SPLINE
  5
AC
330
85
100
AcDbEntity
  8
None
370
     0
100
AcDbSpline
210
0.0
220
0.0
230
1.0
 70
    11
 71
     3
 72
    17
 73
    13
 74
     0
 42
0.0000000001
 43
0.0000000001
 40
0.0
 40
0.0
 40
0.0
 40
0.0
 40
1.0
 40
1.0
 40
1.0
 40
2.0
 40
2.0
 40
2.0
 40
3.0
 40
3.0
 40
3.0
 40
4.0
 40
4.0
 40
4.0
 40
4.0
 10
3.202976287532141
 20
-2.27056057933981
 30
0.0
 10
3.202976287532141
 20
-2.294228400937007
 30
0.0
 10
3.183752642042715
 20
-2.313486497404012
 30
0.0
 10
3.15987811458004
 20
-2.313486497404012
 30
0.0
 10
3.136244743960423
 20
-2.313486497404012
 30
0.0
 10
3.117090000426156
 20
-2.294228400937007
 30
0.0
 10
3.117090000426156
 20
-2.27056057933981
 30
0.0
 10
3.117090000426156
 20
-2.246892757742613
 30
0.0
 10
3.136244743960423
 20
-2.227651886764397
 30
0.0
 10
3.15987811458004
 20
-2.227651886764397
 30
0.0
 10
3.183752642042715
 20
-2.227651886764397
 30
0.0
 10
3.202976287532141
 20
-2.246892757742613
 30
0.0
 10
3.202976287532141
 20
-2.27056057933981
 30
0.0
  0
INSERT
  5
AE
330
85
100
AcDbEntity
  8
None
100
AcDbBlockReference
  2
block 5
 10
0.0
 20
0.0
 30
0.0
  0
ENDBLK
  5
88
330
85
100
AcDbEntity
  8
0
100
AcDbBlockEnd
  0
BLOCK
  5
A2
330
A0
100
AcDbEntity
  8
0
100
AcDbBlockBegin
  2
block 4
 70
     0
 71
     0
 10
0.0
 20
0.0
 30
0.0
  3
block 4
  1

  0
POLYLINE
  5
A4
330
A0
100
AcDbEntity
  8
None
 62
   178
420
        0
370
    30
100
AcDb2dPolyline
 66
     1
 10
0.0
 20
0.0
 30
0.0
  0
VERTEX
  5
A5
330
A4
100
AcDbEntity
  8
None
 62
   178
420
        0
370
    30
100
AcDbVertex
100
AcDb2dVertex
 10
2.940356485442722
 20
-2.742883481956357
 30
0.0
  0
VERTEX
  5
A6
330
A4
100
AcDbEntity
  8
None
 62
   178
420
        0
370
    30
100
AcDbVertex
100
AcDb2dVertex
 10
3.369891273905385
 20
-2.313486497404012
 30
0.0
  0
SEQEND
  5
A7
330
A4
100
AcDbEntity
  8
None
370
    30
  0
POLYLINE
  5
A8
330
A0
100
AcDbEntity
  8
None
 62
   178
420
        0
370
    30
100
AcDb2dPolyline
 66
     1
 10
0.0
 20
0.0
 30
0.0
  0
VERTEX
  5
A9
330
A8
100
AcDbEntity
  8
None
 62
   178
420
        0
370
    30
100
AcDbVertex
100
AcDb2dVertex
 10
2.940356485442722
 20
-2.313486497404012
 30
0.0
  0
VERTEX
  5
AA
330
A8
100
AcDbEntity
  8
None
 62
   178
420
        0
370
    30
100
AcDbVertex
100
AcDb2dVertex
 10
3.369891273905385
 20
-2.742883481956357
 30
0.0
  0
SEQEND
  5
AB
330
A8
100
AcDbEntity
  8
None
370
    30
  0
ENDBLK
  5
A3
330
A0
100
AcDbEntity
  8
0
100
AcDbBlockEnd
  0
BLOCK
  5
AF
330
AD
100
AcDbEntity
  8
0
100
AcDbBlockBegin
  2
block 5
 70
     0
 71
     0
 10
0.0
 20
0.0
 30
0.0
  3
block 5
  1

  0
POLYLINE
  5
B1
330
AD
100
AcDbEntity
  8
None
370
     0
100
AcDb2dPolyline
 66
     1
 10
0.0
 20
0.0
 30
0.0
  0
VERTEX
  5
B2
330
B1
100
AcDbEntity
  8
None
370
     0
100
AcDbVertex
100
AcDb2dVertex
 10
5.194931811185589
 20
-3.172418270419021
 30
0.0
  0
VERTEX
  5
B3
330
B1
100
AcDbEntity
  8
None
370
     0
100
AcDbVertex
100
AcDb2dVertex
 10
3.906706406550975
 20
-3.172418270419021
 30
0.0
  0
VERTEX
  5
B4
330
B1
100
AcDbEntity
  8
None
370
     0
100
AcDbVertex
100
AcDb2dVertex
 10
3.906706406550975
 20
-1.884055061874088
 30
0.0
  0
VERTEX
  5
B5
330
B1
100
AcDbEntity
  8
None
370
     0
100
AcDbVertex
100
AcDb2dVertex
 10
5.194931811185589
 20
-1.884055061874088
 30
0.0
  0
VERTEX
  5
B6
330
B1
100
AcDbEntity
  8
None
370
     0
100
AcDbVertex
100
AcDb2dVertex
 10
5.194931811185589
 20
-3.172418270419021
 30
0.0
  0
SEQEND
  5
B7
330
B1
100
AcDbEntity
  8
None
370
     0
  0
HATCH
  5
B8
330
AD
100
AcDbEntity
  8
None
 62
   168
420
  1644058
100
AcDbHatch
 10
0.0
 20
0.0
 30
0.0
210
0.0
220
0.0
230
1.0
  2
SOLID
 70
     1
 71
     0
 91
        1
 92
        1
 93
        4
 72
     1
 10
5.194931811185589
 20
-3.172418270419021
 11
3.906706406550975
 21
-3.172418270419021
 72
     1
 10
3.906706406550975
 20
-3.172418270419021
 11
3.906706406550975
 21
-1.884055061874088
 72
     1
 10
3.906706406550975
 20
-1.884055061874088
 11
5.194931811185589
 21
-1.884055061874088
 72
     1
 10
5.194931811185589
 20
-1.884055061874088
 11
5.194931811185589
 21
-3.172418270419021
 97
        0
 75
     2
 76
     1
 98
        0
  0
POLYLINE
  5
B9
330
AD
100
AcDbEntity
  8
None
 62
   178
420
        0
370
    30
100
AcDb2dPolyline
 66
     1
 10
0.0
 20
0.0
 30
0.0
  0
VERTEX
  5
BA
330
B9
100
AcDbEntity
  8
None
 62
   178
420
        0
370
    30
100
AcDbVertex
100
AcDb2dVertex
 10
4.323218725488543
 20
-2.742883481956357
 30
0.0
  0
VERTEX
  5
BB
330
B9
100
AcDbEntity
  8
None
 62
   178
420
        0
370
    30
100
AcDbVertex
100
AcDb2dVertex
 10
4.550836334357072
 20
-2.313486497404012
 30
0.0
  0
VERTEX
  5
BC
330
B9
100
AcDbEntity
  8
None
 62
   178
420
        0
370
    30
100
AcDbVertex
100
AcDb2dVertex
 10
4.778385041270441
 20
-2.742883481956357
 30
0.0
  0
VERTEX
  5
BD
330
B9
100
AcDbEntity
  8
None
 62
   178
420
        0
370
    30
100
AcDbVertex
100
AcDb2dVertex
 10
4.323218725488543
 20
-2.742883481956357
 30
0.0
  0
SEQEND
  5
BE
330
B9
100
AcDbEntity
  8
None
370
    30
  0
HATCH
  5
BF
330
AD
100
AcDbEntity
  8
None
 62
   168
420
  1644058
100
AcDbHatch
 10
0.0
 20
0.0
 30
0.0
210
0.0
220
0.0
230
1.0
  2
SOLID
 70
     1
 71
     0
 91
        1
 92
        1
 93
        3
 72
     1
 10
4.323218725488543
 20
-2.742883481956357
 11
4.550836334357072
 21
-2.313486497404012
 72
     1
 10
4.550836334357072
 20
-2.313486497404012
 11
4.778385041270441
 21
-2.742883481956357
 72
     1
 10
4.778385041270441
 20
-2.742883481956357
 11
4.323218725488543
 21
-2.742883481956357
 97
        0
 75
     2
 76
     1
 98
        0
  0
ENDBLK
  5
B0
330
AD
100
AcDbEntity
  8
0
100
AcDbBlockEnd
  0
BLOCK
  5
C2
330
C0
100
AcDbEntity
  8
0
100
AcDbBlockBegin
  2
block 6
 70
     0
 71
     0
 10
0.0
 20
0.0
 30
0.0
  3
block 6
  1

  0
POLYLINE
  5
C4
330
C0
100
AcDbEntity
  8
None
 62
     7
420
 16777215
370
     5
100
AcDb2dPolyline
 66
     1
 10
0.0
 20
0.0
 30
0.0
  0
VERTEX
  5
C5
330
C4
100
AcDbEntity
  8
None
 62
     7
420
 16777215
370
     5
100
AcDbVertex
100
AcDb2dVertex
 10
5.270551706972848
 20
-3.172624976284498
 30
0.0
  0
VERTEX
  5
C6
330
C4
100
AcDbEntity
  8
None
 62
     7
420
 16777215
370
     5
100
AcDbVertex
100
AcDb2dVertex
 10
7.086187127373817
 20
-3.172624976284498
 30
0.0
  0
VERTEX
  5
C7
330
C4
100
AcDbEntity
  8
None
 62
     7
420
 16777215
370
     5
100
AcDbVertex
100
AcDb2dVertex
 10
7.086187127373817
 20
-1.884261767739566
 30
0.0
  0
VERTEX
  5
C8
330
C4
100
AcDbEntity
  8
None
 62
     7
420
 16777215
370
     5
100
AcDbVertex
100
AcDb2dVertex
 10
5.270551706972848
 20
-1.884261767739566
 30
0.0
  0
VERTEX
  5
C9
330
C4
100
AcDbEntity
  8
None
 62
     7
420
 16777215
370
     5
100
AcDbVertex
100
AcDb2dVertex
 10
5.270551706972848
 20
-3.172624976284498
 30
0.0
  0
SEQEND
  5
CA
330
C4
100
AcDbEntity
  8
None
370
     5
  0
INSERT
  5
CC
330
C0
100
AcDbEntity
  8
None
100
AcDbBlockReference
  2
block 7
 10
0.0
 20
0.0
 30
0.0
  0
ENDBLK
  5
C3
330
C0
100
AcDbEntity
  8
0
100
AcDbBlockEnd
  0
BLOCK
  5
CD
330
CB
100
AcDbEntity
  8
0
100
AcDbBlockBegin
  2
block 7
 70
     0
 71
     0
 10
0.0
 20
0.0
 30
0.0
  3
block 7
  1

  0
SPLINE
  5
CF
330
CB
100
AcDbEntity
  8
None
370
     0
100
AcDbSpline
210
0.0
220
0.0
230
1.0
 70
    11
 71
     3
 72
    80
 73
    76
 74
     0
 42
0.0000000001
 43
0.0000000001
 40
0.0
 40
0.0
 40
0.0
 40
0.0
 40
1.0
 40
1.0
 40
1.0
 40
2.0
 40
2.0
 40
2.0
 40
3.0
 40
3.0
 40
3.0
 40
4.0
 40
4.0
 40
4.0
 40
5.0
 40
5.0
 40
5.0
 40
6.0
 40
6.0
 40
6.0
 40
7.0
 40
7.0
 40
7.0
 40
8.0
 40
8.0
 40
8.0
 40
9.0
 40
9.0
 40
9.0
 40
10.0
 40
10.0
 40
10.0
 40
11.0
 40
11.0
 40
11.0
 40
12.0
 40
12.0
 40
12.0
 40
13.0
 40
13.0
 40
13.0
 40
14.0
 40
14.0
 40
14.0
 40
15.0
 40
15.0
 40
15.0
 40
16.0
 40
16.0
 40
16.0
 40
17.0
 40
17.0
 40
17.0
 40
18.0
 40
18.0
 40
18.0
 40
19.0
 40
19.0
 40
19.0
 40
20.0
 40
20.0
 40
20.0
 40
21.0
 40
21.0
 40
21.0
 40
22.0
 40
22.0
 40
22.0
 40
23.0
 40
23.0
 40
23.0
 40
24.0
 40
24.0
 40
24.0
 40
25.0
 40
25.0
 40
25.0
 40
25.0
 10
5.887086401737672
 20
-2.247512875339046
 30
0.0
 10
5.883985813755507
 20
-2.263015815249874
 30
0.0
 10
5.88188430412315
 20
-2.280344656972421
 30
0.0
 10
5.88098857870608
 20
-2.299430498551529
 30
0.0
 10
5.880334010132067
 20
-2.312728575897261
 30
0.0
 10
5.880334010132067
 20
-2.330160770552547
 30
0.0
 10
5.88098857870608
 20
-2.351572053118279
 30
0.0
 10
5.881780951190411
 20
-2.379770178267195
 30
0.0
 10
5.882125460966207
 20
-2.397167921944902
 30
0.0
 10
5.882125460966207
 20
-2.403748058662609
 30
0.0
 10
5.882125460966207
 20
-2.467964680871015
 30
0.0
 10
5.868586226777418
 20
-2.518917676711268
 30
0.0
 10
5.841680013287736
 20
-2.55646924227305
 30
0.0
 10
5.809054937519839
 20
-2.601841179745406
 30
0.0
 10
5.757860784836529
 20
-2.624527148481584
 30
0.0
 10
5.688132006215384
 20
-2.624527148481584
 30
0.0
 10
5.669494027344812
 20
-2.624527148481584
 30
0.0
 10
5.649236852527997
 20
-2.621857197719163
 30
0.0
 10
5.62736048176494
 20
-2.616586198149482
 30
0.0
 10
5.581471779628891
 20
-2.605527434346425
 30
0.0
 10
5.549225664614369
 20
-2.5825830832784
 30
0.0
 10
5.53031207792316
 20
-2.547580890057509
 30
0.0
 10
5.515739314406981
 20
-2.520709127545408
 30
0.0
 10
5.508401256182523
 20
-2.484397797176492
 30
0.0
 10
5.508401256182523
 20
-2.438819153838659
 30
0.0
 10
5.508401256182523
 20
-2.438819153838659
 30
0.0
 10
5.508401256182523
 20
-2.182813939444526
 30
0.0
 10
5.508401256182523
 20
-2.182813939444526
 30
0.0
 10
5.508401256182523
 20
-2.182813939444526
 30
0.0
 10
5.656299302931818
 20
-2.182813939444526
 30
0.0
 10
5.656299302931818
 20
-2.182813939444526
 30
0.0
 10
5.656299302931818
 20
-2.182813939444526
 30
0.0
 10
5.656299302931818
 20
-2.227152347589493
 30
0.0
 10
5.656299302931818
 20
-2.227152347589493
 30
0.0
 10
5.623501972276023
 20
-2.227651886764397
 30
0.0
 10
5.605001797315769
 20
-2.231493170764524
 30
0.0
 10
5.600798778051056
 20
-2.238900130944142
 30
0.0
 10
5.598008248867107
 20
-2.244085003069874
 30
0.0
 10
5.596630209763922
 20
-2.260208060577135
 30
0.0
 10
5.596630209763922
 20
-2.28768271519688
 30
0.0
 10
5.596630209763922
 20
-2.28768271519688
 30
0.0
 10
5.596630209763922
 20
-2.416701626232545
 30
0.0
 10
5.596630209763922
 20
-2.416701626232545
 30
0.0
 10
5.596630209763922
 20
-2.462659230323754
 30
0.0
 10
5.603658209190164
 20
-2.497213560836109
 30
0.0
 10
5.617610855109908
 20
-2.520295715814453
 30
0.0
 10
5.635490912473729
 20
-2.549406791869229
 30
0.0
 10
5.665704419811054
 20
-2.563858976963878
 30
0.0
 10
5.708458082987359
 20
-2.563858976963878
 30
0.0
 10
5.760341255222261
 20
-2.563858976963878
 30
0.0
 10
5.794551075958821
 20
-2.540759596496745
 30
0.0
 10
5.811087545197037
 20
-2.494612512028848
 30
0.0
 10
5.819975897412578
 20
-2.469446072906938
 30
0.0
 10
5.824420073520349
 20
-2.425348821605029
 30
0.0
 10
5.824420073520349
 20
-2.362510238499807
 30
0.0
 10
5.824420073520349
 20
-2.301704263071783
 30
0.0
 10
5.822663073663788
 20
-2.26336032502567
 30
0.0
 10
5.818976819062769
 20
-2.247512875339046
 30
0.0
 10
5.817529878004425
 20
-2.24093273862134
 30
0.0
 10
5.81442929002226
 20
-2.23638520958083
 30
0.0
 10
5.809675055116273
 20
-2.233835837239938
 30
0.0
 10
5.802440349824553
 20
-2.23008068068376
 30
0.0
 10
5.783078900424808
 20
-2.227806916163505
 30
0.0
 10
5.7514873539843
 20
-2.227152347589493
 30
0.0
 10
5.7514873539843
 20
-2.227152347589493
 30
0.0
 10
5.7514873539843
 20
-2.182813939444526
 30
0.0
 10
5.7514873539843
 20
-2.182813939444526
 30
0.0
 10
5.7514873539843
 20
-2.182813939444526
 30
0.0
 10
5.946169828286715
 20
-2.182813939444526
 30
0.0
 10
5.946169828286715
 20
-2.182813939444526
 30
0.0
 10
5.946169828286715
 20
-2.182813939444526
 30
0.0
 10
5.946169828286715
 20
-2.227152347589493
 30
0.0
 10
5.946169828286715
 20
-2.227152347589493
 30
0.0
 10
5.909582890097162
 20
-2.227359053454971
 30
0.0
 10
5.889876930921621
 20
-2.234163121526945
 30
0.0
 10
5.887086401737672
 20
-2.247512875339046
 30
0.0
  0
HATCH
  5
D0
330
CB
100
AcDbEntity
  8
None
 62
   168
420
  1644058
100
AcDbHatch
 10
0.0
 20
0.0
 30
0.0
210
0.0
220
0.0
230
1.0
  2
SOLID
 70
     1
 71
     0
 91
        1
 92
        1
 93
        1
 72
     4
 94
        3
 73
     0
 74
     1
 95
       80
 96
       76
 40
0.0
 40
0.0
 40
0.0
 40
0.0
 40
1.0
 40
1.0
 40
1.0
 40
2.0
 40
2.0
 40
2.0
 40
3.0
 40
3.0
 40
3.0
 40
4.0
 40
4.0
 40
4.0
 40
5.0
 40
5.0
 40
5.0
 40
6.0
 40
6.0
 40
6.0
 40
7.0
 40
7.0
 40
7.0
 40
8.0
 40
8.0
 40
8.0
 40
9.0
 40
9.0
 40
9.0
 40
10.0
 40
10.0
 40
10.0
 40
11.0
 40
11.0
 40
11.0
 40
12.0
 40
12.0
 40
12.0
 40
13.0
 40
13.0
 40
13.0
 40
14.0
 40
14.0
 40
14.0
 40
15.0
 40
15.0
 40
15.0
 40
16.0
 40
16.0
 40
16.0
 40
17.0
 40
17.0
 40
17.0
 40
18.0
 40
18.0
 40
18.0
 40
19.0
 40
19.0
 40
19.0
 40
20.0
 40
20.0
 40
20.0
 40
21.0
 40
21.0
 40
21.0
 40
22.0
 40
22.0
 40
22.0
 40
23.0
 40
23.0
 40
23.0
 40
24.0
 40
24.0
 40
24.0
 40
25.0
 40
25.0
 40
25.0
 40
25.0
 10
5.887086401737672
 20
-2.247512875339046
 10
5.883985813755507
 20
-2.263015815249874
 10
5.88188430412315
 20
-2.280344656972421
 10
5.88098857870608
 20
-2.299430498551529
 10
5.880334010132067
 20
-2.312728575897261
 10
5.880334010132067
 20
-2.330160770552547
 10
5.88098857870608
 20
-2.351572053118279
 10
5.881780951190411
 20
-2.379770178267195
 10
5.882125460966207
 20
-2.397167921944902
 10
5.882125460966207
 20
-2.403748058662609
 10
5.882125460966207
 20
-2.467964680871015
 10
5.868586226777418
 20
-2.518917676711268
 10
5.841680013287736
 20
-2.55646924227305
 10
5.809054937519839
 20
-2.601841179745406
 10
5.757860784836529
 20
-2.624527148481584
 10
5.688132006215384
 20
-2.624527148481584
 10
5.669494027344812
 20
-2.624527148481584
 10
5.649236852527997
 20
-2.621857197719163
 10
5.62736048176494
 20
-2.616586198149482
 10
5.581471779628891
 20
-2.605527434346425
 10
5.549225664614369
 20
-2.5825830832784
 10
5.53031207792316
 20
-2.547580890057509
 10
5.515739314406981
 20
-2.520709127545408
 10
5.508401256182523
 20
-2.484397797176492
 10
5.508401256182523
 20
-2.438819153838659
 10
5.508401256182523
 20
-2.438819153838659
 10
5.508401256182523
 20
-2.182813939444526
 10
5.508401256182523
 20
-2.182813939444526
 10
5.508401256182523
 20
-2.182813939444526
 10
5.656299302931818
 20
-2.182813939444526
 10
5.656299302931818
 20
-2.182813939444526
 10
5.656299302931818
 20
-2.182813939444526
 10
5.656299302931818
 20
-2.227152347589493
 10
5.656299302931818
 20
-2.227152347589493
 10
5.623501972276023
 20
-2.227651886764397
 10
5.605001797315769
 20
-2.231493170764524
 10
5.600798778051056
 20
-2.238900130944142
 10
5.598008248867107
 20
-2.244085003069874
 10
5.596630209763922
 20
-2.260208060577135
 10
5.596630209763922
 20
-2.28768271519688
 10
5.596630209763922
 20
-2.28768271519688
 10
5.596630209763922
 20
-2.416701626232545
 10
5.596630209763922
 20
-2.416701626232545
 10
5.596630209763922
 20
-2.462659230323754
 10
5.603658209190164
 20
-2.497213560836109
 10
5.617610855109908
 20
-2.520295715814453
 10
5.635490912473729
 20
-2.549406791869229
 10
5.665704419811054
 20
-2.563858976963878
 10
5.708458082987359
 20
-2.563858976963878
 10
5.760341255222261
 20
-2.563858976963878
 10
5.794551075958821
 20
-2.540759596496745
 10
5.811087545197037
 20
-2.494612512028848
 10
5.819975897412578
 20
-2.469446072906938
 10
5.824420073520349
 20
-2.425348821605029
 10
5.824420073520349
 20
-2.362510238499807
 10
5.824420073520349
 20
-2.301704263071783
 10
5.822663073663788
 20
-2.26336032502567
 10
5.818976819062769
 20
-2.247512875339046
 10
5.817529878004425
 20
-2.24093273862134
 10
5.81442929002226
 20
-2.23638520958083
 10
5.809675055116273
 20
-2.233835837239938
 10
5.802440349824553
 20
-2.23008068068376
 10
5.783078900424808
 20
-2.227806916163505
 10
5.7514873539843
 20
-2.227152347589493
 10
5.7514873539843
 20
-2.227152347589493
 10
5.7514873539843
 20
-2.182813939444526
 10
5.7514873539843
 20
-2.182813939444526
 10
5.7514873539843
 20
-2.182813939444526
 10
5.946169828286715
 20
-2.182813939444526
 10
5.946169828286715
 20
-2.182813939444526
 10
5.946169828286715
 20
-2.182813939444526
 10
5.946169828286715
 20
-2.227152347589493
 10
5.946169828286715
 20
-2.227152347589493
 10
5.909582890097162
 20
-2.227359053454971
 10
5.889876930921621
 20
-2.234163121526945
 10
5.887086401737672
 20
-2.247512875339046
 97
        0
 75
     2
 76
     1
 98
        0
  0
SPLINE
  5
D1
330
CB
100
AcDbEntity
  8
None
370
     0
100
AcDbSpline
210
0.0
220
0.0
230
1.0
 70
    11
 71
     3
 72
    74
 73
    70
 74
     0
 42
0.0000000001
 43
0.0000000001
 40
0.0
 40
0.0
 40
0.0
 40
0.0
 40
1.0
 40
1.0
 40
1.0
 40
2.0
 40
2.0
 40
2.0
 40
3.0
 40
3.0
 40
3.0
 40
4.0
 40
4.0
 40
4.0
 40
5.0
 40
5.0
 40
5.0
 40
6.0
 40
6.0
 40
6.0
 40
7.0
 40
7.0
 40
7.0
 40
8.0
 40
8.0
 40
8.0
 40
9.0
 40
9.0
 40
9.0
 40
10.0
 40
10.0
 40
10.0
 40
11.0
 40
11.0
 40
11.0
 40
12.0
 40
12.0
 40
12.0
 40
13.0
 40
13.0
 40
13.0
 40
14.0
 40
14.0
 40
14.0
 40
15.0
 40
15.0
 40
15.0
 40
16.0
 40
16.0
 40
16.0
 40
17.0
 40
17.0
 40
17.0
 40
18.0
 40
18.0
 40
18.0
 40
19.0
 40
19.0
 40
19.0
 40
20.0
 40
20.0
 40
20.0
 40
21.0
 40
21.0
 40
21.0
 40
22.0
 40
22.0
 40
22.0
 40
23.0
 40
23.0
 40
23.0
 40
23.0
 10
6.291816486343011
 20
-2.481228307239167
 30
0.0
 10
6.286097624064794
 20
-2.441489104601079
 30
0.0
 10
6.283203741948107
 20
-2.341874102929617
 30
0.0
 10
6.283203741948107
 20
-2.182813939444526
 30
0.0
 10
6.283203741948107
 20
-2.182813939444526
 30
0.0
 10
6.405608065288486
 20
-2.182813939444526
 30
0.0
 10
6.405608065288486
 20
-2.182813939444526
 30
0.0
 10
6.405608065288486
 20
-2.182813939444526
 30
0.0
 10
6.405608065288486
 20
-2.227152347589493
 30
0.0
 10
6.405608065288486
 20
-2.227152347589493
 30
0.0
 10
6.385040831673455
 20
-2.227359053454971
 30
0.0
 10
6.371398244551926
 20
-2.228358131804779
 30
0.0
 10
6.364645852946321
 20
-2.23002900421739
 30
0.0
 10
6.354034951851799
 20
-2.232630053024652
 30
0.0
 10
6.347902677842628
 20
-2.23817666041497
 30
0.0
 10
6.346180128963646
 20
-2.246892757742613
 30
0.0
 10
6.342769482183265
 20
-2.263188070137772
 30
0.0
 10
6.341115835259443
 20
-2.301497557206306
 30
0.0
 10
6.341115835259443
 20
-2.361683415037897
 30
0.0
 10
6.341115835259443
 20
-2.361683415037897
 30
0.0
 10
6.341115835259443
 20
-2.619049443046424
 30
0.0
 10
6.341115835259443
 20
-2.619049443046424
 30
0.0
 10
6.341115835259443
 20
-2.619049443046424
 30
0.0
 10
6.300980446379189
 20
-2.619049443046424
 30
0.0
 10
6.300980446379189
 20
-2.619049443046424
 30
0.0
 10
6.300980446379189
 20
-2.619049443046424
 30
0.0
 10
6.019171449777923
 20
-2.309627987915095
 30
0.0
 10
6.019171449777923
 20
-2.309627987915095
 30
0.0
 10
6.022857704378942
 20
-2.334225985906942
 30
0.0
 10
6.02485586107856
 20
-2.379046707738024
 30
0.0
 10
6.025338174764674
 20
-2.443986800475601
 30
0.0
 10
6.025338174764674
 20
-2.443401133856748
 30
0.0
 10
6.025234821831935
 20
-2.461108936332671
 30
0.0
 10
6.025062566944038
 20
-2.497075756925791
 30
0.0
 10
6.025062566944038
 20
-2.518280333626045
 30
0.0
 10
6.026716213867859
 20
-2.535746979258911
 30
0.0
 10
6.030092409670662
 20
-2.549492919313178
 30
0.0
 10
6.032400625168496
 20
-2.559087516569101
 30
0.0
 10
6.042494761599324
 20
-2.565323143511012
 30
0.0
 10
6.060305917007986
 20
-2.568595986381076
 30
0.0
 10
6.06537021071219
 20
-2.569457260820566
 30
0.0
 10
6.077772562640852
 20
-2.570163505860948
 30
0.0
 10
6.097409619861233
 20
-2.570766397968591
 30
0.0
 10
6.097409619861233
 20
-2.570766397968591
 30
0.0
 10
6.097409619861233
 20
-2.615208159046297
 30
0.0
 10
6.097409619861233
 20
-2.615208159046297
 30
0.0
 10
6.097409619861233
 20
-2.615208159046297
 30
0.0
 10
5.903209459244932
 20
-2.615208159046297
 30
0.0
 10
5.903209459244932
 20
-2.615208159046297
 30
0.0
 10
5.903209459244932
 20
-2.615208159046297
 30
0.0
 10
5.903209459244932
 20
-2.570766397968591
 30
0.0
 10
5.903209459244932
 20
-2.570766397968591
 30
0.0
 10
5.923535536016907
 20
-2.570594143080693
 30
0.0
 10
5.937109221183276
 20
-2.569629515708464
 30
0.0
 10
5.943930514744039
 20
-2.567889741340693
 30
0.0
 10
5.954472513883402
 20
-2.565185339600693
 30
0.0
 10
5.960639238870154
 20
-2.559414800856108
 30
0.0
 10
5.962327336771555
 20
-2.550784830972414
 30
0.0
 10
5.965737983551938
 20
-2.531905695258784
 30
0.0
 10
5.967460532430918
 20
-2.49359620819025
 30
0.0
 10
5.967460532430918
 20
-2.43595972269955
 30
0.0
 10
5.967460532430918
 20
-2.43595972269955
 30
0.0
 10
5.967460532430918
 20
-2.182813939444526
 30
0.0
 10
5.967460532430918
 20
-2.182813939444526
 30
0.0
 10
5.967460532430918
 20
-2.182813939444526
 30
0.0
 10
6.016070861795757
 20
-2.182813939444526
 30
0.0
 10
6.016070861795757
 20
-2.182813939444526
 30
0.0
 10
6.016070861795757
 20
-2.182813939444526
 30
0.0
 10
6.291816486343011
 20
-2.481228307239167
 30
0.0
 10
6.291816486343011
 20
-2.481228307239167
 30
0.0
  0
HATCH
  5
D2
330
CB
100
AcDbEntity
  8
None
 62
   168
420
  1644058
100
AcDbHatch
 10
0.0
 20
0.0
 30
0.0
210
0.0
220
0.0
230
1.0
  2
SOLID
 70
     1
 71
     0
 91
        1
 92
        1
 93
        1
 72
     4
 94
        3
 73
     0
 74
     1
 95
       74
 96
       70
 40
0.0
 40
0.0
 40
0.0
 40
0.0
 40
1.0
 40
1.0
 40
1.0
 40
2.0
 40
2.0
 40
2.0
 40
3.0
 40
3.0
 40
3.0
 40
4.0
 40
4.0
 40
4.0
 40
5.0
 40
5.0
 40
5.0
 40
6.0
 40
6.0
 40
6.0
 40
7.0
 40
7.0
 40
7.0
 40
8.0
 40
8.0
 40
8.0
 40
9.0
 40
9.0
 40
9.0
 40
10.0
 40
10.0
 40
10.0
 40
11.0
 40
11.0
 40
11.0
 40
12.0
 40
12.0
 40
12.0
 40
13.0
 40
13.0
 40
13.0
 40
14.0
 40
14.0
 40
14.0
 40
15.0
 40
15.0
 40
15.0
 40
16.0
 40
16.0
 40
16.0
 40
17.0
 40
17.0
 40
17.0
 40
18.0
 40
18.0
 40
18.0
 40
19.0
 40
19.0
 40
19.0
 40
20.0
 40
20.0
 40
20.0
 40
21.0
 40
21.0
 40
21.0
 40
22.0
 40
22.0
 40
22.0
 40
23.0
 40
23.0
 40
23.0
 40
23.0
 10
6.291816486343011
 20
-2.481228307239167
 10
6.286097624064794
 20
-2.441489104601079
 10
6.283203741948107
 20
-2.341874102929617
 10
6.283203741948107
 20
-2.182813939444526
 10
6.283203741948107
 20
-2.182813939444526
 10
6.405608065288486
 20
-2.182813939444526
 10
6.405608065288486
 20
-2.182813939444526
 10
6.405608065288486
 20
-2.182813939444526
 10
6.405608065288486
 20
-2.227152347589493
 10
6.405608065288486
 20
-2.227152347589493
 10
6.385040831673455
 20
-2.227359053454971
 10
6.371398244551926
 20
-2.228358131804779
 10
6.364645852946321
 20
-2.23002900421739
 10
6.354034951851799
 20
-2.232630053024652
 10
6.347902677842628
 20
-2.23817666041497
 10
6.346180128963646
 20
-2.246892757742613
 10
6.342769482183265
 20
-2.263188070137772
 10
6.341115835259443
 20
-2.301497557206306
 10
6.341115835259443
 20
-2.361683415037897
 10
6.341115835259443
 20
-2.361683415037897
 10
6.341115835259443
 20
-2.619049443046424
 10
6.341115835259443
 20
-2.619049443046424
 10
6.341115835259443
 20
-2.619049443046424
 10
6.300980446379189
 20
-2.619049443046424
 10
6.300980446379189
 20
-2.619049443046424
 10
6.300980446379189
 20
-2.619049443046424
 10
6.019171449777923
 20
-2.309627987915095
 10
6.019171449777923
 20
-2.309627987915095
 10
6.022857704378942
 20
-2.334225985906942
 10
6.02485586107856
 20
-2.379046707738024
 10
6.025338174764674
 20
-2.443986800475601
 10
6.025338174764674
 20
-2.443401133856748
 10
6.025234821831935
 20
-2.461108936332671
 10
6.025062566944038
 20
-2.497075756925791
 10
6.025062566944038
 20
-2.518280333626045
 10
6.026716213867859
 20
-2.535746979258911
 10
6.030092409670662
 20
-2.549492919313178
 10
6.032400625168496
 20
-2.559087516569101
 10
6.042494761599324
 20
-2.565323143511012
 10
6.060305917007986
 20
-2.568595986381076
 10
6.06537021071219
 20
-2.569457260820566
 10
6.077772562640852
 20
-2.570163505860948
 10
6.097409619861233
 20
-2.570766397968591
 10
6.097409619861233
 20
-2.570766397968591
 10
6.097409619861233
 20
-2.615208159046297
 10
6.097409619861233
 20
-2.615208159046297
 10
6.097409619861233
 20
-2.615208159046297
 10
5.903209459244932
 20
-2.615208159046297
 10
5.903209459244932
 20
-2.615208159046297
 10
5.903209459244932
 20
-2.615208159046297
 10
5.903209459244932
 20
-2.570766397968591
 10
5.903209459244932
 20
-2.570766397968591
 10
5.923535536016907
 20
-2.570594143080693
 10
5.937109221183276
 20
-2.569629515708464
 10
5.943930514744039
 20
-2.567889741340693
 10
5.954472513883402
 20
-2.565185339600693
 10
5.960639238870154
 20
-2.559414800856108
 10
5.962327336771555
 20
-2.550784830972414
 10
5.965737983551938
 20
-2.531905695258784
 10
5.967460532430918
 20
-2.49359620819025
 10
5.967460532430918
 20
-2.43595972269955
 10
5.967460532430918
 20
-2.43595972269955
 10
5.967460532430918
 20
-2.182813939444526
 10
5.967460532430918
 20
-2.182813939444526
 10
5.967460532430918
 20
-2.182813939444526
 10
6.016070861795757
 20
-2.182813939444526
 10
6.016070861795757
 20
-2.182813939444526
 10
6.016070861795757
 20
-2.182813939444526
 10
6.291816486343011
 20
-2.481228307239167
 10
6.291816486343011
 20
-2.481228307239167
 97
        0
 75
     2
 76
     1
 98
        0
  0
SPLINE
  5
D3
330
CB
100
AcDbEntity
  8
None
370
     0
100
AcDbSpline
210
0.0
220
0.0
230
1.0
 70
    11
 71
     3
 72
    29
 73
    25
 74
     0
 42
0.0000000001
 43
0.0000000001
 40
0.0
 40
0.0
 40
0.0
 40
0.0
 40
1.0
 40
1.0
 40
1.0
 40
2.0
 40
2.0
 40
2.0
 40
3.0
 40
3.0
 40
3.0
 40
4.0
 40
4.0
 40
4.0
 40
5.0
 40
5.0
 40
5.0
 40
6.0
 40
6.0
 40
6.0
 40
7.0
 40
7.0
 40
7.0
 40
8.0
 40
8.0
 40
8.0
 40
8.0
 10
6.602495402155996
 20
-2.624527148481584
 30
0.0
 10
6.533972407750138
 20
-2.624527148481584
 30
0.0
 10
6.477541706474725
 20
-2.603460375691648
 30
0.0
 10
6.432962141486701
 20
-2.561189026201458
 30
0.0
 10
6.388348125521097
 20
-2.519021029644007
 30
0.0
 10
6.366196146937404
 20
-2.466397161391142
 30
0.0
 10
6.366196146937404
 20
-2.403403548886813
 30
0.0
 10
6.366196146937404
 20
-2.337808887575222
 30
0.0
 10
6.389863968534601
 20
-2.282997382246052
 30
0.0
 10
6.437234062706574
 20
-2.239003483876881
 30
0.0
 10
6.484638607856127
 20
-2.194940683552551
 30
0.0
 10
6.54368758342759
 20
-2.172995410834335
 30
0.0
 10
6.614553244308862
 20
-2.172995410834335
 30
0.0
 10
6.682593925028605
 20
-2.172995410834335
 30
0.0
 10
6.738783469460961
 20
-2.194165536557009
 30
0.0
 10
6.782811818807711
 20
-2.236643591912677
 30
0.0
 10
6.826116697625289
 20
-2.278415402227963
 30
0.0
 10
6.847820813500448
 20
-2.330591407772292
 30
0.0
 10
6.847820813500448
 20
-2.393206059523246
 30
0.0
 10
6.847820813500448
 20
-2.459575867830378
 30
0.0
 10
6.82518652123064
 20
-2.514680206468975
 30
0.0
 10
6.780021289623762
 20
-2.558381271528719
 30
0.0
 10
6.733960332599814
 20
-2.602495748319419
 30
0.0
 10
6.674842455073192
 20
-2.624527148481584
 30
0.0
 10
6.602495402155996
 20
-2.624527148481584
 30
0.0
  0
SPLINE
  5
D4
330
CB
100
AcDbEntity
  8
None
370
     0
100
AcDbSpline
210
0.0
220
0.0
230
1.0
 70
    11
 71
     3
 72
    26
 73
    22
 74
     0
 42
0.0000000001
 43
0.0000000001
 40
0.0
 40
0.0
 40
0.0
 40
0.0
 40
1.0
 40
1.0
 40
1.0
 40
2.0
 40
2.0
 40
2.0
 40
3.0
 40
3.0
 40
3.0
 40
4.0
 40
4.0
 40
4.0
 40
5.0
 40
5.0
 40
5.0
 40
6.0
 40
6.0
 40
6.0
 40
7.0
 40
7.0
 40
7.0
 40
7.0
 10
6.597121049653576
 20
-2.223741700809111
 30
0.0
 10
6.552369229777653
 20
-2.223741700809111
 30
0.0
 10
6.518124958063514
 20
-2.240450424935225
 30
0.0
 10
6.494388234511158
 20
-2.273764520254714
 30
0.0
 10
6.47357984405307
 20
-2.30287559630949
 30
0.0
 10
6.463175648824025
 20
-2.339979299162738
 30
0.0
 10
6.463175648824025
 20
-2.385058403325667
 30
0.0
 10
6.463175648824025
 20
-2.434771163973054
 30
0.0
 10
6.475681353685427
 20
-2.477335346772671
 30
0.0
 10
6.500451606565171
 20
-2.512802628190886
 30
0.0
 10
6.528804761113196
 20
-2.553506458201203
 30
0.0
 10
6.567734365778163
 20
-2.573780858506808
 30
0.0
 10
6.617137067627334
 20
-2.573780858506808
 30
0.0
 10
6.660545299377651
 20
-2.573780858506808
 30
0.0
 10
6.694376159360834
 20
-2.558174565663241
 30
0.0
 10
6.718526294644145
 20
-2.526910303509739
 30
0.0
 10
6.739920351721087
 20
-2.499039462647829
 30
0.0
 10
6.750669056725928
 20
-2.463813338072671
 30
0.0
 10
6.750669056725928
 20
-2.421042449407576
 30
0.0
 10
6.750669056725928
 20
-2.289508617008599
 30
0.0
 10
6.699440453065038
 20
-2.223741700809111
 30
0.0
 10
6.597121049653576
 20
-2.223741700809111
 30
0.0
  0
HATCH
  5
D5
330
CB
100
AcDbEntity
  8
None
 62
   168
420
  1644058
100
AcDbHatch
 10
0.0
 20
0.0
 30
0.0
210
0.0
220
0.0
230
1.0
  2
SOLID
 70
     1
 71
     0
 91
        2
 92
        1
 93
        1
 72
     4
 94
        3
 73
     0
 74
     1
 95
       29
 96
       25
 40
0.0
 40
0.0
 40
0.0
 40
0.0
 40
1.0
 40
1.0
 40
1.0
 40
2.0
 40
2.0
 40
2.0
 40
3.0
 40
3.0
 40
3.0
 40
4.0
 40
4.0
 40
4.0
 40
5.0
 40
5.0
 40
5.0
 40
6.0
 40
6.0
 40
6.0
 40
7.0
 40
7.0
 40
7.0
 40
8.0
 40
8.0
 40
8.0
 40
8.0
 10
6.602495402155996
 20
-2.624527148481584
 10
6.533972407750138
 20
-2.624527148481584
 10
6.477541706474725
 20
-2.603460375691648
 10
6.432962141486701
 20
-2.561189026201458
 10
6.388348125521097
 20
-2.519021029644007
 10
6.366196146937404
 20
-2.466397161391142
 10
6.366196146937404
 20
-2.403403548886813
 10
6.366196146937404
 20
-2.337808887575222
 10
6.389863968534601
 20
-2.282997382246052
 10
6.437234062706574
 20
-2.239003483876881
 10
6.484638607856127
 20
-2.194940683552551
 10
6.54368758342759
 20
-2.172995410834335
 10
6.614553244308862
 20
-2.172995410834335
 10
6.682593925028605
 20
-2.172995410834335
 10
6.738783469460961
 20
-2.194165536557009
 10
6.782811818807711
 20
-2.236643591912677
 10
6.826116697625289
 20
-2.278415402227963
 10
6.847820813500448
 20
-2.330591407772292
 10
6.847820813500448
 20
-2.393206059523246
 10
6.847820813500448
 20
-2.459575867830378
 10
6.82518652123064
 20
-2.514680206468975
 10
6.780021289623762
 20
-2.558381271528719
 10
6.733960332599814
 20
-2.602495748319419
 10
6.674842455073192
 20
-2.624527148481584
 10
6.602495402155996
 20
-2.624527148481584
 97
        0
 92
        1
 93
        1
 72
     4
 94
        3
 73
     0
 74
     1
 95
       26
 96
       22
 40
0.0
 40
0.0
 40
0.0
 40
0.0
 40
1.0
 40
1.0
 40
1.0
 40
2.0
 40
2.0
 40
2.0
 40
3.0
 40
3.0
 40
3.0
 40
4.0
 40
4.0
 40
4.0
 40
5.0
 40
5.0
 40
5.0
 40
6.0
 40
6.0
 40
6.0
 40
7.0
 40
7.0
 40
7.0
 40
7.0
 10
6.597121049653576
 20
-2.223741700809111
 10
6.552369229777653
 20
-2.223741700809111
 10
6.518124958063514
 20
-2.240450424935225
 10
6.494388234511158
 20
-2.273764520254714
 10
6.47357984405307
 20
-2.30287559630949
 10
6.463175648824025
 20
-2.339979299162738
 10
6.463175648824025
 20
-2.385058403325667
 10
6.463175648824025
 20
-2.434771163973054
 10
6.475681353685427
 20
-2.477335346772671
 10
6.500451606565171
 20
-2.512802628190886
 10
6.528804761113196
 20
-2.553506458201203
 10
6.567734365778163
 20
-2.573780858506808
 10
6.617137067627334
 20
-2.573780858506808
 10
6.660545299377651
 20
-2.573780858506808
 10
6.694376159360834
 20
-2.558174565663241
 10
6.718526294644145
 20
-2.526910303509739
 10
6.739920351721087
 20
-2.499039462647829
 10
6.750669056725928
 20
-2.463813338072671
 10
6.750669056725928
 20
-2.421042449407576
 10
6.750669056725928
 20
-2.289508617008599
 10
6.699440453065038
 20
-2.223741700809111
 10
6.597121049653576
 20
-2.223741700809111
 97
        0
 75
     2
 76
     1
 98
        0
  0
INSERT
  5
D7
330
CB
100
AcDbEntity
  8
None
100
AcDbBlockReference
  2
block 8
 10
0.0
 20
0.0
 30
0.0
  0
ENDBLK
  5
CE
330
CB
100
AcDbEntity
  8
0
100
AcDbBlockEnd
  0
BLOCK
  5
D8
330
D6
100
AcDbEntity
  8
0
100
AcDbBlockBegin
  2
block 8
 70
     0
 71
     0
 10
0.0
 20
0.0
 30
0.0
  3
block 8
  1

  0
SPLINE
  5
DA
330
D6
100
AcDbEntity
  8
None
370
     0
100
AcDbSpline
210
0.0
220
0.0
230
1.0
 70
    11
 71
     3
 72
    35
 73
    31
 74
     0
 42
0.0000000001
 43
0.0000000001
 40
0.0
 40
0.0
 40
0.0
 40
0.0
 40
1.0
 40
1.0
 40
1.0
 40
2.0
 40
2.0
 40
2.0
 40
3.0
 40
3.0
 40
3.0
 40
4.0
 40
4.0
 40
4.0
 40
5.0
 40
5.0
 40
5.0
 40
6.0
 40
6.0
 40
6.0
 40
7.0
 40
7.0
 40
7.0
 40
8.0
 40
8.0
 40
8.0
 40
9.0
 40
9.0
 40
9.0
 40
10.0
 40
10.0
 40
10.0
 40
10.0
 10
5.655024616761373
 20
-2.730567257471644
 30
0.0
 10
5.648513381998825
 20
-2.700681034421327
 30
0.0
 10
5.623708678141501
 20
-2.683558898564257
 30
0.0
 10
5.595527778481374
 20
-2.683558898564257
 30
0.0
 10
5.544058017977426
 20
-2.683558898564257
 30
0.0
 10
5.522250549169529
 20
-2.72648481662846
 30
0.0
 10
5.522250549169529
 20
-2.768928421006548
 30
0.0
 10
5.522250549169529
 20
-2.811372025384636
 30
0.0
 10
5.544058017977426
 20
-2.854280717960048
 30
0.0
 10
5.595527778481374
 20
-2.854280717960048
 30
0.0
 10
5.631287893209016
 20
-2.854280717960048
 30
0.0
 10
5.654128891344302
 20
-2.826564906497247
 30
0.0
 10
5.657711793012583
 20
-2.792045026962471
 30
0.0
 10
5.657711793012583
 20
-2.792045026962471
 30
0.0
 10
5.676211967972837
 20
-2.792045026962471
 30
0.0
 10
5.676211967972837
 20
-2.792045026962471
 30
0.0
 10
5.670975419380735
 20
-2.839587376022342
 30
0.0
 10
5.64086526497615
 20
-2.870076491180303
 30
0.0
 10
5.595527778481374
 20
-2.870076491180303
 30
0.0
 10
5.534239489367236
 20
-2.870076491180303
 30
0.0
 10
5.503819276164434
 20
-2.821931250012788
 30
0.0
 10
5.503819276164434
 20
-2.768928421006548
 30
0.0
 10
5.503819276164434
 20
-2.715908366511517
 30
0.0
 10
5.534239489367236
 20
-2.667728674366423
 30
0.0
 10
5.595527778481374
 20
-2.667728674366423
 30
0.0
 10
5.632183618626087
 20
-2.667728674366423
 30
0.0
 10
5.668598301927742
 20
-2.689828976483748
 30
0.0
 10
5.673524791721626
 20
-2.730567257471644
 30
0.0
 10
5.673524791721626
 20
-2.730567257471644
 30
0.0
 10
5.655024616761373
 20
-2.730567257471644
 30
0.0
 10
5.655024616761373
 20
-2.730567257471644
 30
0.0
  0
HATCH
  5
DB
330
D6
100
AcDbEntity
  8
None
 62
     8
420
  8028033
100
AcDbHatch
 10
0.0
 20
0.0
 30
0.0
210
0.0
220
0.0
230
1.0
  2
SOLID
 70
     1
 71
     0
 91
        1
 92
        1
 93
        1
 72
     4
 94
        3
 73
     0
 74
     1
 95
       35
 96
       31
 40
0.0
 40
0.0
 40
0.0
 40
0.0
 40
1.0
 40
1.0
 40
1.0
 40
2.0
 40
2.0
 40
2.0
 40
3.0
 40
3.0
 40
3.0
 40
4.0
 40
4.0
 40
4.0
 40
5.0
 40
5.0
 40
5.0
 40
6.0
 40
6.0
 40
6.0
 40
7.0
 40
7.0
 40
7.0
 40
8.0
 40
8.0
 40
8.0
 40
9.0
 40
9.0
 40
9.0
 40
10.0
 40
10.0
 40
10.0
 40
10.0
 10
5.655024616761373
 20
-2.730567257471644
 10
5.648513381998825
 20
-2.700681034421327
 10
5.623708678141501
 20
-2.683558898564257
 10
5.595527778481374
 20
-2.683558898564257
 10
5.544058017977426
 20
-2.683558898564257
 10
5.522250549169529
 20
-2.72648481662846
 10
5.522250549169529
 20
-2.768928421006548
 10
5.522250549169529
 20
-2.811372025384636
 10
5.544058017977426
 20
-2.854280717960048
 10
5.595527778481374
 20
-2.854280717960048
 10
5.631287893209016
 20
-2.854280717960048
 10
5.654128891344302
 20
-2.826564906497247
 10
5.657711793012583
 20
-2.792045026962471
 10
5.657711793012583
 20
-2.792045026962471
 10
5.676211967972837
 20
-2.792045026962471
 10
5.676211967972837
 20
-2.792045026962471
 10
5.670975419380735
 20
-2.839587376022342
 10
5.64086526497615
 20
-2.870076491180303
 10
5.595527778481374
 20
-2.870076491180303
 10
5.534239489367236
 20
-2.870076491180303
 10
5.503819276164434
 20
-2.821931250012788
 10
5.503819276164434
 20
-2.768928421006548
 10
5.503819276164434
 20
-2.715908366511517
 10
5.534239489367236
 20
-2.667728674366423
 10
5.595527778481374
 20
-2.667728674366423
 10
5.632183618626087
 20
-2.667728674366423
 10
5.668598301927742
 20
-2.689828976483748
 10
5.673524791721626
 20
-2.730567257471644
 10
5.673524791721626
 20
-2.730567257471644
 10
5.655024616761373
 20
-2.730567257471644
 10
5.655024616761373
 20
-2.730567257471644
 97
        0
 75
     2
 76
     1
 98
        0
  0
POLYLINE
  5
DC
330
D6
100
AcDbEntity
  8
None
370
     0
100
AcDb2dPolyline
 66
     1
 10
0.0
 20
0.0
 30
0.0
  0
VERTEX
  5
DD
330
DC
100
AcDbEntity
  8
None
370
     0
100
AcDbVertex
100
AcDb2dVertex
 10
5.704461769588122
 20
-2.671845566187188
 30
0.0
  0
VERTEX
  5
DE
330
DC
100
AcDbEntity
  8
None
370
     0
100
AcDbVertex
100
AcDb2dVertex
 10
5.838510523350412
 20
-2.671845566187188
 30
0.0
  0
VERTEX
  5
DF
330
DC
100
AcDbEntity
  8
None
370
     0
100
AcDbVertex
100
AcDb2dVertex
 10
5.838510523350412
 20
-2.687589662941072
 30
0.0
  0
VERTEX
  5
E0
330
DC
100
AcDbEntity
  8
None
370
     0
100
AcDbVertex
100
AcDb2dVertex
 10
5.722961944548377
 20
-2.687589662941072
 30
0.0
  0
VERTEX
  5
E1
330
DC
100
AcDbEntity
  8
None
370
     0
100
AcDbVertex
100
AcDb2dVertex
 10
5.722961944548377
 20
-2.757749078781962
 30
0.0
  0
VERTEX
  5
E2
330
DC
100
AcDbEntity
  8
None
370
     0
100
AcDbVertex
100
AcDb2dVertex
 10
5.831172465125953
 20
-2.757749078781962
 30
0.0
  0
VERTEX
  5
E3
330
DC
100
AcDbEntity
  8
None
370
     0
100
AcDbVertex
100
AcDb2dVertex
 10
5.831172465125953
 20
-2.773544852002217
 30
0.0
  0
VERTEX
  5
E4
330
DC
100
AcDbEntity
  8
None
370
     0
100
AcDbVertex
100
AcDb2dVertex
 10
5.722961944548377
 20
-2.773544852002217
 30
0.0
  0
VERTEX
  5
E5
330
DC
100
AcDbEntity
  8
None
370
     0
100
AcDbVertex
100
AcDb2dVertex
 10
5.722961944548377
 20
-2.850146600650495
 30
0.0
  0
VERTEX
  5
E6
330
DC
100
AcDbEntity
  8
None
370
     0
100
AcDbVertex
100
AcDb2dVertex
 10
5.839854111476017
 20
-2.850146600650495
 30
0.0
  0
VERTEX
  5
E7
330
DC
100
AcDbEntity
  8
None
370
     0
100
AcDbVertex
100
AcDb2dVertex
 10
5.839854111476017
 20
-2.866011275825908
 30
0.0
  0
VERTEX
  5
E8
330
DC
100
AcDbEntity
  8
None
370
     0
100
AcDbVertex
100
AcDb2dVertex
 10
5.704461769588122
 20
-2.866011275825908
 30
0.0
  0
VERTEX
  5
E9
330
DC
100
AcDbEntity
  8
None
370
     0
100
AcDbVertex
100
AcDb2dVertex
 10
5.704461769588122
 20
-2.671845566187188
 30
0.0
  0
SEQEND
  5
EA
330
DC
100
AcDbEntity
  8
None
370
     0
  0
HATCH
  5
EB
330
D6
100
AcDbEntity
  8
None
 62
     8
420
  8028033
100
AcDbHatch
 10
0.0
 20
0.0
 30
0.0
210
0.0
220
0.0
230
1.0
  2
SOLID
 70
     1
 71
     0
 91
        1
 92
        1
 93
       12
 72
     1
 10
5.704461769588122
 20
-2.671845566187188
 11
5.838510523350412
 21
-2.671845566187188
 72
     1
 10
5.838510523350412
 20
-2.671845566187188
 11
5.838510523350412
 21
-2.687589662941072
 72
     1
 10
5.838510523350412
 20
-2.687589662941072
 11
5.722961944548377
 21
-2.687589662941072
 72
     1
 10
5.722961944548377
 20
-2.687589662941072
 11
5.722961944548377
 21
-2.757749078781962
 72
     1
 10
5.722961944548377
 20
-2.757749078781962
 11
5.831172465125953
 21
-2.757749078781962
 72
     1
 10
5.831172465125953
 20
-2.757749078781962
 11
5.831172465125953
 21
-2.773544852002217
 72
     1
 10
5.831172465125953
 20
-2.773544852002217
 11
5.722961944548377
 21
-2.773544852002217
 72
     1
 10
5.722961944548377
 20
-2.773544852002217
 11
5.722961944548377
 21
-2.850146600650495
 72
     1
 10
5.722961944548377
 20
-2.850146600650495
 11
5.839854111476017
 21
-2.850146600650495
 72
     1
 10
5.839854111476017
 20
-2.850146600650495
 11
5.839854111476017
 21
-2.866011275825908
 72
     1
 10
5.839854111476017
 20
-2.866011275825908
 11
5.704461769588122
 21
-2.866011275825908
 72
     1
 10
5.704461769588122
 20
-2.866011275825908
 11
5.704461769588122
 21
-2.671845566187188
 97
        0
 75
     2
 76
     1
 98
        0
  0
SPLINE
  5
EC
330
D6
100
AcDbEntity
  8
None
370
     0
100
AcDbSpline
210
0.0
220
0.0
230
1.0
 70
    11
 71
     3
 72
    44
 73
    40
 74
     0
 42
0.0000000001
 43
0.0000000001
 40
0.0
 40
0.0
 40
0.0
 40
0.0
 40
1.0
 40
1.0
 40
1.0
 40
2.0
 40
2.0
 40
2.0
 40
3.0
 40
3.0
 40
3.0
 40
4.0
 40
4.0
 40
4.0
 40
5.0
 40
5.0
 40
5.0
 40
6.0
 40
6.0
 40
6.0
 40
7.0
 40
7.0
 40
7.0
 40
8.0
 40
8.0
 40
8.0
 40
9.0
 40
9.0
 40
9.0
 40
10.0
 40
10.0
 40
10.0
 40
11.0
 40
11.0
 40
11.0
 40
12.0
 40
12.0
 40
12.0
 40
13.0
 40
13.0
 40
13.0
 40
13.0
 10
5.86565789368315
 20
-2.671845566187188
 30
0.0
 10
5.86565789368315
 20
-2.671845566187188
 30
0.0
 10
5.954575866816142
 20
-2.671845566187188
 30
0.0
 10
5.954575866816142
 20
-2.671845566187188
 30
0.0
 10
5.986615275965185
 20
-2.671845566187188
 30
0.0
 10
6.013659293365184
 20
-2.687262378654066
 30
0.0
 10
6.013659293365184
 20
-2.722419601274065
 30
0.0
 10
6.013659293365184
 20
-2.746897020844383
 30
0.0
 10
6.000843529705567
 20
-2.767033617239669
 30
0.0
 10
5.975832119982765
 20
-2.771908430567185
 30
0.0
 10
5.975832119982765
 20
-2.771908430567185
 30
0.0
 10
5.975832119982765
 20
-2.772442420719669
 30
0.0
 10
5.975832119982765
 20
-2.772442420719669
 30
0.0
 10
6.001084686548624
 20
-2.775715263589732
 30
0.0
 10
6.008422744773083
 20
-2.793113007267439
 30
0.0
 10
6.009731881921108
 20
-2.816246838712152
 30
0.0
 10
6.010593156360598
 20
-2.829579367035463
 30
0.0
 10
6.010593156360598
 20
-2.856244423682087
 30
0.0
 10
6.018758038046967
 20
-2.866011275825908
 30
0.0
 10
6.018758038046967
 20
-2.866011275825908
 30
0.0
 10
5.998294157364676
 20
-2.866011275825908
 30
0.0
 10
5.998294157364676
 20
-2.866011275825908
 30
0.0
 10
5.993712177346586
 20
-2.858414835269603
 30
0.0
 10
5.993712177346586
 20
-2.843928199197374
 30
0.0
 10
5.993229863660472
 20
-2.835832219466164
 30
0.0
 10
5.99157621673665
 20
-2.808547045223107
 30
0.0
 10
5.989405805149134
 20
-2.778419665329732
 30
0.0
 10
5.954334709973084
 20
-2.779780478944127
 30
0.0
 10
5.954334709973084
 20
-2.779780478944127
 30
0.0
 10
5.884158068643404
 20
-2.779780478944127
 30
0.0
 10
5.884158068643404
 20
-2.779780478944127
 30
0.0
 10
5.884158068643404
 20
-2.779780478944127
 30
0.0
 10
5.884158068643404
 20
-2.866011275825908
 30
0.0
 10
5.884158068643404
 20
-2.866011275825908
 30
0.0
 10
5.884158068643404
 20
-2.866011275825908
 30
0.0
 10
5.86565789368315
 20
-2.866011275825908
 30
0.0
 10
5.86565789368315
 20
-2.866011275825908
 30
0.0
 10
5.86565789368315
 20
-2.866011275825908
 30
0.0
 10
5.86565789368315
 20
-2.671845566187188
 30
0.0
 10
5.86565789368315
 20
-2.671845566187188
 30
0.0
  0
SPLINE
  5
ED
330
D6
100
AcDbEntity
  8
None
370
     0
100
AcDbSpline
210
0.0
220
0.0
230
1.0
 70
    11
 71
     3
 72
    20
 73
    16
 74
     0
 42
0.0000000001
 43
0.0000000001
 40
0.0
 40
0.0
 40
0.0
 40
0.0
 40
1.0
 40
1.0
 40
1.0
 40
2.0
 40
2.0
 40
2.0
 40
3.0
 40
3.0
 40
3.0
 40
4.0
 40
4.0
 40
4.0
 40
5.0
 40
5.0
 40
5.0
 40
5.0
 10
5.884158068643404
 20
-2.763967480235083
 30
0.0
 10
5.884158068643404
 20
-2.763967480235083
 30
0.0
 10
5.953232278690536
 20
-2.763967480235083
 30
0.0
 10
5.953232278690536
 20
-2.763967480235083
 30
0.0
 10
5.975832119982765
 20
-2.763967480235083
 30
0.0
 10
5.99509021644977
 20
-2.74987703040502
 30
0.0
 10
5.99509021644977
 20
-2.726226434296612
 30
0.0
 10
5.99509021644977
 20
-2.702610289165785
 30
0.0
 10
5.980999766619708
 20
-2.687589662941072
 30
0.0
 10
5.953232278690536
 20
-2.687589662941072
 30
0.0
 10
5.953232278690536
 20
-2.687589662941072
 30
0.0
 10
5.884158068643404
 20
-2.687589662941072
 30
0.0
 10
5.884158068643404
 20
-2.687589662941072
 30
0.0
 10
5.884158068643404
 20
-2.687589662941072
 30
0.0
 10
5.884158068643404
 20
-2.763967480235083
 30
0.0
 10
5.884158068643404
 20
-2.763967480235083
 30
0.0
  0
HATCH
  5
EE
330
D6
100
AcDbEntity
  8
None
 62
     8
420
  8028033
100
AcDbHatch
 10
0.0
 20
0.0
 30
0.0
210
0.0
220
0.0
230
1.0
  2
SOLID
 70
     1
 71
     0
 91
        2
 92
        1
 93
        1
 72
     4
 94
        3
 73
     0
 74
     1
 95
       44
 96
       40
 40
0.0
 40
0.0
 40
0.0
 40
0.0
 40
1.0
 40
1.0
 40
1.0
 40
2.0
 40
2.0
 40
2.0
 40
3.0
 40
3.0
 40
3.0
 40
4.0
 40
4.0
 40
4.0
 40
5.0
 40
5.0
 40
5.0
 40
6.0
 40
6.0
 40
6.0
 40
7.0
 40
7.0
 40
7.0
 40
8.0
 40
8.0
 40
8.0
 40
9.0
 40
9.0
 40
9.0
 40
10.0
 40
10.0
 40
10.0
 40
11.0
 40
11.0
 40
11.0
 40
12.0
 40
12.0
 40
12.0
 40
13.0
 40
13.0
 40
13.0
 40
13.0
 10
5.86565789368315
 20
-2.671845566187188
 10
5.86565789368315
 20
-2.671845566187188
 10
5.954575866816142
 20
-2.671845566187188
 10
5.954575866816142
 20
-2.671845566187188
 10
5.986615275965185
 20
-2.671845566187188
 10
6.013659293365184
 20
-2.687262378654066
 10
6.013659293365184
 20
-2.722419601274065
 10
6.013659293365184
 20
-2.746897020844383
 10
6.000843529705567
 20
-2.767033617239669
 10
5.975832119982765
 20
-2.771908430567185
 10
5.975832119982765
 20
-2.771908430567185
 10
5.975832119982765
 20
-2.772442420719669
 10
5.975832119982765
 20
-2.772442420719669
 10
6.001084686548624
 20
-2.775715263589732
 10
6.008422744773083
 20
-2.793113007267439
 10
6.009731881921108
 20
-2.816246838712152
 10
6.010593156360598
 20
-2.829579367035463
 10
6.010593156360598
 20
-2.856244423682087
 10
6.018758038046967
 20
-2.866011275825908
 10
6.018758038046967
 20
-2.866011275825908
 10
5.998294157364676
 20
-2.866011275825908
 10
5.998294157364676
 20
-2.866011275825908
 10
5.993712177346586
 20
-2.858414835269603
 10
5.993712177346586
 20
-2.843928199197374
 10
5.993229863660472
 20
-2.835832219466164
 10
5.99157621673665
 20
-2.808547045223107
 10
5.989405805149134
 20
-2.778419665329732
 10
5.954334709973084
 20
-2.779780478944127
 10
5.954334709973084
 20
-2.779780478944127
 10
5.884158068643404
 20
-2.779780478944127
 10
5.884158068643404
 20
-2.779780478944127
 10
5.884158068643404
 20
-2.779780478944127
 10
5.884158068643404
 20
-2.866011275825908
 10
5.884158068643404
 20
-2.866011275825908
 10
5.884158068643404
 20
-2.866011275825908
 10
5.86565789368315
 20
-2.866011275825908
 10
5.86565789368315
 20
-2.866011275825908
 10
5.86565789368315
 20
-2.866011275825908
 10
5.86565789368315
 20
-2.671845566187188
 10
5.86565789368315
 20
-2.671845566187188
 97
        0
 92
        1
 93
        1
 72
     4
 94
        3
 73
     0
 74
     1
 95
       20
 96
       16
 40
0.0
 40
0.0
 40
0.0
 40
0.0
 40
1.0
 40
1.0
 40
1.0
 40
2.0
 40
2.0
 40
2.0
 40
3.0
 40
3.0
 40
3.0
 40
4.0
 40
4.0
 40
4.0
 40
5.0
 40
5.0
 40
5.0
 40
5.0
 10
5.884158068643404
 20
-2.763967480235083
 10
5.884158068643404
 20
-2.763967480235083
 10
5.953232278690536
 20
-2.763967480235083
 10
5.953232278690536
 20
-2.763967480235083
 10
5.975832119982765
 20
-2.763967480235083
 10
5.99509021644977
 20
-2.74987703040502
 10
5.99509021644977
 20
-2.726226434296612
 10
5.99509021644977
 20
-2.702610289165785
 10
5.980999766619708
 20
-2.687589662941072
 10
5.953232278690536
 20
-2.687589662941072
 10
5.953232278690536
 20
-2.687589662941072
 10
5.884158068643404
 20
-2.687589662941072
 10
5.884158068643404
 20
-2.687589662941072
 10
5.884158068643404
 20
-2.687589662941072
 10
5.884158068643404
 20
-2.763967480235083
 10
5.884158068643404
 20
-2.763967480235083
 97
        0
 75
     2
 76
     1
 98
        0
  0
POLYLINE
  5
EF
330
D6
100
AcDbEntity
  8
None
370
     0
100
AcDb2dPolyline
 66
     1
 10
0.0
 20
0.0
 30
0.0
  0
VERTEX
  5
F0
330
EF
100
AcDbEntity
  8
None
370
     0
100
AcDbVertex
100
AcDb2dVertex
 10
6.103886403646201
 20
-2.671845566187188
 30
0.0
  0
VERTEX
  5
F1
330
EF
100
AcDbEntity
  8
None
370
     0
100
AcDbVertex
100
AcDb2dVertex
 10
6.124556990193971
 20
-2.671845566187188
 30
0.0
  0
VERTEX
  5
F2
330
EF
100
AcDbEntity
  8
None
370
     0
100
AcDbVertex
100
AcDb2dVertex
 10
6.200624748689765
 20
-2.866011275825908
 30
0.0
  0
VERTEX
  5
F3
330
EF
100
AcDbEntity
  8
None
370
     0
100
AcDbVertex
100
AcDb2dVertex
 10
6.180815436581486
 20
-2.866011275825908
 30
0.0
  0
VERTEX
  5
F4
330
EF
100
AcDbEntity
  8
None
370
     0
100
AcDbVertex
100
AcDb2dVertex
 10
6.157113164006709
 20
-2.805653163106419
 30
0.0
  0
VERTEX
  5
F5
330
EF
100
AcDbEntity
  8
None
370
     0
100
AcDbVertex
100
AcDb2dVertex
 10
6.068780857492571
 20
-2.805653163106419
 30
0.0
  0
VERTEX
  5
F6
330
EF
100
AcDbEntity
  8
None
370
     0
100
AcDbVertex
100
AcDb2dVertex
 10
6.045388643716011
 20
-2.866011275825908
 30
0.0
  0
VERTEX
  5
F7
330
EF
100
AcDbEntity
  8
None
370
     0
100
AcDbVertex
100
AcDb2dVertex
 10
6.025579331607732
 20
-2.866011275825908
 30
0.0
  0
VERTEX
  5
F8
330
EF
100
AcDbEntity
  8
None
370
     0
100
AcDbVertex
100
AcDb2dVertex
 10
6.103886403646201
 20
-2.671845566187188
 30
0.0
  0
SEQEND
  5
F9
330
EF
100
AcDbEntity
  8
None
370
     0
  0
POLYLINE
  5
FA
330
D6
100
AcDbEntity
  8
None
370
     0
100
AcDb2dPolyline
 66
     1
 10
0.0
 20
0.0
 30
0.0
  0
VERTEX
  5
FB
330
FA
100
AcDbEntity
  8
None
370
     0
100
AcDbVertex
100
AcDb2dVertex
 10
6.074465268793208
 20
-2.789805713419796
 30
0.0
  0
VERTEX
  5
FC
330
FA
100
AcDbEntity
  8
None
370
     0
100
AcDbVertex
100
AcDb2dVertex
 10
6.150911988042378
 20
-2.789805713419796
 30
0.0
  0
VERTEX
  5
FD
330
FA
100
AcDbEntity
  8
None
370
     0
100
AcDbVertex
100
AcDb2dVertex
 10
6.113429324435755
 20
-2.690362966636231
 30
0.0
  0
VERTEX
  5
FE
330
FA
100
AcDbEntity
  8
None
370
     0
100
AcDbVertex
100
AcDb2dVertex
 10
6.074465268793208
 20
-2.789805713419796
 30
0.0
  0
SEQEND
  5
FF
330
FA
100
AcDbEntity
  8
None
370
     0
  0
HATCH
  5
100
330
D6
100
AcDbEntity
  8
None
 62
     8
420
  8028033
100
AcDbHatch
 10
0.0
 20
0.0
 30
0.0
210
0.0
220
0.0
230
1.0
  2
SOLID
 70
     1
 71
     0
 91
        2
 92
        1
 93
        8
 72
     1
 10
6.103886403646201
 20
-2.671845566187188
 11
6.124556990193971
 21
-2.671845566187188
 72
     1
 10
6.124556990193971
 20
-2.671845566187188
 11
6.200624748689765
 21
-2.866011275825908
 72
     1
 10
6.200624748689765
 20
-2.866011275825908
 11
6.180815436581486
 21
-2.866011275825908
 72
     1
 10
6.180815436581486
 20
-2.866011275825908
 11
6.157113164006709
 21
-2.805653163106419
 72
     1
 10
6.157113164006709
 20
-2.805653163106419
 11
6.068780857492571
 21
-2.805653163106419
 72
     1
 10
6.068780857492571
 20
-2.805653163106419
 11
6.045388643716011
 21
-2.866011275825908
 72
     1
 10
6.045388643716011
 20
-2.866011275825908
 11
6.025579331607732
 21
-2.866011275825908
 72
     1
 10
6.025579331607732
 20
-2.866011275825908
 11
6.103886403646201
 21
-2.671845566187188
 97
        0
 92
        1
 93
        3
 72
     1
 10
6.074465268793208
 20
-2.789805713419796
 11
6.150911988042378
 21
-2.789805713419796
 72
     1
 10
6.150911988042378
 20
-2.789805713419796
 11
6.113429324435755
 21
-2.690362966636231
 72
     1
 10
6.113429324435755
 20
-2.690362966636231
 11
6.074465268793208
 21
-2.789805713419796
 97
        0
 75
     2
 76
     1
 98
        0
  0
POLYLINE
  5
101
330
D6
100
AcDbEntity
  8
None
370
     0
100
AcDb2dPolyline
 66
     1
 10
0.0
 20
0.0
 30
0.0
  0
VERTEX
  5
102
330
101
100
AcDbEntity
  8
None
370
     0
100
AcDbVertex
100
AcDb2dVertex
 10
6.217781335524414
 20
-2.671845566187188
 30
0.0
  0
VERTEX
  5
103
330
101
100
AcDbEntity
  8
None
370
     0
100
AcDbVertex
100
AcDb2dVertex
 10
6.244894254879573
 20
-2.671845566187188
 30
0.0
  0
VERTEX
  5
104
330
101
100
AcDbEntity
  8
None
370
     0
100
AcDbVertex
100
AcDb2dVertex
 10
6.312142563114985
 20
-2.842102297385654
 30
0.0
  0
VERTEX
  5
105
330
101
100
AcDbEntity
  8
None
370
     0
100
AcDbVertex
100
AcDb2dVertex
 10
6.379011910597021
 20
-2.671845566187188
 30
0.0
  0
VERTEX
  5
106
330
101
100
AcDbEntity
  8
None
370
     0
100
AcDbVertex
100
AcDb2dVertex
 10
6.406228182884918
 20
-2.671845566187188
 30
0.0
  0
VERTEX
  5
107
330
101
100
AcDbEntity
  8
None
370
     0
100
AcDbVertex
100
AcDb2dVertex
 10
6.406228182884918
 20
-2.866011275825908
 30
0.0
  0
VERTEX
  5
108
330
101
100
AcDbEntity
  8
None
370
     0
100
AcDbVertex
100
AcDb2dVertex
 10
6.387728007924665
 20
-2.866011275825908
 30
0.0
  0
VERTEX
  5
109
330
101
100
AcDbEntity
  8
None
370
     0
100
AcDbVertex
100
AcDb2dVertex
 10
6.387728007924665
 20
-2.698217789524384
 30
0.0
  0
VERTEX
  5
10A
330
101
100
AcDbEntity
  8
None
370
     0
100
AcDbVertex
100
AcDb2dVertex
 10
6.387107890328231
 20
-2.698217789524384
 30
0.0
  0
VERTEX
  5
10B
330
101
100
AcDbEntity
  8
None
370
     0
100
AcDbVertex
100
AcDb2dVertex
 10
6.320824209465049
 20
-2.866011275825908
 30
0.0
  0
VERTEX
  5
10C
330
101
100
AcDbEntity
  8
None
370
     0
100
AcDbVertex
100
AcDb2dVertex
 10
6.303392014809762
 20
-2.866011275825908
 30
0.0
  0
VERTEX
  5
10D
330
101
100
AcDbEntity
  8
None
370
     0
100
AcDbVertex
100
AcDb2dVertex
 10
6.236832726125942
 20
-2.698217789524384
 30
0.0
  0
VERTEX
  5
10E
330
101
100
AcDbEntity
  8
None
370
     0
100
AcDbVertex
100
AcDb2dVertex
 10
6.23621260852951
 20
-2.698217789524384
 30
0.0
  0
VERTEX
  5
10F
330
101
100
AcDbEntity
  8
None
370
     0
100
AcDbVertex
100
AcDb2dVertex
 10
6.23621260852951
 20
-2.866011275825908
 30
0.0
  0
VERTEX
  5
110
330
101
100
AcDbEntity
  8
None
370
     0
100
AcDbVertex
100
AcDb2dVertex
 10
6.217781335524414
 20
-2.866011275825908
 30
0.0
  0
VERTEX
  5
111
330
101
100
AcDbEntity
  8
None
370
     0
100
AcDbVertex
100
AcDb2dVertex
 10
6.217781335524414
 20
-2.671845566187188
 30
0.0
  0
SEQEND
  5
112
330
101
100
AcDbEntity
  8
None
370
     0
  0
HATCH
  5
113
330
D6
100
AcDbEntity
  8
None
 62
     8
420
  8028033
100
AcDbHatch
 10
0.0
 20
0.0
 30
0.0
210
0.0
220
0.0
230
1.0
  2
SOLID
 70
     1
 71
     0
 91
        1
 92
        1
 93
       15
 72
     1
 10
6.217781335524414
 20
-2.671845566187188
 11
6.244894254879573
 21
-2.671845566187188
 72
     1
 10
6.244894254879573
 20
-2.671845566187188
 11
6.312142563114985
 21
-2.842102297385654
 72
     1
 10
6.312142563114985
 20
-2.842102297385654
 11
6.379011910597021
 21
-2.671845566187188
 72
     1
 10
6.379011910597021
 20
-2.671845566187188
 11
6.406228182884918
 21
-2.671845566187188
 72
     1
 10
6.406228182884918
 20
-2.671845566187188
 11
6.406228182884918
 21
-2.866011275825908
 72
     1
 10
6.406228182884918
 20
-2.866011275825908
 11
6.387728007924665
 21
-2.866011275825908
 72
     1
 10
6.387728007924665
 20
-2.866011275825908
 11
6.387728007924665
 21
-2.698217789524384
 72
     1
 10
6.387728007924665
 20
-2.698217789524384
 11
6.387107890328231
 21
-2.698217789524384
 72
     1
 10
6.387107890328231
 20
-2.698217789524384
 11
6.320824209465049
 21
-2.866011275825908
 72
     1
 10
6.320824209465049
 20
-2.866011275825908
 11
6.303392014809762
 21
-2.866011275825908
 72
     1
 10
6.303392014809762
 20
-2.866011275825908
 11
6.236832726125942
 21
-2.698217789524384
 72
     1
 10
6.236832726125942
 20
-2.698217789524384
 11
6.23621260852951
 21
-2.698217789524384
 72
     1
 10
6.23621260852951
 20
-2.698217789524384
 11
6.23621260852951
 21
-2.866011275825908
 72
     1
 10
6.23621260852951
 20
-2.866011275825908
 11
6.217781335524414
 21
-2.866011275825908
 72
     1
 10
6.217781335524414
 20
-2.866011275825908
 11
6.217781335524414
 21
-2.671845566187188
 97
        0
 75
     2
 76
     1
 98
        0
  0
POLYLINE
  5
114
330
D6
100
AcDbEntity
  8
None
370
     0
100
AcDb2dPolyline
 66
     1
 10
0.0
 20
0.0
 30
0.0
  0
VERTEX
  5
115
330
114
100
AcDbEntity
  8
None
370
     0
100
AcDbVertex
100
AcDb2dVertex
 10
6.446122414922115
 20
-2.671845566187188
 30
0.0
  0
VERTEX
  5
116
330
114
100
AcDbEntity
  8
None
370
     0
100
AcDbVertex
100
AcDb2dVertex
 10
6.464622589882369
 20
-2.671845566187188
 30
0.0
  0
VERTEX
  5
117
330
114
100
AcDbEntity
  8
None
370
     0
100
AcDbVertex
100
AcDb2dVertex
 10
6.464622589882369
 20
-2.866011275825908
 30
0.0
  0
VERTEX
  5
118
330
114
100
AcDbEntity
  8
None
370
     0
100
AcDbVertex
100
AcDb2dVertex
 10
6.446122414922115
 20
-2.866011275825908
 30
0.0
  0
VERTEX
  5
119
330
114
100
AcDbEntity
  8
None
370
     0
100
AcDbVertex
100
AcDb2dVertex
 10
6.446122414922115
 20
-2.671845566187188
 30
0.0
  0
SEQEND
  5
11A
330
114
100
AcDbEntity
  8
None
370
     0
  0
HATCH
  5
11B
330
D6
100
AcDbEntity
  8
None
 62
     8
420
  8028033
100
AcDbHatch
 10
0.0
 20
0.0
 30
0.0
210
0.0
220
0.0
230
1.0
  2
SOLID
 70
     1
 71
     0
 91
        1
 92
        1
 93
        4
 72
     1
 10
6.446122414922115
 20
-2.671845566187188
 11
6.464622589882369
 21
-2.671845566187188
 72
     1
 10
6.464622589882369
 20
-2.671845566187188
 11
6.464622589882369
 21
-2.866011275825908
 72
     1
 10
6.464622589882369
 20
-2.866011275825908
 11
6.446122414922115
 21
-2.866011275825908
 72
     1
 10
6.446122414922115
 20
-2.866011275825908
 11
6.446122414922115
 21
-2.671845566187188
 97
        0
 75
     2
 76
     1
 98
        0
  0
SPLINE
  5
11C
330
D6
100
AcDbEntity
  8
None
370
     0
100
AcDbSpline
210
0.0
220
0.0
230
1.0
 70
    11
 71
     3
 72
    35
 73
    31
 74
     0
 42
0.0000000001
 43
0.0000000001
 40
0.0
 40
0.0
 40
0.0
 40
0.0
 40
1.0
 40
1.0
 40
1.0
 40
2.0
 40
2.0
 40
2.0
 40
3.0
 40
3.0
 40
3.0
 40
4.0
 40
4.0
 40
4.0
 40
5.0
 40
5.0
 40
5.0
 40
6.0
 40
6.0
 40
6.0
 40
7.0
 40
7.0
 40
7.0
 40
8.0
 40
8.0
 40
8.0
 40
9.0
 40
9.0
 40
9.0
 40
10.0
 40
10.0
 40
10.0
 40
10.0
 10
6.6471094181216
 20
-2.730567257471644
 30
0.0
 10
6.640494830426314
 20
-2.700681034421327
 30
0.0
 10
6.615793479501728
 20
-2.683558898564257
 30
0.0
 10
6.587474775931283
 20
-2.683558898564257
 30
0.0
 10
6.536142819337654
 20
-2.683558898564257
 30
0.0
 10
6.514404252484916
 20
-2.72648481662846
 30
0.0
 10
6.514404252484916
 20
-2.768928421006548
 30
0.0
 10
6.514404252484916
 20
-2.811372025384636
 30
0.0
 10
6.536142819337654
 20
-2.854280717960048
 30
0.0
 10
6.587474775931283
 20
-2.854280717960048
 30
0.0
 10
6.623372694569244
 20
-2.854280717960048
 30
0.0
 10
6.64621369270453
 20
-2.826564906497247
 30
0.0
 10
6.64979659437281
 20
-2.792045026962471
 30
0.0
 10
6.64979659437281
 20
-2.792045026962471
 30
0.0
 10
6.668296769333065
 20
-2.792045026962471
 30
0.0
 10
6.668296769333065
 20
-2.792045026962471
 30
0.0
 10
6.663060220740962
 20
-2.839587376022342
 30
0.0
 10
6.632881164381218
 20
-2.870076491180303
 30
0.0
 10
6.587474775931283
 20
-2.870076491180303
 30
0.0
 10
6.526393192682622
 20
-2.870076491180303
 30
0.0
 10
6.495938528502241
 20
-2.821931250012788
 30
0.0
 10
6.495938528502241
 20
-2.768928421006548
 30
0.0
 10
6.495938528502241
 20
-2.715908366511517
 30
0.0
 10
6.526393192682622
 20
-2.667728674366423
 30
0.0
 10
6.587474775931283
 20
-2.667728674366423
 30
0.0
 10
6.624268419986314
 20
-2.667728674366423
 30
0.0
 10
6.660683103287969
 20
-2.689828976483748
 30
0.0
 10
6.665540691126695
 20
-2.730567257471644
 30
0.0
 10
6.665540691126695
 20
-2.730567257471644
 30
0.0
 10
6.6471094181216
 20
-2.730567257471644
 30
0.0
 10
6.6471094181216
 20
-2.730567257471644
 30
0.0
  0
HATCH
  5
11D
330
D6
100
AcDbEntity
  8
None
 62
     8
420
  8028033
100
AcDbHatch
 10
0.0
 20
0.0
 30
0.0
210
0.0
220
0.0
230
1.0
  2
SOLID
 70
     1
 71
     0
 91
        1
 92
        1
 93
        1
 72
     4
 94
        3
 73
     0
 74
     1
 95
       35
 96
       31
 40
0.0
 40
0.0
 40
0.0
 40
0.0
 40
1.0
 40
1.0
 40
1.0
 40
2.0
 40
2.0
 40
2.0
 40
3.0
 40
3.0
 40
3.0
 40
4.0
 40
4.0
 40
4.0
 40
5.0
 40
5.0
 40
5.0
 40
6.0
 40
6.0
 40
6.0
 40
7.0
 40
7.0
 40
7.0
 40
8.0
 40
8.0
 40
8.0
 40
9.0
 40
9.0
 40
9.0
 40
10.0
 40
10.0
 40
10.0
 40
10.0
 10
6.6471094181216
 20
-2.730567257471644
 10
6.640494830426314
 20
-2.700681034421327
 10
6.615793479501728
 20
-2.683558898564257
 10
6.587474775931283
 20
-2.683558898564257
 10
6.536142819337654
 20
-2.683558898564257
 10
6.514404252484916
 20
-2.72648481662846
 10
6.514404252484916
 20
-2.768928421006548
 10
6.514404252484916
 20
-2.811372025384636
 10
6.536142819337654
 20
-2.854280717960048
 10
6.587474775931283
 20
-2.854280717960048
 10
6.623372694569244
 20
-2.854280717960048
 10
6.64621369270453
 20
-2.826564906497247
 10
6.64979659437281
 20
-2.792045026962471
 10
6.64979659437281
 20
-2.792045026962471
 10
6.668296769333065
 20
-2.792045026962471
 10
6.668296769333065
 20
-2.792045026962471
 10
6.663060220740962
 20
-2.839587376022342
 10
6.632881164381218
 20
-2.870076491180303
 10
6.587474775931283
 20
-2.870076491180303
 10
6.526393192682622
 20
-2.870076491180303
 10
6.495938528502241
 20
-2.821931250012788
 10
6.495938528502241
 20
-2.768928421006548
 10
6.495938528502241
 20
-2.715908366511517
 10
6.526393192682622
 20
-2.667728674366423
 10
6.587474775931283
 20
-2.667728674366423
 10
6.624268419986314
 20
-2.667728674366423
 10
6.660683103287969
 20
-2.689828976483748
 10
6.665540691126695
 20
-2.730567257471644
 10
6.665540691126695
 20
-2.730567257471644
 10
6.6471094181216
 20
-2.730567257471644
 10
6.6471094181216
 20
-2.730567257471644
 97
        0
 75
     2
 76
     1
 98
        0
  0
POLYLINE
  5
11E
330
D6
100
AcDbEntity
  8
None
370
     0
100
AcDb2dPolyline
 66
     1
 10
0.0
 20
0.0
 30
0.0
  0
VERTEX
  5
11F
330
11E
100
AcDbEntity
  8
None
370
     0
100
AcDbVertex
100
AcDb2dVertex
 10
6.753287331021979
 20
-2.671845566187188
 30
0.0
  0
VERTEX
  5
120
330
11E
100
AcDbEntity
  8
None
370
     0
100
AcDbVertex
100
AcDb2dVertex
 10
6.774026819524908
 20
-2.671845566187188
 30
0.0
  0
VERTEX
  5
121
330
11E
100
AcDbEntity
  8
None
370
     0
100
AcDbVertex
100
AcDb2dVertex
 10
6.850129028998282
 20
-2.866011275825908
 30
0.0
  0
VERTEX
  5
122
330
11E
100
AcDbEntity
  8
None
370
     0
100
AcDbVertex
100
AcDb2dVertex
 10
6.830285265912423
 20
-2.866011275825908
 30
0.0
  0
VERTEX
  5
123
330
11E
100
AcDbEntity
  8
None
370
     0
100
AcDbVertex
100
AcDb2dVertex
 10
6.806617444315227
 20
-2.805653163106419
 30
0.0
  0
VERTEX
  5
124
330
11E
100
AcDbEntity
  8
None
370
     0
100
AcDbVertex
100
AcDb2dVertex
 10
6.718354039756248
 20
-2.805653163106419
 30
0.0
  0
VERTEX
  5
125
330
11E
100
AcDbEntity
  8
None
370
     0
100
AcDbVertex
100
AcDb2dVertex
 10
6.694892924024528
 20
-2.866011275825908
 30
0.0
  0
VERTEX
  5
126
330
11E
100
AcDbEntity
  8
None
370
     0
100
AcDbVertex
100
AcDb2dVertex
 10
6.675118062893828
 20
-2.866011275825908
 30
0.0
  0
VERTEX
  5
127
330
11E
100
AcDbEntity
  8
None
370
     0
100
AcDbVertex
100
AcDb2dVertex
 10
6.753287331021979
 20
-2.671845566187188
 30
0.0
  0
SEQEND
  5
128
330
11E
100
AcDbEntity
  8
None
370
     0
  0
POLYLINE
  5
129
330
D6
100
AcDbEntity
  8
None
370
     0
100
AcDb2dPolyline
 66
     1
 10
0.0
 20
0.0
 30
0.0
  0
VERTEX
  5
12A
330
129
100
AcDbEntity
  8
None
370
     0
100
AcDbVertex
100
AcDb2dVertex
 10
6.723935098124145
 20
-2.789805713419796
 30
0.0
  0
VERTEX
  5
12B
330
129
100
AcDbEntity
  8
None
370
     0
100
AcDbVertex
100
AcDb2dVertex
 10
6.800416268350895
 20
-2.789805713419796
 30
0.0
  0
VERTEX
  5
12C
330
129
100
AcDbEntity
  8
None
370
     0
100
AcDbVertex
100
AcDb2dVertex
 10
6.762968055721852
 20
-2.690362966636231
 30
0.0
  0
VERTEX
  5
12D
330
129
100
AcDbEntity
  8
None
370
     0
100
AcDbVertex
100
AcDb2dVertex
 10
6.723935098124145
 20
-2.789805713419796
 30
0.0
  0
SEQEND
  5
12E
330
129
100
AcDbEntity
  8
None
370
     0
  0
HATCH
  5
12F
330
D6
100
AcDbEntity
  8
None
 62
     8
420
  8028033
100
AcDbHatch
 10
0.0
 20
0.0
 30
0.0
210
0.0
220
0.0
230
1.0
  2
SOLID
 70
     1
 71
     0
 91
        2
 92
        1
 93
        8
 72
     1
 10
6.753287331021979
 20
-2.671845566187188
 11
6.774026819524908
 21
-2.671845566187188
 72
     1
 10
6.774026819524908
 20
-2.671845566187188
 11
6.850129028998282
 21
-2.866011275825908
 72
     1
 10
6.850129028998282
 20
-2.866011275825908
 11
6.830285265912423
 21
-2.866011275825908
 72
     1
 10
6.830285265912423
 20
-2.866011275825908
 11
6.806617444315227
 21
-2.805653163106419
 72
     1
 10
6.806617444315227
 20
-2.805653163106419
 11
6.718354039756248
 21
-2.805653163106419
 72
     1
 10
6.718354039756248
 20
-2.805653163106419
 11
6.694892924024528
 21
-2.866011275825908
 72
     1
 10
6.694892924024528
 20
-2.866011275825908
 11
6.675118062893828
 21
-2.866011275825908
 72
     1
 10
6.675118062893828
 20
-2.866011275825908
 11
6.753287331021979
 21
-2.671845566187188
 97
        0
 92
        1
 93
        3
 72
     1
 10
6.723935098124145
 20
-2.789805713419796
 11
6.800416268350895
 21
-2.789805713419796
 72
     1
 10
6.800416268350895
 20
-2.789805713419796
 11
6.762968055721852
 21
-2.690362966636231
 72
     1
 10
6.762968055721852
 20
-2.690362966636231
 11
6.723935098124145
 21
-2.789805713419796
 97
        0
 75
     2
 76
     1
 98
        0
  0
ENDBLK
  5
D9
330
D6
100
AcDbEntity
  8
0
100
AcDbBlockEnd
  0
BLOCK
  5
136
330
134
100
AcDbEntity
  8
0
100
AcDbBlockBegin
  2
block 9
 70
     0
 71
     0
 10
0.0
 20
0.0
 30
0.0
  3
block 9
  1

  0
POLYLINE
  5
138
330
134
100
AcDbEntity
  8
None
 62
   168
420
  1644058
370
    18
100
AcDb2dPolyline
 66
     1
 10
0.0
 20
0.0
 30
0.0
  0
VERTEX
  5
139
330
138
100
AcDbEntity
  8
None
 62
   168
420
  1644058
370
    18
100
AcDbVertex
100
AcDb2dVertex
 10
14.52001906950355
 20
-13.9352998525335
 30
0.0
  0
VERTEX
  5
13A
330
138
100
AcDbEntity
  8
None
 62
   168
420
  1644058
370
    18
100
AcDbVertex
100
AcDb2dVertex
 10
14.52001906950355
 20
-14.5363316073875
 30
0.0
  0
SEQEND
  5
13B
330
138
100
AcDbEntity
  8
None
370
    18
  0
SPLINE
  5
13C
330
134
100
AcDbEntity
  8
None
 62
   168
420
  1644058
370
    18
100
AcDbSpline
210
0.0
220
0.0
230
1.0
 70
     8
 71
     3
 72
    29
 73
    25
 74
     0
 42
0.0000000001
 43
0.0000000001
 40
0.0
 40
0.0
 40
0.0
 40
0.0
 40
1.0
 40
1.0
 40
1.0
 40
2.0
 40
2.0
 40
2.0
 40
3.0
 40
3.0
 40
3.0
 40
4.0
 40
4.0
 40
4.0
 40
5.0
 40
5.0
 40
5.0
 40
6.0
 40
6.0
 40
6.0
 40
7.0
 40
7.0
 40
7.0
 40
8.0
 40
8.0
 40
8.0
 40
8.0
 10
14.52001906950355
 20
-13.9352998525335
 30
0.0
 10
14.52001906950355
 20
-13.67419589345758
 30
0.0
 10
14.52001906950355
 20
-13.41336754220231
 30
0.0
 10
14.52001906950355
 20
-13.15195352432817
 30
0.0
 10
14.52001906950355
 20
-12.3282823268659
 30
0.0
 10
13.90820415866713
 20
-11.66129417543573
 30
0.0
 10
13.09684918568957
 20
-11.60191791557726
 30
0.0
 10
13.09684918568957
 20
-11.60191791557726
 30
0.0
 10
7.813826224832905
 20
-11.60191791557726
 30
0.0
 10
7.813826224832905
 20
-11.60191791557726
 30
0.0
 10
7.002626281254456
 20
-11.66129417543573
 30
0.0
 10
6.390621890041352
 20
-12.3282823268659
 30
0.0
 10
6.390621890041352
 20
-13.15195352432817
 30
0.0
 10
6.390621890041352
 20
-13.6134932709623
 30
0.0
 10
6.390621890041352
 20
-14.07475740977579
 30
0.0
 10
6.390621890041352
 20
-14.5363316073875
 30
0.0
 10
6.390621890041352
 20
-15.3602784126704
 30
0.0
 10
7.002626281254456
 20
-16.02721488763421
 30
0.0
 10
7.813826224832905
 20
-16.08633276516083
 30
0.0
 10
7.813826224832905
 20
-16.08633276516083
 30
0.0
 10
13.09684918568957
 20
-16.08633276516083
 30
0.0
 10
13.09684918568957
 20
-16.08633276516083
 30
0.0
 10
13.90820415866713
 20
-16.02721488763421
 30
0.0
 10
14.52001906950355
 20
-15.3602784126704
 30
0.0
 10
14.52001906950355
 20
-14.5363316073875
 30
0.0
  0
ENDBLK
  5
137
330
134
100
AcDbEntity
  8
0
100
AcDbBlockEnd
  0
ENDSEC
  0
SECTION
  2
ENTITIES
  0
MTEXT
  5
3C
330
1F
100
AcDbEntity
  8
Livello 1
 62
   168
420
  1644058
100
AcDbMText
 10
8.998233608531343
 20
-2.191530036772169
 30
0.0
 40
0.287866856498866
 41
0.0
 71
     7
 72
     1
  1
\fArial|b1|i0|c0|p34;\W1;DUE\H0.191911;:\fArial|b0|i0|c0|p34;  \H0.287867;LAVABO SOTTOPIANO 70
 73
     1
 44
1.0
  0
MTEXT
  5
3D
330
1F
100
AcDbEntity
  8
Livello 1
 62
   168
420
  1644058
100
AcDbMText
 10
8.998233608531343
 20
-2.558415722506299
 30
0.0
 40
0.287866856498866
 41
0.0
 71
     7
 72
     1
  1
\fArial|b0|i1|c0|p34;\W1;         UNDER COUNTER 70 WASH-BASIN  \fArial|b0|i0|c0|p34;\H0.191911;  
 73
     1
 44
1.0
  0
MTEXT
  5
3E
330
1F
100
AcDbEntity
  8
0
100
AcDbMText
 10
0.0
 20
0.0
 30
0.0
 40
0.0
 41
0.0
 71
     1
 72
     1
  1

 73
     1
 44
1.0
  0
MTEXT
  5
3F
330
1F
100
AcDbEntity
  8
Livello 1
 62
   168
420
  1644058
100
AcDbMText
 10
8.998233608531343
 20
-2.953533984366925
 30
0.0
 40
0.1919112376659106
 41
0.0
 71
     7
 72
     1
  1
\fArial|b0|i0|c0|p34;\W1;                
 73
     1
 44
1.0
  0
MTEXT
  5
40
330
1F
100
AcDbEntity
  8
Livello 1
 62
   168
420
  1644058
100
AcDbMText
 10
8.998233608531343
 20
-3.320419670101055
 30
0.0
 40
0.287866856498866
 41
0.0
 71
     7
 72
     1
  1
\fArial|b0|i0|c0|p34;\W1;CODICE/\fArial|b0|i1|c0|p34;CODE\fArial|b0|i0|c0|p34;: \fArial|b1|i0|c0|p34;15094 \fArial|b0|i0|c0|p34;Lavabo sottopiano 70  - 
 73
     1
 44
1.0
  0
MTEXT
  5
41
330
1F
100
AcDbEntity
  8
Livello 1
 62
   168
420
  1644058
100
AcDbMText
 10
8.998233608531343
 20
-3.687305355835185
 30
0.0
 40
0.287866856498866
 41
0.0
 71
     7
 72
     1
  1
\fArial|b0|i0|c0|p34;\W1;CM 66,5x36,5 H 16 -  
 73
     1
 44
1.0
  0
MTEXT
  5
42
330
1F
100
AcDbEntity
  8
Livello 1
 62
   168
420
  1644058
100
AcDbMText
 10
8.998233608531343
 20
-4.054191041569315
 30
0.0
 40
0.287866856498866
 41
0.0
 71
     7
 72
     1
  1
\fArial|b0|i1|c0|p34;\W1;Under counter 70 wash-basin
 73
     1
 44
1.0
  0
MTEXT
  5
43
330
1F
100
AcDbEntity
  8
0
100
AcDbMText
 10
0.0
 20
0.0
 30
0.0
 40
0.0
 41
0.0
 71
     1
 72
     1
  1

 73
     1
 44
1.0
  0
MTEXT
  5
44
330
1F
100
AcDbEntity
  8
0
100
AcDbMText
 10
0.0
 20
0.0
 30
0.0
 40
0.0
 41
0.0
 71
     1
 72
     1
  1

 73
     1
 44
1.0
  0
MTEXT
  5
45
330
1F
100
AcDbEntity
  8
Livello 1
 62
   168
420
  1644058
100
AcDbMText
 10
8.998233608531343
 20
-5.154865324260495
 30
0.0
 40
0.287866856498866
 41
0.0
 71
     7
 72
     1
  1
\fArial|b0|i0|c0|p34;\W1;               
 73
     1
 44
1.0
  0
MTEXT
  5
46
330
1F
100
AcDbEntity
  8
Livello 1
 62
   168
420
  1644058
100
AcDbMText
 10
8.998233608531343
 20
-5.45119540791157
 30
0.0
 40
0.1679223329576718
 41
0.0
 71
     7
 72
     1
  1
\fArial|b0|i0|c0|p34;\W1;N.B.: Le misure  indicate possono subire una variazione dello 0.8 % circa, dovuta ad usura stampi 
 73
     1
 44
1.0
  0
MTEXT
  5
47
330
1F
100
AcDbEntity
  8
Livello 1
 62
   168
420
  1644058
100
AcDbMText
 10
8.998233608531343
 20
-5.747525491562643
 30
0.0
 40
0.1679223329576718
 41
0.0
 71
     7
 72
     1
  1
\fArial|b0|i0|c0|p34;\W1;o a piccole variazioni delle caratteristiche tecniche relative alle materie prime che compongono l\U+2019 
 73
     1
 44
1.0
  0
MTEXT
  5
48
330
1F
100
AcDbEntity
  8
Livello 1
 62
   168
420
  1644058
100
AcDbMText
 10
8.998233608531343
 20
-6.043872800702508
 30
0.0
 40
0.1679223329576718
 41
0.0
 71
     7
 72
     1
  1
\fArial|b0|i0|c0|p34;\W1;impasto.
 73
     1
 44
1.0
  0
MTEXT
  5
49
330
1F
100
AcDbEntity
  8
0
100
AcDbMText
 10
0.0
 20
0.0
 30
0.0
 40
0.0
 41
0.0
 71
     1
 72
     1
  1

 73
     1
 44
1.0
  0
MTEXT
  5
4A
330
1F
100
AcDbEntity
  8
Livello 1
 62
   168
420
  1644058
100
AcDbMText
 10
8.998233608531343
 20
-6.594192716559308
 30
0.0
 40
0.1679223329576718
 41
0.0
 71
     7
 72
     1
  1
\fArial|b0|i1|c0|p34;\W1;N.B.: Indicated size could have a variation of about 0,8 %  due to the usure of the moulds or the 
 73
     1
 44
1.0
  0
MTEXT
  5
4B
330
1F
100
AcDbEntity
  8
Livello 1
 62
   168
420
  1644058
100
AcDbMText
 10
8.998233608531343
 20
-6.890540025699173
 30
0.0
 40
0.1679223329576718
 41
0.0
 71
     7
 72
     1
  1
\fArial|b0|i1|c0|p34;\W1;small variations of the raw materials\U+2019 technical characteristics used in the mixture.\H0.143933; 
 73
     1
 44
1.0
  0
POLYLINE
  5
4C
330
1F
100
AcDbEntity
  8
Livello 1
370
     0
100
AcDb2dPolyline
 66
     1
 10
0.0
 20
0.0
 30
0.0
  0
VERTEX
  5
4D
330
4C
100
AcDbEntity
  8
Livello 1
370
     0
100
AcDbVertex
100
AcDb2dVertex
 10
10.5010369270206
 20
274.1438091192005
 30
0.0
  0
VERTEX
  5
4E
330
4C
100
AcDbEntity
  8
Livello 1
370
     0
100
AcDbVertex
100
AcDb2dVertex
 10
10.5010369270206
 20
-303.8124225696365
 30
0.0
  0
SEQEND
  5
4F
330
4C
100
AcDbEntity
  8
Livello 1
370
     0
  0
POLYLINE
  5
51
330
1F
100
AcDbEntity
  8
None
370
     0
100
AcDb2dPolyline
 66
     1
 10
0.0
 20
0.0
 30
0.0
  0
VERTEX
  5
52
330
51
100
AcDbEntity
  8
None
370
     0
100
AcDbVertex
100
AcDb2dVertex
 10
-278.5182564483499
 20
-7.549432197398136
 30
0.0
  0
VERTEX
  5
53
330
51
100
AcDbEntity
  8
None
370
     0
100
AcDbVertex
100
AcDb2dVertex
 10
299.437975240487
 20
-7.549432197398136
 30
0.0
  0
SEQEND
  5
54
330
51
100
AcDbEntity
  8
None
370
     0
  0
POLYLINE
  5
55
330
1F
100
AcDbEntity
  8
None
370
     0
100
AcDb2dPolyline
 66
     1
 10
0.0
 20
0.0
 30
0.0
  0
VERTEX
  5
56
330
55
100
AcDbEntity
  8
None
370
     0
100
AcDbVertex
100
AcDb2dVertex
 10
1.093594606798568
 20
274.1438091192005
 30
0.0
  0
VERTEX
  5
57
330
55
100
AcDbEntity
  8
None
370
     0
100
AcDbVertex
100
AcDb2dVertex
 10
1.093594606798568
 20
-303.8124225696365
 30
0.0
  0
SEQEND
  5
58
330
55
100
AcDbEntity
  8
None
370
     0
  0
POLYLINE
  5
59
330
1F
100
AcDbEntity
  8
None
370
     0
100
AcDb2dPolyline
 66
     1
 10
0.0
 20
0.0
 30
0.0
  0
VERTEX
  5
5A
330
59
100
AcDbEntity
  8
None
370
     0
100
AcDbVertex
100
AcDb2dVertex
 10
-278.5182564483499
 20
-1.83442842867065
 30
0.0
  0
VERTEX
  5
5B
330
59
100
AcDbEntity
  8
None
370
     0
100
AcDbVertex
100
AcDb2dVertex
 10
299.437975240487
 20
-1.83442842867065
 30
0.0
  0
SEQEND
  5
5C
330
59
100
AcDbEntity
  8
None
370
     0
  0
POLYLINE
  5
5D
330
1F
100
AcDbEntity
  8
None
370
     0
100
AcDb2dPolyline
 66
     1
 10
0.0
 20
0.0
 30
0.0
  0
VERTEX
  5
5E
330
5D
100
AcDbEntity
  8
None
370
     0
100
AcDbVertex
100
AcDb2dVertex
 10
19.7202563312364
 20
274.1438091192005
 30
0.0
  0
VERTEX
  5
5F
330
5D
100
AcDbEntity
  8
None
370
     0
100
AcDbVertex
100
AcDb2dVertex
 10
19.7202563312364
 20
-303.8124225696365
 30
0.0
  0
SEQEND
  5
60
330
5D
100
AcDbEntity
  8
None
370
     0
  0
POLYLINE
  5
61
330
1F
100
AcDbEntity
  8
None
370
     0
100
AcDb2dPolyline
 66
     1
 10
0.0
 20
0.0
 30
0.0
  0
VERTEX
  5
62
330
61
100
AcDbEntity
  8
None
370
     0
100
AcDbVertex
100
AcDb2dVertex
 10
-278.5182564483499
 20
-27.58720596349707
 30
0.0
  0
VERTEX
  5
63
330
61
100
AcDbEntity
  8
None
370
     0
100
AcDbVertex
100
AcDb2dVertex
 10
299.437975240487
 20
-27.58720596349707
 30
0.0
  0
SEQEND
  5
64
330
61
100
AcDbEntity
  8
None
370
     0
  0
POLYLINE
  5
65
330
1F
100
AcDbEntity
  8
None
370
     0
100
AcDb2dPolyline
 66
     1
 10
0.0
 20
0.0
 30
0.0
  0
VERTEX
  5
66
330
65
100
AcDbEntity
  8
None
370
     0
100
AcDbVertex
100
AcDb2dVertex
 10
2.010817433878288
 20
274.1438091192005
 30
0.0
  0
VERTEX
  5
67
330
65
100
AcDbEntity
  8
None
370
     0
100
AcDbVertex
100
AcDb2dVertex
 10
2.010817433878288
 20
-303.8124225696365
 30
0.0
  0
SEQEND
  5
68
330
65
100
AcDbEntity
  8
None
370
     0
  0
POLYLINE
  5
69
330
1F
100
AcDbEntity
  8
None
370
     0
100
AcDb2dPolyline
 66
     1
 10
0.0
 20
0.0
 30
0.0
  0
VERTEX
  5
6A
330
69
100
AcDbEntity
  8
None
370
     0
100
AcDbVertex
100
AcDb2dVertex
 10
18.6972001010321
 20
274.1438091192005
 30
0.0
  0
VERTEX
  5
6B
330
69
100
AcDbEntity
  8
None
370
     0
100
AcDbVertex
100
AcDb2dVertex
 10
18.6972001010321
 20
-303.8124225696365
 30
0.0
  0
SEQEND
  5
6C
330
69
100
AcDbEntity
  8
None
370
     0
  0
POLYLINE
  5
6D
330
1F
100
AcDbEntity
  8
None
370
     0
100
AcDb2dPolyline
 66
     1
 10
0.0
 20
0.0
 30
0.0
  0
VERTEX
  5
6E
330
6D
100
AcDbEntity
  8
None
370
     0
100
AcDbVertex
100
AcDb2dVertex
 10
-278.5182564483499
 20
-14.85000775824991
 30
0.0
  0
VERTEX
  5
6F
330
6D
100
AcDbEntity
  8
None
370
     0
100
AcDbVertex
100
AcDb2dVertex
 10
299.437975240487
 20
-14.85000775824991
 30
0.0
  0
SEQEND
  5
70
330
6D
100
AcDbEntity
  8
None
370
     0
  0
POLYLINE
  5
71
330
1F
100
AcDbEntity
  8
None
370
     0
100
AcDb2dPolyline
 66
     1
 10
0.0
 20
0.0
 30
0.0
  0
VERTEX
  5
72
330
71
100
AcDbEntity
  8
None
370
     0
100
AcDbVertex
100
AcDb2dVertex
 10
-278.5182564483499
 20
-21.49589416666743
 30
0.0
  0
VERTEX
  5
73
330
71
100
AcDbEntity
  8
None
370
     0
100
AcDbVertex
100
AcDb2dVertex
 10
299.437975240487
 20
-21.49589416666743
 30
0.0
  0
SEQEND
  5
74
330
71
100
AcDbEntity
  8
None
370
     0
  0
POLYLINE
  5
75
330
1F
100
AcDbEntity
  8
None
370
     0
100
AcDb2dPolyline
 66
     1
 10
0.0
 20
0.0
 30
0.0
  0
VERTEX
  5
76
330
75
100
AcDbEntity
  8
None
370
     0
100
AcDbVertex
100
AcDb2dVertex
 10
-278.5182564483499
 20
-7.24957088854515
 30
0.0
  0
VERTEX
  5
77
330
75
100
AcDbEntity
  8
None
370
     0
100
AcDbVertex
100
AcDb2dVertex
 10
299.437975240487
 20
-7.24957088854515
 30
0.0
  0
SEQEND
  5
78
330
75
100
AcDbEntity
  8
None
370
     0
  0
MTEXT
  5
79
330
1F
100
AcDbEntity
  8
None
 62
   168
420
  1644058
100
AcDbMText
 10
1.103137527588122
 20
-4.972275143088525
 30
0.0
 40
0.2159001423741495
 41
0.0
 71
     7
 72
     1
  1
\fArial|b1|i0|c0|p34;\W1;UNOCERAMICA S.r.l.
 73
     1
 44
1.0
  0
MTEXT
  5
7A
330
1F
100
AcDbEntity
  8
0
100
AcDbMText
 10
0.0
 20
0.0
 30
0.0
 40
0.0
 41
0.0
 71
     1
 72
     1
  1

 73
     1
 44
1.0
  0
MTEXT
  5
7B
330
1F
100
AcDbEntity
  8
None
 62
   168
420
  1644058
100
AcDbMText
 10
1.103137527588122
 20
-5.734279090683281
 30
0.0
 40
0.2159001423741495
 41
0.0
 71
     7
 72
     1
  1
\fArial|b0|i0|c0|p34;\W1;Via Gargarasi - Zona Industriale
 73
     1
 44
1.0
  0
MTEXT
  5
7C
330
1F
100
AcDbEntity
  8
None
 62
   168
420
  1644058
100
AcDbMText
 10
1.103137527588122
 20
-6.115272451736264
 30
0.0
 40
0.2159001423741495
 41
0.0
 71
     7
 72
     1
  1
\fArial|b0|i0|c0|p34;\W1;01033 Civita Castellana, VITERBO ITALY
 73
     1
 44
1.0
  0
MTEXT
  5
7D
330
1F
100
AcDbEntity
  8
None
 62
   168
420
  1644058
100
AcDbMText
 10
1.103137527588122
 20
-6.496283038278038
 30
0.0
 40
0.2159001423741495
 41
0.0
 71
     7
 72
     1
  1
\fArial|b0|i0|c0|p34;\W1;Tel. +39 0761.540175  Fax +39 0761.540721
 73
     1
 44
1.0
  0
MTEXT
  5
7E
330
1F
100
AcDbEntity
  8
None
 62
   168
420
  1644058
100
AcDbMText
 10
1.103137527588122
 20
-6.87727639933102
 30
0.0
 40
0.2159001423741495
 41
0.0
 71
     7
 72
     1
  1
\fArial|b0|i0|c0|p34;\W1;info@unoceramica.com
 73
     1
 44
1.0
  0
MTEXT
  5
7F
330
1F
100
AcDbEntity
  8
None
 62
   168
420
  1644058
100
AcDbMText
 10
1.103137527588122
 20
-7.258269760384003
 30
0.0
 40
0.2159001423741495
 41
0.0
 71
     7
 72
     1
  1
\fArial|b0|i0|c0|p34;\W1;www.unoceramica.com
 73
     1
 44
1.0
  0
MTEXT
  5
80
330
1F
100
AcDbEntity
  8
None
 62
   168
420
  1644058
100
AcDbMText
 10
1.103137527588122
 20
-7.639280346925776
 30
0.0
 40
0.2159001423741495
 41
0.0
 71
     7
 72
     1
  1
\fOCRAbyBT Regular|b0|i0|c0|p34;\W1; 
 73
     1
 44
1.0
  0
INSERT
  5
82
330
1F
100
AcDbEntity
  8
None
100
AcDbBlockReference
  2
block 2
 10
0.0
 20
0.0
 30
0.0
  0
SPLINE
  5
130
330
1F
100
AcDbEntity
  8
None
 62
   168
420
  1644058
370
    18
100
AcDbSpline
210
0.0
220
0.0
230
1.0
 70
    11
 71
     3
 72
    53
 73
    49
 74
     0
 42
0.0000000001
 43
0.0000000001
 40
0.0
 40
0.0
 40
0.0
 40
0.0
 40
1.0
 40
1.0
 40
1.0
 40
2.0
 40
2.0
 40
2.0
 40
3.0
 40
3.0
 40
3.0
 40
4.0
 40
4.0
 40
4.0
 40
5.0
 40
5.0
 40
5.0
 40
6.0
 40
6.0
 40
6.0
 40
7.0
 40
7.0
 40
7.0
 40
8.0
 40
8.0
 40
8.0
 40
9.0
 40
9.0
 40
9.0
 40
10.0
 40
10.0
 40
10.0
 40
11.0
 40
11.0
 40
11.0
 40
12.0
 40
12.0
 40
12.0
 40
13.0
 40
13.0
 40
13.0
 40
14.0
 40
14.0
 40
14.0
 40
15.0
 40
15.0
 40
15.0
 40
16.0
 40
16.0
 40
16.0
 40
16.0
 10
14.21054593790585
 20
-13.83590878221631
 30
0.0
 10
14.21054593790585
 20
-13.5883096063516
 30
0.0
 10
14.21054593790585
 20
-13.34071043048689
 30
0.0
 10
14.21054593790585
 20
-13.09311125462219
 30
0.0
 10
14.21054593790585
 20
-12.45817973782985
 30
0.0
 10
13.67521219729618
 20
-11.9099613316054
 30
0.0
 10
13.04262334697926
 20
-11.9099613316054
 30
0.0
 10
12.17842057439457
 20
-11.9099613316054
 30
0.0
 10
11.3143556057202
 20
-11.9099613316054
 30
0.0
 10
10.45023896057946
 20
-11.9099613316054
 30
0.0
 10
10.45023896057946
 20
-11.9099613316054
 30
0.0
 10
10.47742078188977
 20
-11.9099613316054
 30
0.0
 10
10.47742078188977
 20
-11.9099613316054
 30
0.0
 10
9.612925175995658
 20
-11.9099613316054
 30
0.0
 10
8.748963560254026
 20
-11.9099613316054
 30
0.0
 10
7.885001944512394
 20
-11.9099613316054
 30
0.0
 10
7.252085809908462
 20
-11.9099613316054
 30
0.0
 10
6.716958775164273
 20
-12.45817973782985
 30
0.0
 10
6.716958775164273
 20
-13.09311125462219
 30
0.0
 10
6.716958775164273
 20
-13.34071043048689
 30
0.0
 10
6.716958775164273
 20
-13.5883096063516
 30
0.0
 10
6.716958775164273
 20
-13.83590878221631
 30
0.0
 10
6.716958775164273
 20
-13.83590878221631
 30
0.0
 10
6.716958775164273
 20
-13.82581464578548
 30
0.0
 10
6.716958775164273
 20
-13.82581464578548
 30
0.0
 10
6.716958775164273
 20
-14.07344827262776
 30
0.0
 10
6.716958775164273
 20
-14.32080629164941
 30
0.0
 10
6.716958775164273
 20
-14.56837101653654
 30
0.0
 10
6.716958775164273
 20
-15.20359536663831
 30
0.0
 10
7.252085809908462
 20
-15.75184822384033
 30
0.0
 10
7.885001944512394
 20
-15.75184822384033
 30
0.0
 10
8.748963560254026
 20
-15.75184822384033
 30
0.0
 10
9.612925175995658
 20
-15.75184822384033
 30
0.0
 10
10.47742078188977
 20
-15.75184822384033
 30
0.0
 10
10.47742078188977
 20
-15.75184822384033
 30
0.0
 10
10.45023896057946
 20
-15.75184822384033
 30
0.0
 10
10.45023896057946
 20
-15.75184822384033
 30
0.0
 10
11.3143556057202
 20
-15.75184822384033
 30
0.0
 10
12.17842057439457
 20
-15.75184822384033
 30
0.0
 10
13.04262334697926
 20
-15.75184822384033
 30
0.0
 10
13.67521219729618
 20
-15.75184822384033
 30
0.0
 10
14.21054593790585
 20
-15.20359536663831
 30
0.0
 10
14.21054593790585
 20
-14.56837101653654
 30
0.0
 10
14.21054593790585
 20
-14.32080629164941
 30
0.0
 10
14.21054593790585
 20
-14.07344827262776
 30
0.0
 10
14.21054593790585
 20
-13.82581464578548
 30
0.0
 10
14.21054593790585
 20
-13.82581464578548
 30
0.0
 10
14.21054593790585
 20
-13.83590878221631
 30
0.0
 10
14.21054593790585
 20
-13.83590878221631
 30
0.0
  0
SPLINE
  5
131
330
1F
100
AcDbEntity
  8
None
 62
   168
420
  1644058
370
     9
100
AcDbSpline
210
0.0
220
0.0
230
1.0
 70
     8
 71
     3
 72
    14
 73
    10
 74
     0
 42
0.0000000001
 43
0.0000000001
 40
0.0
 40
0.0
 40
0.0
 40
0.0
 40
1.0
 40
1.0
 40
1.0
 40
2.0
 40
2.0
 40
2.0
 40
3.0
 40
3.0
 40
3.0
 40
3.0
 10
11.01049798346798
 20
-11.60059155294044
 30
0.0
 10
11.01049798346798
 20
-11.60059155294044
 30
0.0
 10
11.01049798346798
 20
-11.72916260126757
 30
0.0
 10
11.01049798346798
 20
-11.72916260126757
 30
0.0
 10
11.01049798346798
 20
-11.72916260126757
 30
0.0
 10
11.02062657087638
 20
-11.79623865461509
 30
0.0
 10
10.93560155820989
 20
-11.79623865461509
 30
0.0
 10
10.77554231637499
 20
-11.79623865461509
 30
0.0
 10
10.61555197649525
 20
-11.79623865461509
 30
0.0
 10
10.45554441112672
 20
-11.79623865461509
 30
0.0
  0
SPLINE
  5
132
330
1F
100
AcDbEntity
  8
None
 62
   168
420
  1644058
370
     9
100
AcDbSpline
210
0.0
220
0.0
230
1.0
 70
     8
 71
     3
 72
    14
 73
    10
 74
     0
 42
0.0000000001
 43
0.0000000001
 40
0.0
 40
0.0
 40
0.0
 40
0.0
 40
1.0
 40
1.0
 40
1.0
 40
2.0
 40
2.0
 40
2.0
 40
3.0
 40
3.0
 40
3.0
 40
3.0
 10
9.904277093386478
 20
-11.60059155294044
 30
0.0
 10
9.904277093386478
 20
-11.60059155294044
 30
0.0
 10
9.904277093386478
 20
-11.72916260126757
 30
0.0
 10
9.904277093386478
 20
-11.72916260126757
 30
0.0
 10
9.904277093386478
 20
-11.72916260126757
 30
0.0
 10
9.894458564776288
 20
-11.79623865461509
 30
0.0
 10
9.979414675487623
 20
-11.79623865461509
 30
0.0
 10
10.13914663303552
 20
-11.79623865461509
 30
0.0
 10
10.2993953552471
 20
-11.79623865461509
 30
0.0
 10
10.45938569512684
 20
-11.79623865461509
 30
0.0
  0
SPLINE
  5
133
330
1F
100
AcDbEntity
  8
None
 62
   168
420
  1644058
370
     9
100
AcDbSpline
210
0.0
220
0.0
230
1.0
 70
    11
 71
     3
 72
    17
 73
    13
 74
     0
 42
0.0000000001
 43
0.0000000001
 40
0.0
 40
0.0
 40
0.0
 40
0.0
 40
1.0
 40
1.0
 40
1.0
 40
2.0
 40
2.0
 40
2.0
 40
3.0
 40
3.0
 40
3.0
 40
4.0
 40
4.0
 40
4.0
 40
4.0
 10
10.88275375860276
 20
-13.86109244682701
 30
0.0
 10
10.88275375860276
 20
-13.62727366199415
 30
0.0
 10
10.69306667604939
 20
-13.43775883432867
 30
0.0
 10
10.45938569512684
 20
-13.43775883432867
 30
0.0
 10
10.2257047142043
 20
-13.43775883432867
 30
0.0
 10
10.0364138178931
 20
-13.62727366199415
 30
0.0
 10
10.0364138178931
 20
-13.86109244682701
 30
0.0
 10
10.0364138178931
 20
-14.09467007481681
 30
0.0
 10
10.2257047142043
 20
-14.28421935345986
 30
0.0
 10
10.45938569512684
 20
-14.28421935345986
 30
0.0
 10
10.69306667604939
 20
-14.28421935345986
 30
0.0
 10
10.88275375860276
 20
-14.09467007481681
 30
0.0
 10
10.88275375860276
 20
-13.86109244682701
 30
0.0
  0
INSERT
  5
135
330
1F
100
AcDbEntity
  8
None
100
AcDbBlockReference
  2
block 9
 10
0.0
 20
0.0
 30
0.0
  0
SPLINE
  5
13D
330
1F
100
AcDbEntity
  8
None
 62
   168
420
  1644058
370
     9
100
AcDbSpline
210
0.0
220
0.0
230
1.0
 70
    11
 71
     3
 72
    17
 73
    13
 74
     0
 42
0.0000000001
 43
0.0000000001
 40
0.0
 40
0.0
 40
0.0
 40
0.0
 40
1.0
 40
1.0
 40
1.0
 40
2.0
 40
2.0
 40
2.0
 40
3.0
 40
3.0
 40
3.0
 40
4.0
 40
4.0
 40
4.0
 40
4.0
 10
10.1979889027415
 20
-13.85764734906904
 30
0.0
 10
10.1979889027415
 20
-14.00213474903796
 30
0.0
 10
10.31517390297857
 20
-14.11906136694318
 30
0.0
 10
10.45938569512684
 20
-14.11906136694318
 30
0.0
 10
10.60383864411818
 20
-14.11906136694318
 30
0.0
 10
10.72079971300098
 20
-14.00213474903796
 30
0.0
 10
10.72079971300098
 20
-13.85764734906904
 30
0.0
 10
10.72079971300098
 20
-13.71343555692077
 30
0.0
 10
10.60383864411818
 20
-13.59650893901555
 30
0.0
 10
10.45938569512684
 20
-13.59650893901555
 30
0.0
 10
10.31517390297857
 20
-13.59650893901555
 30
0.0
 10
10.1979889027415
 20
-13.71343555692077
 30
0.0
 10
10.1979889027415
 20
-13.85764734906904
 30
0.0
  0
POLYLINE
  5
13E
330
1F
100
AcDbEntity
  8
None
 62
   168
420
  1644058
370
     9
100
AcDb2dPolyline
 66
     1
 10
0.0
 20
0.0
 30
0.0
  0
VERTEX
  5
13F
330
13E
100
AcDbEntity
  8
None
 62
   168
420
  1644058
370
     9
100
AcDbVertex
100
AcDb2dVertex
 10
6.387710782435875
 20
-15.21964952219041
 30
0.0
  0
VERTEX
  5
140
330
13E
100
AcDbEntity
  8
None
 62
   168
420
  1644058
370
     9
100
AcDbVertex
100
AcDb2dVertex
 10
6.387710782435875
 20
-17.51539376614092
 30
0.0
  0
SEQEND
  5
141
330
13E
100
AcDbEntity
  8
None
370
     9
  0
POLYLINE
  5
142
330
1F
100
AcDbEntity
  8
None
 62
   168
420
  1644058
370
     9
100
AcDb2dPolyline
 66
     1
 10
0.0
 20
0.0
 30
0.0
  0
VERTEX
  5
143
330
142
100
AcDbEntity
  8
None
 62
   168
420
  1644058
370
     9
100
AcDbVertex
100
AcDb2dVertex
 10
14.51492032482176
 20
-15.29020512427346
 30
0.0
  0
VERTEX
  5
144
330
142
100
AcDbEntity
  8
None
 62
   168
420
  1644058
370
     9
100
AcDbVertex
100
AcDb2dVertex
 10
14.51492032482176
 20
-17.55067156718244
 30
0.0
  0
SEQEND
  5
145
330
142
100
AcDbEntity
  8
None
370
     9
  0
POLYLINE
  5
146
330
1F
100
AcDbEntity
  8
None
 62
   168
420
  1644058
370
     9
100
AcDb2dPolyline
 66
     1
 10
0.0
 20
0.0
 30
0.0
  0
VERTEX
  5
147
330
146
100
AcDbEntity
  8
None
 62
   168
420
  1644058
370
     9
100
AcDbVertex
100
AcDb2dVertex
 10
5.9619139250406
 20
-17.02587982571214
 30
0.0
  0
VERTEX
  5
148
330
146
100
AcDbEntity
  8
None
 62
   168
420
  1644058
370
     9
100
AcDbVertex
100
AcDb2dVertex
 10
10.17172003233704
 20
-17.02584537473456
 30
0.0
  0
SEQEND
  5
149
330
146
100
AcDbEntity
  8
None
370
     9
  0
POLYLINE
  5
14A
330
1F
100
AcDbEntity
  8
None
 62
   168
420
  1644058
370
     9
100
AcDb2dPolyline
 66
     1
 10
0.0
 20
0.0
 30
0.0
  0
VERTEX
  5
14B
330
14A
100
AcDbEntity
  8
None
 62
   168
420
  1644058
370
     9
100
AcDbVertex
100
AcDb2dVertex
 10
10.91255385420913
 20
-17.02587982571214
 30
0.0
  0
VERTEX
  5
14C
330
14A
100
AcDbEntity
  8
None
 62
   168
420
  1644058
370
     9
100
AcDbVertex
100
AcDb2dVertex
 10
14.99303099167169
 20
-17.02584537473456
 30
0.0
  0
SEQEND
  5
14D
330
14A
100
AcDbEntity
  8
None
370
     9
  0
MTEXT
  5
14E
330
1F
100
AcDbEntity
  8
None
 62
     7
420
 16777215
100
AcDbMText
 10
10.27967217058277
 20
-17.12251481782297
 30
0.0
 40
0.1919112376659106
 41
0.0
 71
     7
 72
     1
  1
\fArial|b0|i0|c0|p34;\W1;66,5
 73
     1
 44
1.0
  0
POLYLINE
  5
14F
330
1F
100
AcDbEntity
  8
None
 62
   168
420
  1644058
370
     9
100
AcDb2dPolyline
 66
     1
 10
0.0
 20
0.0
 30
0.0
  0
VERTEX
  5
150
330
14F
100
AcDbEntity
  8
None
 62
   168
420
  1644058
370
     9
100
AcDbVertex
100
AcDb2dVertex
 10
6.155907379791422
 20
-16.53199061113076
 30
0.0
  0
VERTEX
  5
151
330
14F
100
AcDbEntity
  8
None
 62
   168
420
  1644058
370
     9
100
AcDbVertex
100
AcDb2dVertex
 10
9.286812222227004
 20
-16.53195616015318
 30
0.0
  0
SEQEND
  5
152
330
14F
100
AcDbEntity
  8
None
370
     9
  0
POLYLINE
  5
153
330
1F
100
AcDbEntity
  8
None
 62
   168
420
  1644058
370
     9
100
AcDb2dPolyline
 66
     1
 10
0.0
 20
0.0
 30
0.0
  0
VERTEX
  5
154
330
153
100
AcDbEntity
  8
None
 62
   168
420
  1644058
370
     9
100
AcDbVertex
100
AcDb2dVertex
 10
9.92480987602393
 20
-16.53202506210833
 30
0.0
  0
VERTEX
  5
155
330
153
100
AcDbEntity
  8
None
 62
   168
420
  1644058
370
     9
100
AcDbVertex
100
AcDb2dVertex
 10
14.72848193483781
 20
-16.53199061113076
 30
0.0
  0
SEQEND
  5
156
330
153
100
AcDbEntity
  8
None
370
     9
  0
MTEXT
  5
157
330
1F
100
AcDbEntity
  8
None
 62
     7
420
 16777215
100
AcDbMText
 10
9.327171542461526
 20
-16.62862560324158
 30
0.0
 40
0.1919112376659106
 41
0.0
 71
     7
 72
     1
  1
\fArial|b0|i0|c0|p34;\W1;60,5
 73
     1
 44
1.0
  0
POLYLINE
  5
158
330
1F
100
AcDbEntity
  8
None
 62
   168
420
  1644058
370
     9
100
AcDb2dPolyline
 66
     1
 10
0.0
 20
0.0
 30
0.0
  0
VERTEX
  5
159
330
158
100
AcDbEntity
  8
None
 62
   168
420
  1644058
370
     9
100
AcDbVertex
100
AcDb2dVertex
 10
13.61099557508778
 20
-16.08395564770784
 30
0.0
  0
VERTEX
  5
15A
330
158
100
AcDbEntity
  8
None
 62
   168
420
  1644058
370
     9
100
AcDbVertex
100
AcDb2dVertex
 10
15.85699260741332
 20
-16.08395564770784
 30
0.0
  0
SEQEND
  5
15B
330
158
100
AcDbEntity
  8
None
370
     9
  0
POLYLINE
  5
15C
330
1F
100
AcDbEntity
  8
None
 62
   168
420
  1644058
370
     9
100
AcDb2dPolyline
 66
     1
 10
0.0
 20
0.0
 30
0.0
  0
VERTEX
  5
15D
330
15C
100
AcDbEntity
  8
None
 62
   168
420
  1644058
370
     9
100
AcDbVertex
100
AcDb2dVertex
 10
13.55218775635937
 20
-11.60138392542478
 30
0.0
  0
VERTEX
  5
15E
330
15C
100
AcDbEntity
  8
None
 62
   168
420
  1644058
370
     9
100
AcDbVertex
100
AcDb2dVertex
 10
15.82412637480236
 20
-11.60138392542478
 30
0.0
  0
SEQEND
  5
15F
330
15C
100
AcDbEntity
  8
None
370
     9
  0
POLYLINE
  5
160
330
1F
100
AcDbEntity
  8
None
 62
   168
420
  1644058
370
     9
100
AcDb2dPolyline
 66
     1
 10
0.0
 20
0.0
 30
0.0
  0
VERTEX
  5
161
330
160
100
AcDbEntity
  8
None
 62
   168
420
  1644058
370
     9
100
AcDbVertex
100
AcDb2dVertex
 10
14.04607697094076
 20
-11.90572386136311
 30
0.0
  0
VERTEX
  5
162
330
160
100
AcDbEntity
  8
None
 62
   168
420
  1644058
370
     9
100
AcDbVertex
100
AcDb2dVertex
 10
15.33960782612263
 20
-11.90572386136311
 30
0.0
  0
SEQEND
  5
163
330
160
100
AcDbEntity
  8
None
370
     9
  0
POLYLINE
  5
164
330
1F
100
AcDbEntity
  8
None
 62
   168
420
  1644058
370
     9
100
AcDb2dPolyline
 66
     1
 10
0.0
 20
0.0
 30
0.0
  0
VERTEX
  5
165
330
164
100
AcDbEntity
  8
None
 62
   168
420
  1644058
370
     9
100
AcDbVertex
100
AcDb2dVertex
 10
15.58310733565537
 20
-11.3581255727351
 30
0.0
  0
VERTEX
  5
166
330
164
100
AcDbEntity
  8
None
 62
   168
420
  1644058
370
     9
100
AcDbVertex
100
AcDb2dVertex
 10
15.58310733565537
 20
-14.31097053755043
 30
0.0
  0
SEQEND
  5
167
330
164
100
AcDbEntity
  8
None
370
     9
  0
POLYLINE
  5
168
330
1F
100
AcDbEntity
  8
None
 62
   168
420
  1644058
370
     9
100
AcDb2dPolyline
 66
     1
 10
0.0
 20
0.0
 30
0.0
  0
VERTEX
  5
169
330
168
100
AcDbEntity
  8
None
 62
   168
420
  1644058
370
     9
100
AcDbVertex
100
AcDb2dVertex
 10
15.58310733565537
 20
-14.7460691588922
 30
0.0
  0
VERTEX
  5
16A
330
168
100
AcDbEntity
  8
None
 62
   168
420
  1644058
370
     9
100
AcDbVertex
100
AcDb2dVertex
 10
15.58310733565537
 20
-16.33090025499853
 30
0.0
  0
SEQEND
  5
16B
330
168
100
AcDbEntity
  8
None
370
     9
  0
POLYLINE
  5
16C
330
1F
100
AcDbEntity
  8
None
 62
   168
420
  1644058
370
     9
100
AcDb2dPolyline
 66
     1
 10
0.0
 20
0.0
 30
0.0
  0
VERTEX
  5
16D
330
16C
100
AcDbEntity
  8
None
 62
   168
420
  1644058
370
     9
100
AcDbVertex
100
AcDb2dVertex
 10
15.13255745086914
 20
-11.36262142530924
 30
0.0
  0
VERTEX
  5
16E
330
16C
100
AcDbEntity
  8
None
 62
   168
420
  1644058
370
     9
100
AcDbVertex
100
AcDb2dVertex
 10
15.13255745086914
 20
-13.24087149746116
 30
0.0
  0
SEQEND
  5
16F
330
16C
100
AcDbEntity
  8
None
370
     9
  0
POLYLINE
  5
170
330
1F
100
AcDbEntity
  8
None
 62
   168
420
  1644058
370
     9
100
AcDb2dPolyline
 66
     1
 10
0.0
 20
0.0
 30
0.0
  0
VERTEX
  5
171
330
170
100
AcDbEntity
  8
None
 62
   168
420
  1644058
370
     9
100
AcDbVertex
100
AcDb2dVertex
 10
15.13255745086914
 20
-13.65245732660485
 30
0.0
  0
VERTEX
  5
172
330
170
100
AcDbEntity
  8
None
 62
   168
420
  1644058
370
     9
100
AcDbVertex
100
AcDb2dVertex
 10
15.13255745086914
 20
-16.33090025499853
 30
0.0
  0
SEQEND
  5
173
330
170
100
AcDbEntity
  8
None
370
     9
  0
MTEXT
  5
174
330
1F
100
AcDbEntity
  8
None
 62
     7
420
 16777215
100
AcDbMText
 10
15.31666347505461
 20
-14.61596504206278
 30
0.0
 40
0.1919112376659106
 41
0.0
 71
     7
 72
     1
  1
\fArial|b0|i0|c0|p34;\W1;39,5
 73
     1
 44
1.0
  0
MTEXT
  5
175
330
1F
100
AcDbEntity
  8
None
 62
     7
420
 16777215
100
AcDbMText
 10
14.87775802069029
 20
-13.53408376764128
 30
0.0
 40
0.1919112376659106
 41
0.0
 71
     7
 72
     1
  1
\fArial|b0|i0|c0|p34;\W1;36,5
 73
     1
 44
1.0
  0
MTEXT
  5
176
330
1F
100
AcDbEntity
  8
None
 62
     7
420
 16777215
100
AcDbMText
 10
15.23287869758098
 20
-11.8524971010026
 30
0.0
 40
0.1919112376659106
 41
0.0
 71
     7
 72
     1
  1
\fArial|b0|i0|c0|p34;\W1;3
 73
     1
 44
1.0
  0
POLYLINE
  5
177
330
1F
100
AcDbEntity
  8
None
 62
   168
420
  1644058
370
     9
100
AcDb2dPolyline
 66
     1
 10
0.0
 20
0.0
 30
0.0
  0
VERTEX
  5
178
330
177
100
AcDbEntity
  8
None
 62
   168
420
  1644058
370
     9
100
AcDbVertex
100
AcDb2dVertex
 10
10.58330586148073
 20
-13.6172139765409
 30
0.0
  0
VERTEX
  5
179
330
177
100
AcDbEntity
  8
None
 62
   168
420
  1644058
370
     9
100
AcDbVertex
100
AcDb2dVertex
 10
10.71042996874951
 20
-13.42260040419364
 30
0.0
  0
SEQEND
  5
17A
330
177
100
AcDbEntity
  8
None
370
     9
  0
POLYLINE
  5
17B
330
1F
100
AcDbEntity
  8
None
 62
   168
420
  1644058
370
     9
100
AcDb2dPolyline
 66
     1
 10
0.0
 20
0.0
 30
0.0
  0
VERTEX
  5
17C
330
17B
100
AcDbEntity
  8
None
 62
   168
420
  1644058
370
     9
100
AcDbVertex
100
AcDb2dVertex
 10
11.53580648960197
 20
-13.42260040419364
 30
0.0
  0
VERTEX
  5
17D
330
17B
100
AcDbEntity
  8
None
 62
   168
420
  1644058
370
     9
100
AcDbVertex
100
AcDb2dVertex
 10
10.71042996874951
 20
-13.42260040419364
 30
0.0
  0
SEQEND
  5
17E
330
17B
100
AcDbEntity
  8
None
370
     9
  0
POLYLINE
  5
17F
330
1F
100
AcDbEntity
  8
None
370
     0
100
AcDb2dPolyline
 66
     1
 10
0.0
 20
0.0
 30
0.0
  0
VERTEX
  5
180
330
17F
100
AcDbEntity
  8
None
370
     0
100
AcDbVertex
100
AcDb2dVertex
 10
10.58330586148073
 20
-13.6172139765409
 30
0.0
  0
VERTEX
  5
181
330
17F
100
AcDbEntity
  8
None
370
     0
100
AcDbVertex
100
AcDb2dVertex
 10
10.62240772103359
 20
-13.50428367203491
 30
0.0
  0
VERTEX
  5
182
330
17F
100
AcDbEntity
  8
None
370
     0
100
AcDbVertex
100
AcDb2dVertex
 10
10.67132810919665
 20
-13.53580631652026
 30
0.0
  0
VERTEX
  5
183
330
17F
100
AcDbEntity
  8
None
370
     0
100
AcDbVertex
100
AcDb2dVertex
 10
10.58330586148073
 20
-13.6172139765409
 30
0.0
  0
SEQEND
  5
184
330
17F
100
AcDbEntity
  8
None
370
     0
  0
HATCH
  5
185
330
1F
100
AcDbEntity
  8
None
 62
     7
420
 16777215
100
AcDbHatch
 10
0.0
 20
0.0
 30
0.0
210
0.0
220
0.0
230
1.0
  2
SOLID
 70
     1
 71
     0
 91
        1
 92
        1
 93
        3
 72
     1
 10
10.58330586148073
 20
-13.6172139765409
 11
10.62240772103359
 21
-13.50428367203491
 72
     1
 10
10.62240772103359
 20
-13.50428367203491
 11
10.67132810919665
 21
-13.53580631652026
 72
     1
 10
10.67132810919665
 20
-13.53580631652026
 11
10.58330586148073
 21
-13.6172139765409
 97
        0
 75
     2
 76
     1
 98
        0
  0
MTEXT
  5
186
330
1F
100
AcDbEntity
  8
None
 62
     7
420
 16777215
100
AcDbMText
 10
10.74791263235614
 20
-13.3770389863446
 30
0.0
 40
0.1919112376659106
 41
0.0
 71
     7
 72
     1
  1
\fArial|b0|i0|c0|p34;\W1;\U+00D8 4,5
 73
     1
 44
1.0
  0
SPLINE
  5
187
330
1F
100
AcDbEntity
  8
None
370
     0
100
AcDbSpline
210
0.0
220
0.0
230
1.0
 70
    11
 71
     3
 72
    41
 73
    37
 74
     0
 42
0.0000000001
 43
0.0000000001
 40
0.0
 40
0.0
 40
0.0
 40
0.0
 40
1.0
 40
1.0
 40
1.0
 40
2.0
 40
2.0
 40
2.0
 40
3.0
 40
3.0
 40
3.0
 40
4.0
 40
4.0
 40
4.0
 40
5.0
 40
5.0
 40
5.0
 40
6.0
 40
6.0
 40
6.0
 40
7.0
 40
7.0
 40
7.0
 40
8.0
 40
8.0
 40
8.0
 40
9.0
 40
9.0
 40
9.0
 40
10.0
 40
10.0
 40
10.0
 40
11.0
 40
11.0
 40
11.0
 40
12.0
 40
12.0
 40
12.0
 40
12.0
 10
14.24289540585311
 20
-21.23444569781572
 30
0.0
 10
14.24289540585311
 20
-21.23444569781572
 30
0.0
 10
14.55260969429387
 20
-21.23444569781572
 30
0.0
 10
14.55260969429387
 20
-21.23444569781572
 30
0.0
 10
14.55260969429387
 20
-21.23444569781572
 30
0.0
 10
14.55260969429387
 20
-21.37845078409852
 30
0.0
 10
14.55260969429387
 20
-21.37845078409852
 30
0.0
 10
14.55260969429387
 20
-21.37845078409852
 30
0.0
 10
14.33894473134508
 20
-21.37845078409852
 30
0.0
 10
14.33894473134508
 20
-21.37845078409852
 30
0.0
 10
14.0424596182949
 20
-22.42982571787327
 30
0.0
 10
12.99053346887888
 20
-22.60769611511683
 30
0.0
 10
12.52833915367074
 20
-22.66423016932498
 30
0.0
 10
12.0661448384626
 20
-22.72010965495912
 30
0.0
 10
10.99830233740479
 20
-22.75294143659249
 30
0.0
 10
10.99830233740479
 20
-22.75294143659249
 30
0.0
 10
10.99830233740479
 20
-22.75294143659249
 30
0.0
 10
10.91403524624505
 20
-22.82987046952778
 30
0.0
 10
10.91403524624505
 20
-22.82987046952778
 30
0.0
 10
10.91403524624505
 20
-22.82987046952778
 30
0.0
 10
10.91403524624505
 20
-23.14110060098204
 30
0.0
 10
10.91403524624505
 20
-23.14110060098204
 30
0.0
 10
10.91403524624505
 20
-23.14110060098204
 30
0.0
 10
10.76930668943308
 20
-23.14110060098204
 30
0.0
 10
10.76930668943308
 20
-23.14110060098204
 30
0.0
 10
10.76930668943308
 20
-23.14110060098204
 30
0.0
 10
10.76930668943308
 20
-22.77364647411784
 30
0.0
 10
10.76930668943308
 20
-22.77364647411784
 30
0.0
 10
10.76930668943308
 20
-22.77364647411784
 30
0.0
 10
10.91165812879206
 20
-22.62840115264218
 30
0.0
 10
10.91165812879206
 20
-22.62840115264218
 30
0.0
 10
10.91165812879206
 20
-22.62840115264218
 30
0.0
 10
12.00661354920502
 20
-22.56611378517823
 30
0.0
 10
12.35353489343176
 20
-22.53958653244193
 30
0.0
 10
12.69411725778385
 20
-22.5037919667367
 30
0.0
 10
14.00301324896624
 20
-22.39406560314562
 30
0.0
 10
14.24289540585311
 20
-21.23444569781572
 30
0.0
  0
HATCH
  5
188
330
1F
100
AcDbEntity
  8
None
 62
   168
420
  1644058
100
AcDbHatch
 10
0.0
 20
0.0
 30
0.0
210
0.0
220
0.0
230
1.0
  2
SOLID
 70
     1
 71
     0
 91
        1
 92
        1
 93
        1
 72
     4
 94
        3
 73
     0
 74
     1
 95
       41
 96
       37
 40
0.0
 40
0.0
 40
0.0
 40
0.0
 40
1.0
 40
1.0
 40
1.0
 40
2.0
 40
2.0
 40
2.0
 40
3.0
 40
3.0
 40
3.0
 40
4.0
 40
4.0
 40
4.0
 40
5.0
 40
5.0
 40
5.0
 40
6.0
 40
6.0
 40
6.0
 40
7.0
 40
7.0
 40
7.0
 40
8.0
 40
8.0
 40
8.0
 40
9.0
 40
9.0
 40
9.0
 40
10.0
 40
10.0
 40
10.0
 40
11.0
 40
11.0
 40
11.0
 40
12.0
 40
12.0
 40
12.0
 40
12.0
 10
14.24289540585311
 20
-21.23444569781572
 10
14.24289540585311
 20
-21.23444569781572
 10
14.55260969429387
 20
-21.23444569781572
 10
14.55260969429387
 20
-21.23444569781572
 10
14.55260969429387
 20
-21.23444569781572
 10
14.55260969429387
 20
-21.37845078409852
 10
14.55260969429387
 20
-21.37845078409852
 10
14.55260969429387
 20
-21.37845078409852
 10
14.33894473134508
 20
-21.37845078409852
 10
14.33894473134508
 20
-21.37845078409852
 10
14.0424596182949
 20
-22.42982571787327
 10
12.99053346887888
 20
-22.60769611511683
 10
12.52833915367074
 20
-22.66423016932498
 10
12.0661448384626
 20
-22.72010965495912
 10
10.99830233740479
 20
-22.75294143659249
 10
10.99830233740479
 20
-22.75294143659249
 10
10.99830233740479
 20
-22.75294143659249
 10
10.91403524624505
 20
-22.82987046952778
 10
10.91403524624505
 20
-22.82987046952778
 10
10.91403524624505
 20
-22.82987046952778
 10
10.91403524624505
 20
-23.14110060098204
 10
10.91403524624505
 20
-23.14110060098204
 10
10.91403524624505
 20
-23.14110060098204
 10
10.76930668943308
 20
-23.14110060098204
 10
10.76930668943308
 20
-23.14110060098204
 10
10.76930668943308
 20
-23.14110060098204
 10
10.76930668943308
 20
-22.77364647411784
 10
10.76930668943308
 20
-22.77364647411784
 10
10.76930668943308
 20
-22.77364647411784
 10
10.91165812879206
 20
-22.62840115264218
 10
10.91165812879206
 20
-22.62840115264218
 10
10.91165812879206
 20
-22.62840115264218
 10
12.00661354920502
 20
-22.56611378517823
 10
12.35353489343176
 20
-22.53958653244193
 10
12.69411725778385
 20
-22.5037919667367
 10
14.00301324896624
 20
-22.39406560314562
 10
14.24289540585311
 20
-21.23444569781572
 97
        0
 75
     2
 76
     1
 98
        0
  0
POLYLINE
  5
189
330
1F
100
AcDbEntity
  8
None
  6
AI-Linetype-1
 62
   168
420
  1644058
370
     9
100
AcDb2dPolyline
 66
     1
 10
0.0
 20
0.0
 30
0.0
  0
VERTEX
  5
18A
330
189
100
AcDbEntity
  8
None
  6
AI-Linetype-1
 62
   168
420
  1644058
370
     9
100
AcDbVertex
100
AcDb2dVertex
 10
10.49380222172888
 20
-21.14728472453929
 30
0.0
  0
VERTEX
  5
18B
330
189
100
AcDbEntity
  8
None
  6
AI-Linetype-1
 62
   168
420
  1644058
370
     9
100
AcDbVertex
100
AcDb2dVertex
 10
10.49380222172888
 20
-23.24796753343401
 30
0.0
  0
SEQEND
  5
18C
330
189
100
AcDbEntity
  8
None
  6
AI-Linetype-1
370
     9
  0
POLYLINE
  5
18E
330
1F
100
AcDbEntity
  8
None
 62
   168
420
  1644058
370
     9
100
AcDb2dPolyline
 66
     1
 10
0.0
 20
0.0
 30
0.0
  0
VERTEX
  5
18F
330
18E
100
AcDbEntity
  8
None
 62
   168
420
  1644058
370
     9
100
AcDbVertex
100
AcDb2dVertex
 10
4.596570007094013
 20
-21.23899322685623
 30
0.0
  0
VERTEX
  5
190
330
18E
100
AcDbEntity
  8
None
 62
   168
420
  1644058
370
     9
100
AcDbVertex
100
AcDb2dVertex
 10
16.42088620843649
 20
-21.23899322685623
 30
0.0
  0
SEQEND
  5
191
330
18E
100
AcDbEntity
  8
None
370
     9
  0
POLYLINE
  5
192
330
1F
100
AcDbEntity
  8
None
 62
   168
420
  1644058
370
     9
100
AcDb2dPolyline
 66
     1
 10
0.0
 20
0.0
 30
0.0
  0
VERTEX
  5
193
330
192
100
AcDbEntity
  8
None
 62
   168
420
  1644058
370
     9
100
AcDbVertex
100
AcDb2dVertex
 10
10.20215747102864
 20
-23.13717318953796
 30
0.0
  0
VERTEX
  5
194
330
192
100
AcDbEntity
  8
None
 62
   168
420
  1644058
370
     9
100
AcDbVertex
100
AcDb2dVertex
 10
10.77230392448251
 20
-23.13717318953796
 30
0.0
  0
SEQEND
  5
195
330
192
100
AcDbEntity
  8
None
370
     9
  0
POLYLINE
  5
196
330
1F
100
AcDbEntity
  8
None
 62
   168
420
  1644058
370
     9
100
AcDb2dPolyline
 66
     1
 10
0.0
 20
0.0
 30
0.0
  0
VERTEX
  5
197
330
196
100
AcDbEntity
  8
None
 62
   168
420
  1644058
370
     9
100
AcDbVertex
100
AcDb2dVertex
 10
10.20381111795246
 20
-22.77471445442281
 30
0.0
  0
VERTEX
  5
198
330
196
100
AcDbEntity
  8
None
 62
   168
420
  1644058
370
     9
100
AcDbVertex
100
AcDb2dVertex
 10
10.77009906191741
 20
-22.77471445442281
 30
0.0
  0
SEQEND
  5
199
330
196
100
AcDbEntity
  8
None
370
     9
  0
POLYLINE
  5
19A
330
1F
100
AcDbEntity
  8
None
 62
   168
420
  1644058
370
     9
100
AcDb2dPolyline
 66
     1
 10
0.0
 20
0.0
 30
0.0
  0
VERTEX
  5
19B
330
19A
100
AcDbEntity
  8
None
 62
   168
420
  1644058
370
     9
100
AcDbVertex
100
AcDb2dVertex
 10
10.06766085455781
 20
-22.63153619160192
 30
0.0
  0
VERTEX
  5
19C
330
19A
100
AcDbEntity
  8
None
 62
   168
420
  1644058
370
     9
100
AcDbVertex
100
AcDb2dVertex
 10
10.92957263713346
 20
-22.63153619160192
 30
0.0
  0
SEQEND
  5
19D
330
19A
100
AcDbEntity
  8
None
370
     9
  0
SPLINE
  5
19E
330
1F
100
AcDbEntity
  8
None
370
     0
100
AcDbSpline
210
0.0
220
0.0
230
1.0
 70
    11
 71
     3
 72
    41
 73
    37
 74
     0
 42
0.0000000001
 43
0.0000000001
 40
0.0
 40
0.0
 40
0.0
 40
0.0
 40
1.0
 40
1.0
 40
1.0
 40
2.0
 40
2.0
 40
2.0
 40
3.0
 40
3.0
 40
3.0
 40
4.0
 40
4.0
 40
4.0
 40
5.0
 40
5.0
 40
5.0
 40
6.0
 40
6.0
 40
6.0
 40
7.0
 40
7.0
 40
7.0
 40
8.0
 40
8.0
 40
8.0
 40
9.0
 40
9.0
 40
9.0
 40
10.0
 40
10.0
 40
10.0
 40
11.0
 40
11.0
 40
11.0
 40
12.0
 40
12.0
 40
12.0
 40
12.0
 10
6.746379910017266
 20
-21.23444569781572
 30
0.0
 10
6.746379910017266
 20
-21.23444569781572
 30
0.0
 10
6.413652368553326
 20
-21.23444569781572
 30
0.0
 10
6.413652368553326
 20
-21.23444569781572
 30
0.0
 10
6.413652368553326
 20
-21.23444569781572
 30
0.0
 10
6.413652368553326
 20
-21.37845078409852
 30
0.0
 10
6.413652368553326
 20
-21.37845078409852
 30
0.0
 10
6.413652368553326
 20
-21.37845078409852
 30
0.0
 10
6.644336114426441
 20
-21.37845078409852
 30
0.0
 10
6.644336114426441
 20
-21.37845078409852
 30
0.0
 10
6.940683423566306
 20
-22.42982571787327
 30
0.0
 10
7.992609572982327
 20
-22.60769611511683
 30
0.0
 10
8.455079496011104
 20
-22.66423016932498
 30
0.0
 10
8.917411615129563
 20
-22.72010965495912
 30
0.0
 10
9.984771802501253
 20
-22.75294143659249
 30
0.0
 10
9.984771802501253
 20
-22.75294143659249
 30
0.0
 10
9.984771802501253
 20
-22.75294143659249
 30
0.0
 10
10.06945230539195
 20
-22.82987046952778
 30
0.0
 10
10.06945230539195
 20
-22.82987046952778
 30
0.0
 10
10.06945230539195
 20
-22.82987046952778
 30
0.0
 10
10.06945230539195
 20
-23.14110060098204
 30
0.0
 10
10.06945230539195
 20
-23.14110060098204
 30
0.0
 10
10.06945230539195
 20
-23.14110060098204
 30
0.0
 10
10.21400860731602
 20
-23.14110060098204
 30
0.0
 10
10.21400860731602
 20
-23.14110060098204
 30
0.0
 10
10.21400860731602
 20
-23.14110060098204
 30
0.0
 10
10.21400860731602
 20
-22.77364647411784
 30
0.0
 10
10.21400860731602
 20
-22.77364647411784
 30
0.0
 10
10.21400860731602
 20
-22.77364647411784
 30
0.0
 10
10.07193277577768
 20
-22.62840115264218
 30
0.0
 10
10.07193277577768
 20
-22.62840115264218
 30
0.0
 10
10.07193277577768
 20
-22.62840115264218
 30
0.0
 10
8.976667296566504
 20
-22.56611378517823
 30
0.0
 10
8.62981485429492
 20
-22.53958653244193
 30
0.0
 10
8.289301391897988
 20
-22.5037919667367
 30
0.0
 10
6.986572125702355
 20
-22.39406560314562
 30
0.0
 10
6.746379910017266
 20
-21.23444569781572
 30
0.0
  0
HATCH
  5
19F
330
1F
100
AcDbEntity
  8
None
 62
   168
420
  1644058
100
AcDbHatch
 10
0.0
 20
0.0
 30
0.0
210
0.0
220
0.0
230
1.0
  2
SOLID
 70
     1
 71
     0
 91
        1
 92
        1
 93
        1
 72
     4
 94
        3
 73
     0
 74
     1
 95
       41
 96
       37
 40
0.0
 40
0.0
 40
0.0
 40
0.0
 40
1.0
 40
1.0
 40
1.0
 40
2.0
 40
2.0
 40
2.0
 40
3.0
 40
3.0
 40
3.0
 40
4.0
 40
4.0
 40
4.0
 40
5.0
 40
5.0
 40
5.0
 40
6.0
 40
6.0
 40
6.0
 40
7.0
 40
7.0
 40
7.0
 40
8.0
 40
8.0
 40
8.0
 40
9.0
 40
9.0
 40
9.0
 40
10.0
 40
10.0
 40
10.0
 40
11.0
 40
11.0
 40
11.0
 40
12.0
 40
12.0
 40
12.0
 40
12.0
 10
6.746379910017266
 20
-21.23444569781572
 10
6.746379910017266
 20
-21.23444569781572
 10
6.413652368553326
 20
-21.23444569781572
 10
6.413652368553326
 20
-21.23444569781572
 10
6.413652368553326
 20
-21.23444569781572
 10
6.413652368553326
 20
-21.37845078409852
 10
6.413652368553326
 20
-21.37845078409852
 10
6.413652368553326
 20
-21.37845078409852
 10
6.644336114426441
 20
-21.37845078409852
 10
6.644336114426441
 20
-21.37845078409852
 10
6.940683423566306
 20
-22.42982571787327
 10
7.992609572982327
 20
-22.60769611511683
 10
8.455079496011104
 20
-22.66423016932498
 10
8.917411615129563
 20
-22.72010965495912
 10
9.984771802501253
 20
-22.75294143659249
 10
9.984771802501253
 20
-22.75294143659249
 10
9.984771802501253
 20
-22.75294143659249
 10
10.06945230539195
 20
-22.82987046952778
 10
10.06945230539195
 20
-22.82987046952778
 10
10.06945230539195
 20
-22.82987046952778
 10
10.06945230539195
 20
-23.14110060098204
 10
10.06945230539195
 20
-23.14110060098204
 10
10.06945230539195
 20
-23.14110060098204
 10
10.21400860731602
 20
-23.14110060098204
 10
10.21400860731602
 20
-23.14110060098204
 10
10.21400860731602
 20
-23.14110060098204
 10
10.21400860731602
 20
-22.77364647411784
 10
10.21400860731602
 20
-22.77364647411784
 10
10.21400860731602
 20
-22.77364647411784
 10
10.07193277577768
 20
-22.62840115264218
 10
10.07193277577768
 20
-22.62840115264218
 10
10.07193277577768
 20
-22.62840115264218
 10
8.976667296566504
 20
-22.56611378517823
 10
8.62981485429492
 20
-22.53958653244193
 10
8.289301391897988
 20
-22.5037919667367
 10
6.986572125702355
 20
-22.39406560314562
 10
6.746379910017266
 20
-21.23444569781572
 97
        0
 75
     2
 76
     1
 98
        0
  0
POLYLINE
  5
1A0
330
1F
100
AcDbEntity
  8
None
  6
AI-Linetype-2
 62
   168
420
  1644058
370
     9
100
AcDb2dPolyline
 66
     1
 10
0.0
 20
0.0
 30
0.0
  0
VERTEX
  5
1A1
330
1A0
100
AcDbEntity
  8
None
  6
AI-Linetype-2
 62
   168
420
  1644058
370
     9
100
AcDbVertex
100
AcDb2dVertex
 10
10.48949584953143
 20
-21.14728472453929
 30
0.0
  0
VERTEX
  5
1A2
330
1A0
100
AcDbEntity
  8
None
  6
AI-Linetype-2
 62
   168
420
  1644058
370
     9
100
AcDbVertex
100
AcDb2dVertex
 10
10.48949584953143
 20
-23.34839213307859
 30
0.0
  0
SEQEND
  5
1A3
330
1A0
100
AcDbEntity
  8
None
  6
AI-Linetype-2
370
     9
  0
POLYLINE
  5
1A5
330
1F
100
AcDbEntity
  8
None
 62
   168
420
  1644058
370
     9
100
AcDb2dPolyline
 66
     1
 10
0.0
 20
0.0
 30
0.0
  0
VERTEX
  5
1A6
330
1A5
100
AcDbEntity
  8
None
 62
   168
420
  1644058
370
     9
100
AcDbVertex
100
AcDb2dVertex
 10
6.418957819100587
 20
-21.41689807507737
 30
0.0
  0
VERTEX
  5
1A7
330
1A5
100
AcDbEntity
  8
None
 62
   168
420
  1644058
370
     9
100
AcDbVertex
100
AcDb2dVertex
 10
6.418957819100587
 20
-21.71620816828908
 30
0.0
  0
SEQEND
  5
1A8
330
1A5
100
AcDbEntity
  8
None
370
     9
  0
POLYLINE
  5
1A9
330
1F
100
AcDbEntity
  8
None
 62
   168
420
  1644058
370
     9
100
AcDb2dPolyline
 66
     1
 10
0.0
 20
0.0
 30
0.0
  0
VERTEX
  5
1AA
330
1A9
100
AcDbEntity
  8
None
 62
   168
420
  1644058
370
     9
100
AcDbVertex
100
AcDb2dVertex
 10
6.645920859395103
 20
-21.43725860282692
 30
0.0
  0
VERTEX
  5
1AB
330
1A9
100
AcDbEntity
  8
None
 62
   168
420
  1644058
370
     9
100
AcDbVertex
100
AcDb2dVertex
 10
6.645920859395103
 20
-21.71586365851329
 30
0.0
  0
SEQEND
  5
1AC
330
1A9
100
AcDbEntity
  8
None
370
     9
  0
MTEXT
  5
1AD
330
1F
100
AcDbEntity
  8
None
 62
     7
420
 16777215
100
AcDbMText
 10
6.320014611491928
 20
-22.00680216417315
 30
0.0
 40
0.1919112376659106
 41
0.0
 71
     7
 72
     1
  1
\fArial|b0|i0|c0|p34;\W1;1,5
 73
     1
 44
1.0
  0
POLYLINE
  5
1AE
330
1F
100
AcDbEntity
  8
None
 62
   168
420
  1644058
370
     9
100
AcDb2dPolyline
 66
     1
 10
0.0
 20
0.0
 30
0.0
  0
VERTEX
  5
1AF
330
1AE
100
AcDbEntity
  8
None
 62
   168
420
  1644058
370
     9
100
AcDbVertex
100
AcDb2dVertex
 10
10.66822752121448
 20
-21.7075609729166
 30
0.0
  0
VERTEX
  5
1B0
330
1AE
100
AcDbEntity
  8
None
 62
   168
420
  1644058
370
     9
100
AcDbVertex
100
AcDb2dVertex
 10
10.66822752121448
 20
-21.11366057042158
 30
0.0
  0
SEQEND
  5
1B1
330
1AE
100
AcDbEntity
  8
None
370
     9
  0
POLYLINE
  5
1B2
330
1F
100
AcDbEntity
  8
None
 62
   168
420
  1644058
370
     9
100
AcDb2dPolyline
 66
     1
 10
0.0
 20
0.0
 30
0.0
  0
VERTEX
  5
1B3
330
1B2
100
AcDbEntity
  8
None
 62
   168
420
  1644058
370
     9
100
AcDbVertex
100
AcDb2dVertex
 10
10.66822752121448
 20
-22.72465718399963
 30
0.0
  0
VERTEX
  5
1B4
330
1B2
100
AcDbEntity
  8
None
 62
   168
420
  1644058
370
     9
100
AcDbVertex
100
AcDb2dVertex
 10
10.66822752121448
 20
-22.0956167843734
 30
0.0
  0
SEQEND
  5
1B5
330
1B2
100
AcDbEntity
  8
None
370
     9
  0
MTEXT
  5
1B6
330
1F
100
AcDbEntity
  8
None
 62
     7
420
 16777215
100
AcDbMText
 10
10.54575429591894
 20
-21.9974314982715
 30
0.0
 40
0.1919112376659106
 41
0.0
 71
     7
 72
     1
  1
\fArial|b0|i0|c0|p34;\W1;11,5
 73
     1
 44
1.0
  0
POLYLINE
  5
1B7
330
1F
100
AcDbEntity
  8
None
 62
   168
420
  1644058
370
     9
100
AcDb2dPolyline
 66
     1
 10
0.0
 20
0.0
 30
0.0
  0
VERTEX
  5
1B8
330
1B7
100
AcDbEntity
  8
None
 62
   168
420
  1644058
370
     9
100
AcDbVertex
100
AcDb2dVertex
 10
6.341150286237022
 20
-21.64565256620603
 30
0.0
  0
VERTEX
  5
1B9
330
1B7
100
AcDbEntity
  8
None
 62
   168
420
  1644058
370
     9
100
AcDbVertex
100
AcDb2dVertex
 10
6.69833802178249
 20
-21.64565256620603
 30
0.0
  0
SEQEND
  5
1BA
330
1B7
100
AcDbEntity
  8
None
370
     9
  0
POLYLINE
  5
1BB
330
1F
100
AcDbEntity
  8
None
 62
   168
420
  1644058
370
     9
100
AcDb2dPolyline
 66
     1
 10
0.0
 20
0.0
 30
0.0
  0
VERTEX
  5
1BC
330
1BB
100
AcDbEntity
  8
None
 62
   168
420
  1644058
370
     9
100
AcDbVertex
100
AcDb2dVertex
 10
11.96575468979559
 20
-23.13789666006713
 30
0.0
  0
VERTEX
  5
1BD
330
1BB
100
AcDbEntity
  8
None
 62
   168
420
  1644058
370
     9
100
AcDbVertex
100
AcDb2dVertex
 10
15.5221980072946
 20
-23.13789666006713
 30
0.0
  0
SEQEND
  5
1BE
330
1BB
100
AcDbEntity
  8
None
370
     9
  0
POLYLINE
  5
1BF
330
1F
100
AcDbEntity
  8
None
 62
   168
420
  1644058
370
     9
100
AcDb2dPolyline
 66
     1
 10
0.0
 20
0.0
 30
0.0
  0
VERTEX
  5
1C0
330
1BF
100
AcDbEntity
  8
None
 62
   168
420
  1644058
370
     9
100
AcDbVertex
100
AcDb2dVertex
 10
15.19973685714939
 20
-20.93144935000299
 30
0.0
  0
VERTEX
  5
1C1
330
1BF
100
AcDbEntity
  8
None
 62
   168
420
  1644058
370
     9
100
AcDbVertex
100
AcDb2dVertex
 10
15.19973685714939
 20
-22.06033898333187
 30
0.0
  0
SEQEND
  5
1C2
330
1BF
100
AcDbEntity
  8
None
370
     9
  0
POLYLINE
  5
1C3
330
1F
100
AcDbEntity
  8
None
 62
   168
420
  1644058
370
     9
100
AcDb2dPolyline
 66
     1
 10
0.0
 20
0.0
 30
0.0
  0
VERTEX
  5
1C4
330
1C3
100
AcDbEntity
  8
None
 62
   168
420
  1644058
370
     9
100
AcDbVertex
100
AcDb2dVertex
 10
15.19973685714939
 20
-22.40095579866155
 30
0.0
  0
VERTEX
  5
1C5
330
1C3
100
AcDbEntity
  8
None
 62
   168
420
  1644058
370
     9
100
AcDbVertex
100
AcDb2dVertex
 10
15.19973685714939
 20
-23.48319880834763
 30
0.0
  0
SEQEND
  5
1C6
330
1C3
100
AcDbEntity
  8
None
370
     9
  0
MTEXT
  5
1C7
330
1F
100
AcDbEntity
  8
None
 62
     7
420
 16777215
100
AcDbMText
 10
15.01928263658736
 20
-22.31813564856015
 30
0.0
 40
0.1919112376659106
 41
0.0
 71
     7
 72
     1
  1
\fArial|b0|i0|c0|p34;\W1;16
 73
     1
 44
1.0
  0
SPLINE
  5
1C8
330
1F
100
AcDbEntity
  8
None
370
     0
100
AcDbSpline
210
0.0
220
0.0
230
1.0
 70
    11
 71
     3
 72
    17
 73
    13
 74
     0
 42
0.0000000001
 43
0.0000000001
 40
0.0
 40
0.0
 40
0.0
 40
0.0
 40
1.0
 40
1.0
 40
1.0
 40
2.0
 40
2.0
 40
2.0
 40
3.0
 40
3.0
 40
3.0
 40
4.0
 40
4.0
 40
4.0
 40
4.0
 10
15.05717871192494
 20
-11.90536212609853
 30
0.0
 10
15.05717871192494
 20
-11.9468066521268
 30
0.0
 10
15.09073396408748
 20
-11.98039635526693
 30
0.0
 10
15.13217849011576
 20
-11.98039635526693
 30
0.0
 10
15.17355411418888
 20
-11.98039635526693
 30
0.0
 10
15.20717826830659
 20
-11.9468066521268
 30
0.0
 10
15.20717826830659
 20
-11.90536212609853
 30
0.0
 10
15.20717826830659
 20
-11.86391760007024
 30
0.0
 10
15.17355411418888
 20
-11.83032789693012
 30
0.0
 10
15.13217849011576
 20
-11.83032789693012
 30
0.0
 10
15.09073396408748
 20
-11.83032789693012
 30
0.0
 10
15.05717871192494
 20
-11.86391760007024
 30
0.0
 10
15.05717871192494
 20
-11.90536212609853
 30
0.0
  0
HATCH
  5
1C9
330
1F
100
AcDbEntity
  8
None
 62
   168
420
  1644058
100
AcDbHatch
 10
0.0
 20
0.0
 30
0.0
210
0.0
220
0.0
230
1.0
  2
SOLID
 70
     1
 71
     0
 91
        1
 92
        1
 93
        1
 72
     4
 94
        3
 73
     0
 74
     1
 95
       17
 96
       13
 40
0.0
 40
0.0
 40
0.0
 40
0.0
 40
1.0
 40
1.0
 40
1.0
 40
2.0
 40
2.0
 40
2.0
 40
3.0
 40
3.0
 40
3.0
 40
4.0
 40
4.0
 40
4.0
 40
4.0
 10
15.05717871192494
 20
-11.90536212609853
 10
15.05717871192494
 20
-11.9468066521268
 10
15.09073396408748
 20
-11.98039635526693
 10
15.13217849011576
 20
-11.98039635526693
 10
15.17355411418888
 20
-11.98039635526693
 10
15.20717826830659
 20
-11.9468066521268
 10
15.20717826830659
 20
-11.90536212609853
 10
15.20717826830659
 20
-11.86391760007024
 10
15.17355411418888
 20
-11.83032789693012
 10
15.13217849011576
 20
-11.83032789693012
 10
15.09073396408748
 20
-11.83032789693012
 10
15.05717871192494
 20
-11.86391760007024
 10
15.05717871192494
 20
-11.90536212609853
 97
        0
 75
     0
 76
     1
 98
        0
  0
SPLINE
  5
1CA
330
1F
100
AcDbEntity
  8
None
370
     0
100
AcDbSpline
210
0.0
220
0.0
230
1.0
 70
    11
 71
     3
 72
    17
 73
    13
 74
     0
 42
0.0000000001
 43
0.0000000001
 40
0.0
 40
0.0
 40
0.0
 40
0.0
 40
1.0
 40
1.0
 40
1.0
 40
2.0
 40
2.0
 40
2.0
 40
3.0
 40
3.0
 40
3.0
 40
4.0
 40
4.0
 40
4.0
 40
4.0
 10
15.05717871192494
 20
-11.60276196452796
 30
0.0
 10
15.05717871192494
 20
-11.64420649055624
 30
0.0
 10
15.09073396408748
 20
-11.67781341918515
 30
0.0
 10
15.13217849011576
 20
-11.67781341918515
 30
0.0
 10
15.17355411418888
 20
-11.67781341918515
 30
0.0
 10
15.20717826830659
 20
-11.64420649055624
 30
0.0
 10
15.20717826830659
 20
-11.60276196452796
 30
0.0
 10
15.20717826830659
 20
-11.56131743849968
 30
0.0
 10
15.17355411418888
 20
-11.52772773535956
 30
0.0
 10
15.13217849011576
 20
-11.52772773535956
 30
0.0
 10
15.09073396408748
 20
-11.52772773535956
 30
0.0
 10
15.05717871192494
 20
-11.56131743849968
 30
0.0
 10
15.05717871192494
 20
-11.60276196452796
 30
0.0
  0
HATCH
  5
1CB
330
1F
100
AcDbEntity
  8
None
 62
   168
420
  1644058
100
AcDbHatch
 10
0.0
 20
0.0
 30
0.0
210
0.0
220
0.0
230
1.0
  2
SOLID
 70
     1
 71
     0
 91
        1
 92
        1
 93
        1
 72
     4
 94
        3
 73
     0
 74
     1
 95
       17
 96
       13
 40
0.0
 40
0.0
 40
0.0
 40
0.0
 40
1.0
 40
1.0
 40
1.0
 40
2.0
 40
2.0
 40
2.0
 40
3.0
 40
3.0
 40
3.0
 40
4.0
 40
4.0
 40
4.0
 40
4.0
 10
15.05717871192494
 20
-11.60276196452796
 10
15.05717871192494
 20
-11.64420649055624
 10
15.09073396408748
 20
-11.67781341918515
 10
15.13217849011576
 20
-11.67781341918515
 10
15.17355411418888
 20
-11.67781341918515
 10
15.20717826830659
 20
-11.64420649055624
 10
15.20717826830659
 20
-11.60276196452796
 10
15.20717826830659
 20
-11.56131743849968
 10
15.17355411418888
 20
-11.52772773535956
 10
15.13217849011576
 20
-11.52772773535956
 10
15.09073396408748
 20
-11.52772773535956
 10
15.05717871192494
 20
-11.56131743849968
 10
15.05717871192494
 20
-11.60276196452796
 97
        0
 75
     0
 76
     1
 98
        0
  0
SPLINE
  5
1CC
330
1F
100
AcDbEntity
  8
None
370
     0
100
AcDbSpline
210
0.0
220
0.0
230
1.0
 70
    11
 71
     3
 72
    17
 73
    13
 74
     0
 42
0.0000000001
 43
0.0000000001
 40
0.0
 40
0.0
 40
0.0
 40
0.0
 40
1.0
 40
1.0
 40
1.0
 40
2.0
 40
2.0
 40
2.0
 40
3.0
 40
3.0
 40
3.0
 40
4.0
 40
4.0
 40
4.0
 40
4.0
 10
15.05886680982634
 20
-16.07806453054172
 30
0.0
 10
15.05886680982634
 20
-16.11954350754758
 30
0.0
 10
15.0923876110113
 20
-16.15309875971013
 30
0.0
 10
15.133797686062
 20
-16.15309875971013
 30
0.0
 10
15.17524221209028
 20
-16.15309875971013
 30
0.0
 10
15.20876301327525
 20
-16.11954350754758
 30
0.0
 10
15.20876301327525
 20
-16.07806453054172
 30
0.0
 10
15.20876301327525
 20
-16.03662000451344
 30
0.0
 10
15.17524221209028
 20
-16.00306475235089
 30
0.0
 10
15.133797686062
 20
-16.00306475235089
 30
0.0
 10
15.0923876110113
 20
-16.00306475235089
 30
0.0
 10
15.05886680982634
 20
-16.03662000451344
 30
0.0
 10
15.05886680982634
 20
-16.07806453054172
 30
0.0
  0
HATCH
  5
1CD
330
1F
100
AcDbEntity
  8
None
 62
   168
420
  1644058
100
AcDbHatch
 10
0.0
 20
0.0
 30
0.0
210
0.0
220
0.0
230
1.0
  2
SOLID
 70
     1
 71
     0
 91
        1
 92
        1
 93
        1
 72
     4
 94
        3
 73
     0
 74
     1
 95
       17
 96
       13
 40
0.0
 40
0.0
 40
0.0
 40
0.0
 40
1.0
 40
1.0
 40
1.0
 40
2.0
 40
2.0
 40
2.0
 40
3.0
 40
3.0
 40
3.0
 40
4.0
 40
4.0
 40
4.0
 40
4.0
 10
15.05886680982634
 20
-16.07806453054172
 10
15.05886680982634
 20
-16.11954350754758
 10
15.0923876110113
 20
-16.15309875971013
 10
15.133797686062
 20
-16.15309875971013
 10
15.17524221209028
 20
-16.15309875971013
 10
15.20876301327525
 20
-16.11954350754758
 10
15.20876301327525
 20
-16.07806453054172
 10
15.20876301327525
 20
-16.03662000451344
 10
15.17524221209028
 20
-16.00306475235089
 10
15.133797686062
 20
-16.00306475235089
 10
15.0923876110113
 20
-16.00306475235089
 10
15.05886680982634
 20
-16.03662000451344
 10
15.05886680982634
 20
-16.07806453054172
 97
        0
 75
     0
 76
     1
 98
        0
  0
SPLINE
  5
1CE
330
1F
100
AcDbEntity
  8
None
370
     0
100
AcDbSpline
210
0.0
220
0.0
230
1.0
 70
    11
 71
     3
 72
    17
 73
    13
 74
     0
 42
0.0000000001
 43
0.0000000001
 40
0.0
 40
0.0
 40
0.0
 40
0.0
 40
1.0
 40
1.0
 40
1.0
 40
2.0
 40
2.0
 40
2.0
 40
3.0
 40
3.0
 40
3.0
 40
4.0
 40
4.0
 40
4.0
 40
4.0
 10
15.50645391054072
 20
-16.08395564770784
 30
0.0
 10
15.50645391054072
 20
-16.12540017373611
 30
0.0
 10
15.54004361368085
 20
-16.15895542589866
 30
0.0
 10
15.58138478677638
 20
-16.15895542589866
 30
0.0
 10
15.62282931280467
 20
-16.15895542589866
 30
0.0
 10
15.65635011398963
 20
-16.12540017373611
 30
0.0
 10
15.65635011398963
 20
-16.08395564770784
 30
0.0
 10
15.65635011398963
 20
-16.04251112167956
 30
0.0
 10
15.62282931280467
 20
-16.00892141853943
 30
0.0
 10
15.58138478677638
 20
-16.00892141853943
 30
0.0
 10
15.54004361368085
 20
-16.00892141853943
 30
0.0
 10
15.50645391054072
 20
-16.04251112167956
 30
0.0
 10
15.50645391054072
 20
-16.08395564770784
 30
0.0
  0
HATCH
  5
1CF
330
1F
100
AcDbEntity
  8
None
 62
   168
420
  1644058
100
AcDbHatch
 10
0.0
 20
0.0
 30
0.0
210
0.0
220
0.0
230
1.0
  2
SOLID
 70
     1
 71
     0
 91
        1
 92
        1
 93
        1
 72
     4
 94
        3
 73
     0
 74
     1
 95
       17
 96
       13
 40
0.0
 40
0.0
 40
0.0
 40
0.0
 40
1.0
 40
1.0
 40
1.0
 40
2.0
 40
2.0
 40
2.0
 40
3.0
 40
3.0
 40
3.0
 40
4.0
 40
4.0
 40
4.0
 40
4.0
 10
15.50645391054072
 20
-16.08395564770784
 10
15.50645391054072
 20
-16.12540017373611
 10
15.54004361368085
 20
-16.15895542589866
 10
15.58138478677638
 20
-16.15895542589866
 10
15.62282931280467
 20
-16.15895542589866
 10
15.65635011398963
 20
-16.12540017373611
 10
15.65635011398963
 20
-16.08395564770784
 10
15.65635011398963
 20
-16.04251112167956
 10
15.62282931280467
 20
-16.00892141853943
 10
15.58138478677638
 20
-16.00892141853943
 10
15.54004361368085
 20
-16.00892141853943
 10
15.50645391054072
 20
-16.04251112167956
 10
15.50645391054072
 20
-16.08395564770784
 97
        0
 75
     0
 76
     1
 98
        0
  0
SPLINE
  5
1D0
330
1F
100
AcDbEntity
  8
None
370
     0
100
AcDbSpline
210
0.0
220
0.0
230
1.0
 70
    11
 71
     3
 72
    17
 73
    13
 74
     0
 42
0.0000000001
 43
0.0000000001
 40
0.0
 40
0.0
 40
0.0
 40
0.0
 40
1.0
 40
1.0
 40
1.0
 40
2.0
 40
2.0
 40
2.0
 40
3.0
 40
3.0
 40
3.0
 40
4.0
 40
4.0
 40
4.0
 40
4.0
 10
15.50848651821792
 20
-11.60079825880592
 30
0.0
 10
15.50848651821792
 20
-11.6422427848342
 30
0.0
 10
15.54211067233562
 20
-11.67583248797433
 30
0.0
 10
15.58348629640874
 20
-11.67583248797433
 30
0.0
 10
15.62493082243702
 20
-11.67583248797433
 30
0.0
 10
15.65848607459957
 20
-11.6422427848342
 30
0.0
 10
15.65848607459957
 20
-11.60079825880592
 30
0.0
 10
15.65848607459957
 20
-11.55935373277764
 30
0.0
 10
15.62493082243702
 20
-11.52576402963752
 30
0.0
 10
15.58348629640874
 20
-11.52576402963752
 30
0.0
 10
15.54211067233562
 20
-11.52576402963752
 30
0.0
 10
15.50848651821792
 20
-11.55935373277764
 30
0.0
 10
15.50848651821792
 20
-11.60079825880592
 30
0.0
  0
HATCH
  5
1D1
330
1F
100
AcDbEntity
  8
None
 62
   168
420
  1644058
100
AcDbHatch
 10
0.0
 20
0.0
 30
0.0
210
0.0
220
0.0
230
1.0
  2
SOLID
 70
     1
 71
     0
 91
        1
 92
        1
 93
        1
 72
     4
 94
        3
 73
     0
 74
     1
 95
       17
 96
       13
 40
0.0
 40
0.0
 40
0.0
 40
0.0
 40
1.0
 40
1.0
 40
1.0
 40
2.0
 40
2.0
 40
2.0
 40
3.0
 40
3.0
 40
3.0
 40
4.0
 40
4.0
 40
4.0
 40
4.0
 10
15.50848651821792
 20
-11.60079825880592
 10
15.50848651821792
 20
-11.6422427848342
 10
15.54211067233562
 20
-11.67583248797433
 10
15.58348629640874
 20
-11.67583248797433
 10
15.62493082243702
 20
-11.67583248797433
 10
15.65848607459957
 20
-11.6422427848342
 10
15.65848607459957
 20
-11.60079825880592
 10
15.65848607459957
 20
-11.55935373277764
 10
15.62493082243702
 20
-11.52576402963752
 10
15.58348629640874
 20
-11.52576402963752
 10
15.54211067233562
 20
-11.52576402963752
 10
15.50848651821792
 20
-11.55935373277764
 10
15.50848651821792
 20
-11.60079825880592
 97
        0
 75
     0
 76
     1
 98
        0
  0
SPLINE
  5
1D2
330
1F
100
AcDbEntity
  8
None
370
     0
100
AcDbSpline
210
0.0
220
0.0
230
1.0
 70
    11
 71
     3
 72
    17
 73
    13
 74
     0
 42
0.0000000001
 43
0.0000000001
 40
0.0
 40
0.0
 40
0.0
 40
0.0
 40
1.0
 40
1.0
 40
1.0
 40
2.0
 40
2.0
 40
2.0
 40
3.0
 40
3.0
 40
3.0
 40
4.0
 40
4.0
 40
4.0
 40
4.0
 10
14.43930042903451
 20
-17.0276368255687
 30
0.0
 10
14.43930042903451
 20
-17.06908135159698
 30
0.0
 10
14.47289013217463
 20
-17.10263660375953
 30
0.0
 10
14.51423130527017
 20
-17.10263660375953
 30
0.0
 10
14.55567583129845
 20
-17.10263660375953
 30
0.0
 10
14.58919663248342
 20
-17.06908135159698
 30
0.0
 10
14.58919663248342
 20
-17.0276368255687
 30
0.0
 10
14.58919663248342
 20
-16.98619229954042
 30
0.0
 10
14.55567583129845
 20
-16.9526025964003
 30
0.0
 10
14.51423130527017
 20
-16.9526025964003
 30
0.0
 10
14.47289013217463
 20
-16.9526025964003
 30
0.0
 10
14.43930042903451
 20
-16.98619229954042
 30
0.0
 10
14.43930042903451
 20
-17.0276368255687
 30
0.0
  0
HATCH
  5
1D3
330
1F
100
AcDbEntity
  8
None
 62
   168
420
  1644058
100
AcDbHatch
 10
0.0
 20
0.0
 30
0.0
210
0.0
220
0.0
230
1.0
  2
SOLID
 70
     1
 71
     0
 91
        1
 92
        1
 93
        1
 72
     4
 94
        3
 73
     0
 74
     1
 95
       17
 96
       13
 40
0.0
 40
0.0
 40
0.0
 40
0.0
 40
1.0
 40
1.0
 40
1.0
 40
2.0
 40
2.0
 40
2.0
 40
3.0
 40
3.0
 40
3.0
 40
4.0
 40
4.0
 40
4.0
 40
4.0
 10
14.43930042903451
 20
-17.0276368255687
 10
14.43930042903451
 20
-17.06908135159698
 10
14.47289013217463
 20
-17.10263660375953
 10
14.51423130527017
 20
-17.10263660375953
 10
14.55567583129845
 20
-17.10263660375953
 10
14.58919663248342
 20
-17.06908135159698
 10
14.58919663248342
 20
-17.0276368255687
 10
14.58919663248342
 20
-16.98619229954042
 10
14.55567583129845
 20
-16.9526025964003
 10
14.51423130527017
 20
-16.9526025964003
 10
14.47289013217463
 20
-16.9526025964003
 10
14.43930042903451
 20
-16.98619229954042
 10
14.43930042903451
 20
-17.0276368255687
 97
        0
 75
     0
 76
     1
 98
        0
  0
SPLINE
  5
1D4
330
1F
100
AcDbEntity
  8
None
370
     0
100
AcDbSpline
210
0.0
220
0.0
230
1.0
 70
    11
 71
     3
 72
    17
 73
    13
 74
     0
 42
0.0000000001
 43
0.0000000001
 40
0.0
 40
0.0
 40
0.0
 40
0.0
 40
1.0
 40
1.0
 40
1.0
 40
2.0
 40
2.0
 40
2.0
 40
3.0
 40
3.0
 40
3.0
 40
4.0
 40
4.0
 40
4.0
 40
4.0
 10
6.311505220029762
 20
-17.02481184540718
 30
0.0
 10
6.311505220029762
 20
-17.06625637143545
 30
0.0
 10
6.345094923169889
 20
-17.09984607457558
 30
0.0
 10
6.386487772731798
 20
-17.09984607457558
 30
0.0
 10
6.427932298760077
 20
-17.09984607457558
 30
0.0
 10
6.461470325433834
 20
-17.06625637143545
 30
0.0
 10
6.461470325433834
 20
-17.02481184540718
 30
0.0
 10
6.461470325433834
 20
-16.98336731937889
 30
0.0
 10
6.427932298760077
 20
-16.94974316526119
 30
0.0
 10
6.386487772731798
 20
-16.94974316526119
 30
0.0
 10
6.345094923169889
 20
-16.94974316526119
 30
0.0
 10
6.311505220029762
 20
-16.98336731937889
 30
0.0
 10
6.311505220029762
 20
-17.02481184540718
 30
0.0
  0
HATCH
  5
1D5
330
1F
100
AcDbEntity
  8
None
 62
   168
420
  1644058
100
AcDbHatch
 10
0.0
 20
0.0
 30
0.0
210
0.0
220
0.0
230
1.0
  2
SOLID
 70
     1
 71
     0
 91
        1
 92
        1
 93
        1
 72
     4
 94
        3
 73
     0
 74
     1
 95
       17
 96
       13
 40
0.0
 40
0.0
 40
0.0
 40
0.0
 40
1.0
 40
1.0
 40
1.0
 40
2.0
 40
2.0
 40
2.0
 40
3.0
 40
3.0
 40
3.0
 40
4.0
 40
4.0
 40
4.0
 40
4.0
 10
6.311505220029762
 20
-17.02481184540718
 10
6.311505220029762
 20
-17.06625637143545
 10
6.345094923169889
 20
-17.09984607457558
 10
6.386487772731798
 20
-17.09984607457558
 10
6.427932298760077
 20
-17.09984607457558
 10
6.461470325433834
 20
-17.06625637143545
 10
6.461470325433834
 20
-17.02481184540718
 10
6.461470325433834
 20
-16.98336731937889
 10
6.427932298760077
 20
-16.94974316526119
 10
6.386487772731798
 20
-16.94974316526119
 10
6.345094923169889
 20
-16.94974316526119
 10
6.311505220029762
 20
-16.98336731937889
 10
6.311505220029762
 20
-17.02481184540718
 97
        0
 75
     0
 76
     1
 98
        0
  0
SPLINE
  5
1D6
330
1F
100
AcDbEntity
  8
None
370
     0
100
AcDbSpline
210
0.0
220
0.0
230
1.0
 70
    11
 71
     3
 72
    17
 73
    13
 74
     0
 42
0.0000000001
 43
0.0000000001
 40
0.0
 40
0.0
 40
0.0
 40
0.0
 40
1.0
 40
1.0
 40
1.0
 40
2.0
 40
2.0
 40
2.0
 40
3.0
 40
3.0
 40
3.0
 40
4.0
 40
4.0
 40
4.0
 40
4.0
 10
10.59357225279945
 20
-21.23720177602209
 30
0.0
 10
10.59357225279945
 20
-21.27864630205037
 30
0.0
 10
10.62719640691716
 20
-21.3122360051905
 30
0.0
 10
10.6685375800127
 20
-21.3122360051905
 30
0.0
 10
10.7099476550634
 20
-21.3122360051905
 30
0.0
 10
10.74357180918111
 20
-21.27864630205037
 30
0.0
 10
10.74357180918111
 20
-21.23720177602209
 30
0.0
 10
10.74357180918111
 20
-21.19575724999381
 30
0.0
 10
10.7099476550634
 20
-21.16216754685368
 30
0.0
 10
10.6685375800127
 20
-21.16216754685368
 30
0.0
 10
10.62719640691716
 20
-21.16216754685368
 30
0.0
 10
10.59357225279945
 20
-21.19575724999381
 30
0.0
 10
10.59357225279945
 20
-21.23720177602209
 30
0.0
  0
HATCH
  5
1D7
330
1F
100
AcDbEntity
  8
None
 62
   168
420
  1644058
100
AcDbHatch
 10
0.0
 20
0.0
 30
0.0
210
0.0
220
0.0
230
1.0
  2
SOLID
 70
     1
 71
     0
 91
        1
 92
        1
 93
        1
 72
     4
 94
        3
 73
     0
 74
     1
 95
       17
 96
       13
 40
0.0
 40
0.0
 40
0.0
 40
0.0
 40
1.0
 40
1.0
 40
1.0
 40
2.0
 40
2.0
 40
2.0
 40
3.0
 40
3.0
 40
3.0
 40
4.0
 40
4.0
 40
4.0
 40
4.0
 10
10.59357225279945
 20
-21.23720177602209
 10
10.59357225279945
 20
-21.27864630205037
 10
10.62719640691716
 20
-21.3122360051905
 10
10.6685375800127
 20
-21.3122360051905
 10
10.7099476550634
 20
-21.3122360051905
 10
10.74357180918111
 20
-21.27864630205037
 10
10.74357180918111
 20
-21.23720177602209
 10
10.74357180918111
 20
-21.19575724999381
 10
10.7099476550634
 20
-21.16216754685368
 10
10.6685375800127
 20
-21.16216754685368
 10
10.62719640691716
 20
-21.16216754685368
 10
10.59357225279945
 20
-21.19575724999381
 10
10.59357225279945
 20
-21.23720177602209
 97
        0
 75
     0
 76
     1
 98
        0
  0
SPLINE
  5
1D8
330
1F
100
AcDbEntity
  8
None
370
     0
100
AcDbSpline
210
0.0
220
0.0
230
1.0
 70
    11
 71
     3
 72
    17
 73
    13
 74
     0
 42
0.0000000001
 43
0.0000000001
 40
0.0
 40
0.0
 40
0.0
 40
0.0
 40
1.0
 40
1.0
 40
1.0
 40
2.0
 40
2.0
 40
2.0
 40
3.0
 40
3.0
 40
3.0
 40
4.0
 40
4.0
 40
4.0
 40
4.0
 10
10.59343444888913
 20
-22.63205295626562
 30
0.0
 10
10.59343444888913
 20
-22.6734974822939
 30
0.0
 10
10.6269552500741
 20
-22.70708718543402
 30
0.0
 10
10.66839977610238
 20
-22.70708718543402
 30
0.0
 10
10.70984430213066
 20
-22.70708718543402
 30
0.0
 10
10.74333065233805
 20
-22.6734974822939
 30
0.0
 10
10.74333065233805
 20
-22.63205295626562
 30
0.0
 10
10.74333065233805
 20
-22.59060843023734
 30
0.0
 10
10.70984430213066
 20
-22.55698427611963
 30
0.0
 10
10.66839977610238
 20
-22.55698427611963
 30
0.0
 10
10.6269552500741
 20
-22.55698427611963
 30
0.0
 10
10.59343444888913
 20
-22.59060843023734
 30
0.0
 10
10.59343444888913
 20
-22.63205295626562
 30
0.0
  0
HATCH
  5
1D9
330
1F
100
AcDbEntity
  8
None
 62
   168
420
  1644058
100
AcDbHatch
 10
0.0
 20
0.0
 30
0.0
210
0.0
220
0.0
230
1.0
  2
SOLID
 70
     1
 71
     0
 91
        1
 92
        1
 93
        1
 72
     4
 94
        3
 73
     0
 74
     1
 95
       17
 96
       13
 40
0.0
 40
0.0
 40
0.0
 40
0.0
 40
1.0
 40
1.0
 40
1.0
 40
2.0
 40
2.0
 40
2.0
 40
3.0
 40
3.0
 40
3.0
 40
4.0
 40
4.0
 40
4.0
 40
4.0
 10
10.59343444888913
 20
-22.63205295626562
 10
10.59343444888913
 20
-22.6734974822939
 10
10.6269552500741
 20
-22.70708718543402
 10
10.66839977610238
 20
-22.70708718543402
 10
10.70984430213066
 20
-22.70708718543402
 10
10.74333065233805
 20
-22.6734974822939
 10
10.74333065233805
 20
-22.63205295626562
 10
10.74333065233805
 20
-22.59060843023734
 10
10.70984430213066
 20
-22.55698427611963
 10
10.66839977610238
 20
-22.55698427611963
 10
10.6269552500741
 20
-22.55698427611963
 10
10.59343444888913
 20
-22.59060843023734
 10
10.59343444888913
 20
-22.63205295626562
 97
        0
 75
     0
 76
     1
 98
        0
  0
SPLINE
  5
1DA
330
1F
100
AcDbEntity
  8
None
370
     0
100
AcDbSpline
210
0.0
220
0.0
230
1.0
 70
    11
 71
     3
 72
    17
 73
    13
 74
     0
 42
0.0000000001
 43
0.0000000001
 40
0.0
 40
0.0
 40
0.0
 40
0.0
 40
1.0
 40
1.0
 40
1.0
 40
2.0
 40
2.0
 40
2.0
 40
3.0
 40
3.0
 40
3.0
 40
4.0
 40
4.0
 40
4.0
 40
4.0
 10
15.50848651821792
 20
-11.98885407026273
 30
0.0
 10
15.50848651821792
 20
-12.03029859629101
 30
0.0
 10
15.54211067233562
 20
-12.06388829943113
 30
0.0
 10
15.58348629640874
 20
-12.06388829943113
 30
0.0
 10
15.62493082243702
 20
-12.06388829943113
 30
0.0
 10
15.65848607459957
 20
-12.03029859629101
 30
0.0
 10
15.65848607459957
 20
-11.98885407026273
 30
0.0
 10
15.65848607459957
 20
-11.94740954423445
 30
0.0
 10
15.62493082243702
 20
-11.91381984109432
 30
0.0
 10
15.58348629640874
 20
-11.91381984109432
 30
0.0
 10
15.54211067233562
 20
-11.91381984109432
 30
0.0
 10
15.50848651821792
 20
-11.94740954423445
 30
0.0
 10
15.50848651821792
 20
-11.98885407026273
 30
0.0
  0
HATCH
  5
1DB
330
1F
100
AcDbEntity
  8
None
 62
   168
420
  1644058
100
AcDbHatch
 10
0.0
 20
0.0
 30
0.0
210
0.0
220
0.0
230
1.0
  2
SOLID
 70
     1
 71
     0
 91
        1
 92
        1
 93
        1
 72
     4
 94
        3
 73
     0
 74
     1
 95
       17
 96
       13
 40
0.0
 40
0.0
 40
0.0
 40
0.0
 40
1.0
 40
1.0
 40
1.0
 40
2.0
 40
2.0
 40
2.0
 40
3.0
 40
3.0
 40
3.0
 40
4.0
 40
4.0
 40
4.0
 40
4.0
 10
15.50848651821792
 20
-11.98885407026273
 10
15.50848651821792
 20
-12.03029859629101
 10
15.54211067233562
 20
-12.06388829943113
 10
15.58348629640874
 20
-12.06388829943113
 10
15.62493082243702
 20
-12.06388829943113
 10
15.65848607459957
 20
-12.03029859629101
 10
15.65848607459957
 20
-11.98885407026273
 10
15.65848607459957
 20
-11.94740954423445
 10
15.62493082243702
 20
-11.91381984109432
 10
15.58348629640874
 20
-11.91381984109432
 10
15.54211067233562
 20
-11.91381984109432
 10
15.50848651821792
 20
-11.94740954423445
 10
15.50848651821792
 20
-11.98885407026273
 97
        0
 75
     0
 76
     1
 98
        0
  0
SPLINE
  5
1DC
330
1F
100
AcDbEntity
  8
None
370
     0
100
AcDbSpline
210
0.0
220
0.0
230
1.0
 70
    11
 71
     3
 72
    17
 73
    13
 74
     0
 42
0.0000000001
 43
0.0000000001
 40
0.0
 40
0.0
 40
0.0
 40
0.0
 40
1.0
 40
1.0
 40
1.0
 40
2.0
 40
2.0
 40
2.0
 40
3.0
 40
3.0
 40
3.0
 40
4.0
 40
4.0
 40
4.0
 40
4.0
 10
15.12428921625003
 20
-21.23975114836298
 30
0.0
 10
15.12428921625003
 20
-21.28123012536884
 30
0.0
 10
15.15794782134531
 20
-21.31478537753139
 30
0.0
 10
15.19925454346327
 20
-21.31478537753139
 30
0.0
 10
15.24066461851397
 20
-21.31478537753139
 30
0.0
 10
15.27428877263168
 20
-21.28123012536884
 30
0.0
 10
15.27428877263168
 20
-21.23975114836298
 30
0.0
 10
15.27428877263168
 20
-21.1983066223347
 30
0.0
 10
15.24066461851397
 20
-21.16471691919457
 30
0.0
 10
15.19925454346327
 20
-21.16471691919457
 30
0.0
 10
15.15794782134531
 20
-21.16471691919457
 30
0.0
 10
15.12428921625003
 20
-21.1983066223347
 30
0.0
 10
15.12428921625003
 20
-21.23975114836298
 30
0.0
  0
HATCH
  5
1DD
330
1F
100
AcDbEntity
  8
None
 62
   168
420
  1644058
100
AcDbHatch
 10
0.0
 20
0.0
 30
0.0
210
0.0
220
0.0
230
1.0
  2
SOLID
 70
     1
 71
     0
 91
        1
 92
        1
 93
        1
 72
     4
 94
        3
 73
     0
 74
     1
 95
       17
 96
       13
 40
0.0
 40
0.0
 40
0.0
 40
0.0
 40
1.0
 40
1.0
 40
1.0
 40
2.0
 40
2.0
 40
2.0
 40
3.0
 40
3.0
 40
3.0
 40
4.0
 40
4.0
 40
4.0
 40
4.0
 10
15.12428921625003
 20
-21.23975114836298
 10
15.12428921625003
 20
-21.28123012536884
 10
15.15794782134531
 20
-21.31478537753139
 10
15.19925454346327
 20
-21.31478537753139
 10
15.24066461851397
 20
-21.31478537753139
 10
15.27428877263168
 20
-21.28123012536884
 10
15.27428877263168
 20
-21.23975114836298
 10
15.27428877263168
 20
-21.1983066223347
 10
15.24066461851397
 20
-21.16471691919457
 10
15.19925454346327
 20
-21.16471691919457
 10
15.15794782134531
 20
-21.16471691919457
 10
15.12428921625003
 20
-21.1983066223347
 10
15.12428921625003
 20
-21.23975114836298
 97
        0
 75
     0
 76
     1
 98
        0
  0
SPLINE
  5
1DE
330
1F
100
AcDbEntity
  8
None
370
     0
100
AcDbSpline
210
0.0
220
0.0
230
1.0
 70
    11
 71
     3
 72
    17
 73
    13
 74
     0
 42
0.0000000001
 43
0.0000000001
 40
0.0
 40
0.0
 40
0.0
 40
0.0
 40
1.0
 40
1.0
 40
1.0
 40
2.0
 40
2.0
 40
2.0
 40
3.0
 40
3.0
 40
3.0
 40
4.0
 40
4.0
 40
4.0
 40
4.0
 10
15.12470262798098
 20
-23.13717318953796
 30
0.0
 10
15.12470262798098
 20
-23.17861771556624
 30
0.0
 10
15.15832678209869
 20
-23.21217296772879
 30
0.0
 10
15.19973685714939
 20
-23.21217296772879
 30
0.0
 10
15.24121583415525
 20
-23.21217296772879
 30
0.0
 10
15.27470218436263
 20
-23.17861771556624
 30
0.0
 10
15.27470218436263
 20
-23.13717318953796
 30
0.0
 10
15.27470218436263
 20
-23.09572866350968
 30
0.0
 10
15.24121583415525
 20
-23.06213896036956
 30
0.0
 10
15.19973685714939
 20
-23.06213896036956
 30
0.0
 10
15.15832678209869
 20
-23.06213896036956
 30
0.0
 10
15.12470262798098
 20
-23.09572866350968
 30
0.0
 10
15.12470262798098
 20
-23.13717318953796
 30
0.0
  0
HATCH
  5
1DF
330
1F
100
AcDbEntity
  8
None
 62
   168
420
  1644058
100
AcDbHatch
 10
0.0
 20
0.0
 30
0.0
210
0.0
220
0.0
230
1.0
  2
SOLID
 70
     1
 71
     0
 91
        1
 92
        1
 93
        1
 72
     4
 94
        3
 73
     0
 74
     1
 95
       17
 96
       13
 40
0.0
 40
0.0
 40
0.0
 40
0.0
 40
1.0
 40
1.0
 40
1.0
 40
2.0
 40
2.0
 40
2.0
 40
3.0
 40
3.0
 40
3.0
 40
4.0
 40
4.0
 40
4.0
 40
4.0
 10
15.12470262798098
 20
-23.13717318953796
 10
15.12470262798098
 20
-23.17861771556624
 10
15.15832678209869
 20
-23.21217296772879
 10
15.19973685714939
 20
-23.21217296772879
 10
15.24121583415525
 20
-23.21217296772879
 10
15.27470218436263
 20
-23.17861771556624
 10
15.27470218436263
 20
-23.13717318953796
 10
15.27470218436263
 20
-23.09572866350968
 10
15.24121583415525
 20
-23.06213896036956
 10
15.19973685714939
 20
-23.06213896036956
 10
15.15832678209869
 20
-23.06213896036956
 10
15.12470262798098
 20
-23.09572866350968
 10
15.12470262798098
 20
-23.13717318953796
 97
        0
 75
     0
 76
     1
 98
        0
  0
POLYLINE
  5
1E0
330
1F
100
AcDbEntity
  8
None
 62
   168
420
  1644058
370
     9
100
AcDb2dPolyline
 66
     1
 10
0.0
 20
0.0
 30
0.0
  0
VERTEX
  5
1E1
330
1E0
100
AcDbEntity
  8
None
 62
   168
420
  1644058
370
     9
100
AcDbVertex
100
AcDb2dVertex
 10
6.722867117819177
 20
-14.91978821333742
 30
0.0
  0
VERTEX
  5
1E2
330
1E0
100
AcDbEntity
  8
None
 62
   168
420
  1644058
370
     9
100
AcDbVertex
100
AcDb2dVertex
 10
6.722867117819177
 20
-16.88039334739342
 30
0.0
  0
SEQEND
  5
1E3
330
1E0
100
AcDbEntity
  8
None
370
     9
  0
POLYLINE
  5
1E4
330
1F
100
AcDbEntity
  8
None
 62
   168
420
  1644058
370
     9
100
AcDb2dPolyline
 66
     1
 10
0.0
 20
0.0
 30
0.0
  0
VERTEX
  5
1E5
330
1E4
100
AcDbEntity
  8
None
 62
   168
420
  1644058
370
     9
100
AcDbVertex
100
AcDb2dVertex
 10
14.21939983914381
 20
-14.9401142901094
 30
0.0
  0
VERTEX
  5
1E6
330
1E4
100
AcDbEntity
  8
None
 62
   168
420
  1644058
370
     9
100
AcDbVertex
100
AcDb2dVertex
 10
14.21939983914381
 20
-16.89803224791418
 30
0.0
  0
SEQEND
  5
1E7
330
1E4
100
AcDbEntity
  8
None
370
     9
  0
SPLINE
  5
1E8
330
1F
100
AcDbEntity
  8
None
370
     0
100
AcDbSpline
210
0.0
220
0.0
230
1.0
 70
    11
 71
     3
 72
    17
 73
    13
 74
     0
 42
0.0000000001
 43
0.0000000001
 40
0.0
 40
0.0
 40
0.0
 40
0.0
 40
1.0
 40
1.0
 40
1.0
 40
2.0
 40
2.0
 40
2.0
 40
3.0
 40
3.0
 40
3.0
 40
4.0
 40
4.0
 40
4.0
 40
4.0
 10
6.645421320220199
 20
-16.53350645414426
 30
0.0
 10
6.645421320220199
 20
-16.57495098017253
 30
0.0
 10
6.678976572382745
 20
-16.60854068331266
 30
0.0
 10
6.720386647433445
 20
-16.60854068331266
 30
0.0
 10
6.761831173461724
 20
-16.60854068331266
 30
0.0
 10
6.795351974646691
 20
-16.57495098017253
 30
0.0
 10
6.795351974646691
 20
-16.53350645414426
 30
0.0
 10
6.795351974646691
 20
-16.49206192811598
 30
0.0
 10
6.761831173461724
 20
-16.45843777399827
 30
0.0
 10
6.720386647433445
 20
-16.45843777399827
 30
0.0
 10
6.678976572382745
 20
-16.45843777399827
 30
0.0
 10
6.645421320220199
 20
-16.49206192811598
 30
0.0
 10
6.645421320220199
 20
-16.53350645414426
 30
0.0
  0
HATCH
  5
1E9
330
1F
100
AcDbEntity
  8
None
 62
   168
420
  1644058
100
AcDbHatch
 10
0.0
 20
0.0
 30
0.0
210
0.0
220
0.0
230
1.0
  2
SOLID
 70
     1
 71
     0
 91
        1
 92
        1
 93
        1
 72
     4
 94
        3
 73
     0
 74
     1
 95
       17
 96
       13
 40
0.0
 40
0.0
 40
0.0
 40
0.0
 40
1.0
 40
1.0
 40
1.0
 40
2.0
 40
2.0
 40
2.0
 40
3.0
 40
3.0
 40
3.0
 40
4.0
 40
4.0
 40
4.0
 40
4.0
 10
6.645421320220199
 20
-16.53350645414426
 10
6.645421320220199
 20
-16.57495098017253
 10
6.678976572382745
 20
-16.60854068331266
 10
6.720386647433445
 20
-16.60854068331266
 10
6.761831173461724
 20
-16.60854068331266
 10
6.795351974646691
 20
-16.57495098017253
 10
6.795351974646691
 20
-16.53350645414426
 10
6.795351974646691
 20
-16.49206192811598
 10
6.761831173461724
 20
-16.45843777399827
 10
6.720386647433445
 20
-16.45843777399827
 10
6.678976572382745
 20
-16.45843777399827
 10
6.645421320220199
 20
-16.49206192811598
 10
6.645421320220199
 20
-16.53350645414426
 97
        0
 75
     0
 76
     1
 98
        0
  0
SPLINE
  5
1EA
330
1F
100
AcDbEntity
  8
None
370
     0
100
AcDbSpline
210
0.0
220
0.0
230
1.0
 70
    11
 71
     3
 72
    17
 73
    13
 74
     0
 42
0.0000000001
 43
0.0000000001
 40
0.0
 40
0.0
 40
0.0
 40
0.0
 40
1.0
 40
1.0
 40
1.0
 40
2.0
 40
2.0
 40
2.0
 40
3.0
 40
3.0
 40
3.0
 40
4.0
 40
4.0
 40
4.0
 40
4.0
 10
14.14195404154483
 20
-16.53057812104999
 30
0.0
 10
14.14195404154483
 20
-16.57205709805585
 30
0.0
 10
14.17550929370738
 20
-16.60561235021839
 30
0.0
 10
14.21691936875808
 20
-16.60561235021839
 30
0.0
 10
14.25836389478636
 20
-16.60561235021839
 30
0.0
 10
14.29188469597132
 20
-16.57205709805585
 30
0.0
 10
14.29188469597132
 20
-16.53057812104999
 30
0.0
 10
14.29188469597132
 20
-16.48916804599929
 30
0.0
 10
14.25836389478636
 20
-16.45554389188158
 30
0.0
 10
14.21691936875808
 20
-16.45554389188158
 30
0.0
 10
14.17550929370738
 20
-16.45554389188158
 30
0.0
 10
14.14195404154483
 20
-16.48916804599929
 30
0.0
 10
14.14195404154483
 20
-16.53057812104999
 30
0.0
  0
HATCH
  5
1EB
330
1F
100
AcDbEntity
  8
None
 62
   168
420
  1644058
100
AcDbHatch
 10
0.0
 20
0.0
 30
0.0
210
0.0
220
0.0
230
1.0
  2
SOLID
 70
     1
 71
     0
 91
        1
 92
        1
 93
        1
 72
     4
 94
        3
 73
     0
 74
     1
 95
       17
 96
       13
 40
0.0
 40
0.0
 40
0.0
 40
0.0
 40
1.0
 40
1.0
 40
1.0
 40
2.0
 40
2.0
 40
2.0
 40
3.0
 40
3.0
 40
3.0
 40
4.0
 40
4.0
 40
4.0
 40
4.0
 10
14.14195404154483
 20
-16.53057812104999
 10
14.14195404154483
 20
-16.57205709805585
 10
14.17550929370738
 20
-16.60561235021839
 10
14.21691936875808
 20
-16.60561235021839
 10
14.25836389478636
 20
-16.60561235021839
 10
14.29188469597132
 20
-16.57205709805585
 10
14.29188469597132
 20
-16.53057812104999
 10
14.29188469597132
 20
-16.48916804599929
 10
14.25836389478636
 20
-16.45554389188158
 10
14.21691936875808
 20
-16.45554389188158
 10
14.17550929370738
 20
-16.45554389188158
 10
14.14195404154483
 20
-16.48916804599929
 10
14.14195404154483
 20
-16.53057812104999
 97
        0
 75
     0
 76
     1
 98
        0
  0
ENDSEC
  0
SECTION
  2
OBJECTS
  0
DICTIONARY
  5
C
330
0
100
AcDbDictionary
281
     1
  3
ACAD_GROUP
350
D
  3
ACAD_LAYOUT
350
1A
  3
ACAD_MLINESTYLE
350
17
  3
ACAD_PLOTSETTINGS
350
19
  3
ACAD_PLOTSTYLENAME
350
E
  3
ACAD_TABLESTYLE
350
1EC
  3
ACAD_VISUALSTYLE
350
2A
  0
DICTIONARY
  5
D
102
{ACAD_REACTORS
330
C
102
}
330
C
100
AcDbDictionary
281
     1
  0
DICTIONARY
  5
1A
102
{ACAD_REACTORS
330
C
102
}
330
C
100
AcDbDictionary
281
     1
  3
Layout1
350
1E
  3
Layout2
350
26
  3
Model
350
22
  0
DICTIONARY
  5
17
102
{ACAD_REACTORS
330
C
102
}
330
C
100
AcDbDictionary
281
     1
  3
Standard
350
18
  0
DICTIONARY
  5
19
102
{ACAD_REACTORS
330
C
102
}
330
C
100
AcDbDictionary
281
     1
  0
ACDBDICTIONARYWDFLT
  5
E
102
{ACAD_REACTORS
330
C
102
}
330
C
100
AcDbDictionary
281
     1
  3
Normal
350
F
100
AcDbDictionaryWithDefault
340
F
  0
DICTIONARY
  5
1EC
102
{ACAD_REACTORS
330
C
102
}
330
C
100
AcDbDictionary
281
     1
  0
DICTIONARY
  5
2A
102
{ACAD_REACTORS
330
C
102
}
330
C
100
AcDbDictionary
281
     1
  3
2dWireframe
350
2F
  3
3D Hidden
350
31
  3
3dWireframe
350
30
  3
Basic
350
32
  3
Brighten
350
36
  3
ColorChange
350
3A
  3
Conceptual
350
34
  3
Dim
350
35
  3
Facepattern
350
39
  3
Flat
350
2B
  3
FlatWithEdges
350
2C
  3
Gouraud
350
2D
  3
GouraudWithEdges
350
2E
  3
Linepattern
350
38
  3
Realistic
350
33
  3
Thicken
350
37
  0
LAYOUT
  5
1E
102
{ACAD_REACTORS
330
1A
102
}
330
1A
100
AcDbPlotSettings
  1

  2
none_device
  4

  6

 40
0.0
 41
0.0
 42
0.0
 43
0.0
 44
0.0
 45
0.0
 46
0.0
 47
0.0
 48
0.0
 49
0.0
140
0.0
141
0.0
142
1.0
143
1.0
 70
   688
 72
     0
 73
     0
 74
     5
  7

 75
    16
 76
     0
 77
     2
 78
   300
147
1.0
148
0.0
149
0.0
100
AcDbLayout
  1
Layout1
 70
     1
 71
     1
 10
0.0
 20
0.0
 11
12.0
 21
9.0
 12
0.0
 22
0.0
 32
0.0
 14
1.000000000000000E+20
 24
1.000000000000000E+20
 34
1.000000000000000E+20
 15
-1.000000000000000E+20
 25
-1.000000000000000E+20
 35
-1.000000000000000E+20
146
0.0
 13
0.0
 23
0.0
 33
0.0
 16
1.0
 26
0.0
 36
0.0
 17
0.0
 27
1.0
 37
0.0
 76
     0
330
1B
  0
LAYOUT
  5
26
102
{ACAD_REACTORS
330
1A
102
}
330
1A
100
AcDbPlotSettings
  1

  2
none_device
  4

  6

 40
0.0
 41
0.0
 42
0.0
 43
0.0
 44
0.0
 45
0.0
 46
0.0
 47
0.0
 48
0.0
 49
0.0
140
0.0
141
0.0
142
1.0
143
1.0
 70
   688
 72
     0
 73
     0
 74
     5
  7

 75
    16
 76
     0
 77
     2
 78
   300
147
1.0
148
0.0
149
0.0
100
AcDbLayout
  1
Layout2
 70
     1
 71
     2
 10
0.0
 20
0.0
 11
0.0
 21
0.0
 12
0.0
 22
0.0
 32
0.0
 14
0.0
 24
0.0
 34
0.0
 15
0.0
 25
0.0
 35
0.0
146
0.0
 13
0.0
 23
0.0
 33
0.0
 16
1.0
 26
0.0
 36
0.0
 17
0.0
 27
1.0
 37
0.0
 76
     0
330
23
  0
LAYOUT
  5
22
102
{ACAD_REACTORS
330
1A
102
}
330
1A
100
AcDbPlotSettings
  1

  2
none_device
  4

  6

 40
0.0
 41
0.0
 42
0.0
 43
0.0
 44
0.0
 45
0.0
 46
0.0
 47
0.0
 48
0.0
 49
0.0
140
0.0
141
0.0
142
1.0
143
1.0
 70
  1712
 72
     0
 73
     0
 74
     0
  7

 75
     0
 76
     0
 77
     2
 78
   300
147
1.0
148
0.0
149
0.0
100
AcDbLayout
  1
Model
 70
     1
 71
     0
 10
0.0
 20
0.0
 11
12.0
 21
9.0
 12
0.0
 22
0.0
 32
0.0
 14
1.000000000000000E+20
 24
1.000000000000000E+20
 34
1.000000000000000E+20
 15
-1.000000000000000E+20
 25
-1.000000000000000E+20
 35
-1.000000000000000E+20
146
0.0
 13
0.0
 23
0.0
 33
0.0
 16
1.0
 26
0.0
 36
0.0
 17
0.0
 27
1.0
 37
0.0
 76
     0
330
1F
331
29
  0
MLINESTYLE
  5
18
102
{ACAD_REACTORS
330
17
102
}
330
17
100
AcDbMlineStyle
  2
Standard
 70
     0
  3

 62
   256
 51
90.0
 52
90.0
 71
     2
 49
0.5
 62
   256
  6
BYLAYER
 49
-0.5
 62
   256
  6
BYLAYER
  0
ACDBPLACEHOLDER
  5
F
102
{ACAD_REACTORS
330
E
102
}
330
E
  0
VISUALSTYLE
  5
2F
102
{ACAD_REACTORS
330
2A
102
}
330
2A
100
AcDbVisualStyle
  2
2dWireframe
 70
     4
 71
     0
 72
     2
 73
     0
 90
        0
 40
-0.6
 41
-30.0
 62
     5
 63
     7
421
 16777215
 74
     1
 91
        4
 64
     7
 65
   257
 75
     1
175
     1
 42
1.0
 92
        0
 66
   257
 43
1.0
 76
     1
 77
     6
 78
     2
 67
     7
 79
     5
170
     0
171
     0
290
     0
174
     0
 93
        1
 44
0.0
173
     0
291
     0
 45
0.0
1001
ACAD
1000
AcDbSavedByObjectVersion
1070
     0
  0
VISUALSTYLE
  5
31
102
{ACAD_REACTORS
330
2A
102
}
330
2A
100
AcDbVisualStyle
  2
3D Hidden
 70
     6
 71
     1
 72
     2
 73
     2
 90
        0
 40
-0.6
 41
-30.0
 62
     5
 63
     7
421
 16777215
 74
     2
 91
        2
 64
     7
 65
   257
 75
     2
175
     1
 42
40.0
 92
        0
 66
   257
 43
1.0
 76
     1
 77
     6
 78
     2
 67
     7
 79
     3
170
     0
171
     0
290
     0
174
     0
 93
        1
 44
0.0
173
     0
291
     0
 45
0.0
1001
ACAD
1000
AcDbSavedByObjectVersion
1070
     0
  0
VISUALSTYLE
  5
30
102
{ACAD_REACTORS
330
2A
102
}
330
2A
100
AcDbVisualStyle
  2
3dWireframe
 70
     5
 71
     0
 72
     2
 73
     0
 90
        0
 40
-0.6
 41
-30.0
 62
     5
 63
     7
421
 16777215
 74
     1
 91
        4
 64
     7
 65
   257
 75
     1
175
     1
 42
1.0
 92
        0
 66
   257
 43
1.0
 76
     1
 77
     6
 78
     2
 67
     7
 79
     5
170
     0
171
     0
290
     0
174
     0
 93
        1
 44
0.0
173
     0
291
     0
 45
0.0
1001
ACAD
1000
AcDbSavedByObjectVersion
1070
     0
  0
VISUALSTYLE
  5
32
102
{ACAD_REACTORS
330
2A
102
}
330
2A
100
AcDbVisualStyle
  2
Basic
 70
     7
 71
     1
 72
     0
 73
     1
 90
        0
 40
-0.6
 41
-30.0
 62
     5
 63
     7
421
 16777215
 74
     0
 91
        4
 64
     7
 65
   257
 75
     1
175
     1
 42
1.0
 92
        8
 66
     7
 43
1.0
 76
     1
 77
     6
 78
     2
 67
     7
 79
     5
170
     0
171
     0
290
     0
174
     0
 93
        1
 44
0.0
173
     0
291
     1
 45
0.0
1001
ACAD
1000
AcDbSavedByObjectVersion
1070
     0
  0
VISUALSTYLE
  5
36
102
{ACAD_REACTORS
330
2A
102
}
330
2A
100
AcDbVisualStyle
  2
Brighten
 70
    12
 71
     2
 72
     2
 73
     0
 90
        0
 40
-0.6
 41
-30.0
 62
     5
 63
     7
421
 16777215
 74
     1
 91
        4
 64
     7
 65
   257
 75
     1
175
     1
 42
1.0
 92
        8
 66
     7
 43
1.0
 76
     1
 77
     6
 78
     2
 67
     7
 79
     5
170
     0
171
     0
290
     0
174
     0
 93
        1
 44
50.0
173
     0
291
     1
 45
0.0
1001
ACAD
1000
AcDbSavedByObjectVersion
1070
     0
  0
VISUALSTYLE
  5
3A
102
{ACAD_REACTORS
330
2A
102
}
330
2A
100
AcDbVisualStyle
  2
ColorChange
 70
    16
 71
     2
 72
     2
 73
     3
 90
        0
 40
-0.6
 41
-30.0
 62
     5
 63
     8
421
  8421504
 74
     1
 91
        4
 64
     7
 65
   257
 75
     1
175
     1
 42
1.0
 92
        8
 66
     8
424
  8421504
 43
1.0
 76
     1
 77
     6
 78
     2
 67
     7
 79
     5
170
     0
171
     0
290
     0
174
     0
 93
        1
 44
0.0
173
     0
291
     1
 45
0.0
1001
ACAD
1000
AcDbSavedByObjectVersion
1070
     0
  0
VISUALSTYLE
  5
34
102
{ACAD_REACTORS
330
2A
102
}
330
2A
100
AcDbVisualStyle
  2
Conceptual
 70
     9
 71
     3
 72
     2
 73
     0
 90
        0
 40
-0.6
 41
-30.0
 62
     5
 63
     7
421
 16777215
 74
     2
 91
        2
 64
     7
 65
   257
 75
     1
175
     1
 42
40.0
 92
        8
 66
     7
 43
1.0
 76
     1
 77
     6
 78
     2
 67
     7
 79
     3
170
     0
171
     0
290
     0
174
     0
 93
        1
 44
0.0
173
     0
291
     0
 45
0.0
1001
ACAD
1000
AcDbSavedByObjectVersion
1070
     0
  0
VISUALSTYLE
  5
35
102
{ACAD_REACTORS
330
2A
102
}
330
2A
100
AcDbVisualStyle
  2
Dim
 70
    11
 71
     2
 72
     2
 73
     0
 90
        0
 40
-0.6
 41
-30.0
 62
     5
 63
     7
421
 16777215
 74
     1
 91
        4
 64
     7
 65
   257
 75
     1
175
     1
 42
1.0
 92
        8
 66
     7
 43
1.0
 76
     1
 77
     6
 78
     2
 67
     7
 79
     5
170
     0
171
     0
290
     0
174
     0
 93
        1
 44
-50.0
173
     0
291
     1
 45
0.0
1001
ACAD
1000
AcDbSavedByObjectVersion
1070
     0
  0
VISUALSTYLE
  5
39
102
{ACAD_REACTORS
330
2A
102
}
330
2A
100
AcDbVisualStyle
  2
Facepattern
 70
    15
 71
     2
 72
     2
 73
     0
 90
        0
 40
-0.6
 41
-30.0
 62
     5
 63
     7
421
 16777215
 74
     1
 91
        4
 64
     7
 65
   257
 75
     1
175
     1
 42
1.0
 92
        8
 66
     7
 43
1.0
 76
     1
 77
     6
 78
     2
 67
     7
 79
     5
170
     0
171
     0
290
     0
174
     0
 93
        1
 44
0.0
173
     0
291
     1
 45
0.0
1001
ACAD
1000
AcDbSavedByObjectVersion
1070
     0
  0
VISUALSTYLE
  5
2B
102
{ACAD_REACTORS
330
2A
102
}
330
2A
100
AcDbVisualStyle
  2
Flat
 70
     0
 71
     2
 72
     1
 73
     1
 90
        2
 40
-0.6
 41
30.0
 62
     5
 63
     7
421
 16777215
 74
     0
 91
        4
 64
     7
 65
   257
 75
     1
175
     1
 42
1.0
 92
        8
 66
     7
 43
1.0
 76
     1
 77
     6
 78
     2
 67
     7
 79
     5
170
     0
171
     0
290
     0
174
     0
 93
       13
 44
0.0
173
     0
291
     1
 45
0.0
1001
ACAD
1000
AcDbSavedByObjectVersion
1070
     0
  0
VISUALSTYLE
  5
2C
102
{ACAD_REACTORS
330
2A
102
}
330
2A
100
AcDbVisualStyle
  2
FlatWithEdges
 70
     1
 71
     2
 72
     1
 73
     1
 90
        2
 40
-0.6
 41
30.0
 62
     5
 63
     7
421
 16777215
 74
     1
 91
        4
 64
     7
 65
   257
 75
     1
175
     1
 42
1.0
 92
        0
 66
   257
 43
1.0
 76
     1
 77
     6
 78
     2
 67
     7
 79
     5
170
     0
171
     0
290
     0
174
     0
 93
       13
 44
0.0
173
     0
291
     1
 45
0.0
1001
ACAD
1000
AcDbSavedByObjectVersion
1070
     0
  0
VISUALSTYLE
  5
2D
102
{ACAD_REACTORS
330
2A
102
}
330
2A
100
AcDbVisualStyle
  2
Gouraud
 70
     2
 71
     2
 72
     2
 73
     1
 90
        2
 40
-0.6
 41
30.0
 62
     5
 63
     7
421
 16777215
 74
     0
 91
        4
 64
     7
 65
   257
 75
     1
175
     1
 42
1.0
 92
        0
 66
     7
 43
1.0
 76
     1
 77
     6
 78
     2
 67
     7
 79
     5
170
     0
171
     0
290
     0
174
     0
 93
       13
 44
0.0
173
     0
291
     1
 45
0.0
1001
ACAD
1000
AcDbSavedByObjectVersion
1070
     0
  0
VISUALSTYLE
  5
2E
102
{ACAD_REACTORS
330
2A
102
}
330
2A
100
AcDbVisualStyle
  2
GouraudWithEdges
 70
     3
 71
     2
 72
     2
 73
     1
 90
        2
 40
-0.6
 41
30.0
 62
     5
 63
     7
421
 16777215
 74
     1
 91
        4
 64
     7
 65
   257
 75
     1
175
     1
 42
1.0
 92
        0
 66
   257
 43
1.0
 76
     1
 77
     6
 78
     2
 67
     7
 79
     5
170
     0
171
     0
290
     0
174
     0
 93
       13
 44
0.0
173
     0
291
     1
 45
0.0
1001
ACAD
1000
AcDbSavedByObjectVersion
1070
     0
  0
VISUALSTYLE
  5
38
102
{ACAD_REACTORS
330
2A
102
}
330
2A
100
AcDbVisualStyle
  2
Linepattern
 70
    14
 71
     2
 72
     2
 73
     0
 90
        0
 40
-0.6
 41
-30.0
 62
     5
 63
     7
421
 16777215
 74
     1
 91
        4
 64
     7
 65
   257
 75
     7
175
     7
 42
1.0
 92
        8
 66
     7
 43
1.0
 76
     1
 77
     6
 78
     2
 67
     7
 79
     5
170
     0
171
     0
290
     0
174
     0
 93
        1
 44
0.0
173
     0
291
     1
 45
0.0
1001
ACAD
1000
AcDbSavedByObjectVersion
1070
     0
  0
VISUALSTYLE
  5
33
102
{ACAD_REACTORS
330
2A
102
}
330
2A
100
AcDbVisualStyle
  2
Realistic
 70
     8
 71
     2
 72
     2
 73
     0
 90
        0
 40
-0.6
 41
-30.0
 62
     5
 63
     7
421
 16777215
 74
     1
 91
        0
 64
     7
 65
   257
 75
     1
175
     1
 42
1.0
 92
        8
 66
     8
424
  7895160
 43
1.0
 76
     1
 77
     6
 78
     2
 67
     7
 79
     5
170
     0
171
     0
290
     0
174
     0
 93
       13
 44
0.0
173
     0
291
     0
 45
0.0
1001
ACAD
1000
AcDbSavedByObjectVersion
1070
     0
  0
VISUALSTYLE
  5
37
102
{ACAD_REACTORS
330
2A
102
}
330
2A
100
AcDbVisualStyle
  2
Thicken
 70
    13
 71
     2
 72
     2
 73
     0
 90
        0
 40
-0.6
 41
-30.0
 62
     5
 63
     7
421
 16777215
 74
     1
 91
        4
 64
     7
 65
   257
 75
     1
175
     1
 42
1.0
 92
       12
 66
     7
 43
1.0
 76
     1
 77
     6
 78
     2
 67
     7
 79
     5
170
     0
171
     0
290
     0
174
     0
 93
        1
 44
0.0
173
     0
291
     1
 45
0.0
1001
ACAD
1000
AcDbSavedByObjectVersion
1070
     0
  0
ENDSEC
  0
EOF
