  0
SECTION
  2
HEADER
  9
$ACADVER
  1
AC1009
  9
$ANGBASE
 50
       0.000000
  9
$ANGDIR
 70
     0
  9
$ATTDIA
 70
     0
  9
$ATTMODE
 70
     0
  9
$ATTREQ
 70
     0
  9
$AUNITS
 70
     0
  9
$AUPREC
 70
     1
  9
$BLIPMODE
 70
     1
  9
$CECOLOR
 62
   256
  9
$CELTYPE
  6
BYLAYER
  9
$CHAMFERA
 40
       0.000000
  9
$CHAMFERB
 40
       0.000000
  9
$CLAYER
  8
0
  9
$COORDS
 70
     1
  9
$DIMALT
 70
     0
  9
$DIMALTD
 70
     2
  9
$DIMALTF
 40
      25.400000
  9
$DIMAPOST
  1

  9
$DIMASO
 70
     0
  9
$DIMASZ
 40
       3.500000
  9
$DIMBLK
  1

  9
$DIMBLK1
  1

  9
$DIMBLK2
  1

  9
$DIMCEN
 40
       1.500000
  9
$DIMCLRD
 70
     0
  9
$DIMCLRE
 70
     0
  9
$DIMCLRT
 70
     0
  9
$DIMDLE
 40
       0.000000
  9
$DIMDLI
 40
       7.000000
  9
$DIMEXE
 40
       1.800000
  9
$DIMEXO
 40
       0.100000
  9
$DIMGAP
 40
       0.090000
  9
$DIMLFAC
 40
       1.000000
  9
$DIMLIM
 70
     0
  9
$DIMPOST
  1

  9
$DIMRND
 40
       0.000000
  9
$DIMSAH
 70
     0
  9
$DIMSCALE
 40
       1.000000
  9
$DIMSE1
 70
     0
  9
$DIMSE2
 70
     0
  9
$DIMSHO
 70
     1
  9
$DIMSOXD
 70
     0
  9
$DIMSTYLE
  2
*UNNAMED
  9
$DIMTAD
 70
     1
  9
$DIMTFAC
 40
       1.000000
  9
$DIMTIH
 70
     0
  9
$DIMTIX
 70
     0
  9
$DIMTM
 40
       0.000000
  9
$DIMTOFL
 70
     0
  9
$DIMTOH
 70
     0
  9
$DIMTOL
 70
     0
  9
$DIMTP
 40
       0.000000
  9
$DIMTSZ
 40
       0.000000
  9
$DIMTVP
 40
       0.000000
  9
$DIMTXT
 40
       3.500000
  9
$DIMZIN
 70
     0
  9
$DRAGMODE
 70
     2
  9
$DWGCODEPAGE
  3
iso8859-1
  9
$ELEVATION
 40
       0.000000
  9
$EXTMAX
 10
    3328.599854
 20
    2126.697998
 30
       0.000000
  9
$EXTMIN
 10
       0.000000
 20
       0.000000
 30
       0.000000
  9
$FILLETRAD
 40
       0.000000
  9
$FILLMODE
 70
     1
  9
$HANDLING
 70
     0
  9
$HANDSEED
  5
0
  9
$INSBASE
 10
       0.000000
 20
       0.000000
 30
       0.000000
  9
$LIMCHECK
 70
     0
  9
$LIMMAX
 10
    3328.599854
 20
    2126.697998
  9
$LIMMIN
 10
       0.000000
 20
       0.000000
  9
$LTSCALE
 40
       1.000000
  9
$LUNITS
 70
     2
  9
$LUPREC
 70
     2
  9
$MAXACTVP
 70
    16
  9
$MENU
  1
ACAD
  9
$MIRRTEXT
 70
     0
  9
$ORTHOMODE
 70
     0
  9
$OSMODE
 70
     0
  9
$PDMODE
 70
     0
  9
$PDSIZE
 40
       0.000000
  9
$PELEVATION
 40
       0.000000
  9
$PEXTMAX
 10
    3328.599854
 20
    2126.697998
 30
       0.000000
  9
$PEXTMIN
 10
       0.000000
 20
       0.000000
 30
       0.000000
  9
$PINSBASE
 10
       0.000000
 20
       0.000000
 30
       0.000000
  9
$PLIMCHECK
 70
     0
  9
$PLIMMAX
 10
    3328.599854
 20
    2126.697998
  9
$PLIMMIN
 10
       0.000000
 20
       0.000000
  9
$PLINEGEN
 70
     0
  9
$PLINEWID
 40
       0.000000
  9
$PSLTSCALE
 70
     1
  9
$PUCSNAME
  2

  9
$PUCSORG
 10
       0.000000
 20
       0.000000
 30
       0.000000
  9
$PUCSXDIR
 10
       1.000000
 20
       0.000000
 30
       0.000000
  9
$PUCSYDIR
 10
       0.000000
 20
       1.000000
 30
       0.000000
  9
$QTEXTMODE
 70
     0
  9
$REGENMODE
 70
     1
  9
$SHADEDGE
 70
     3
  9
$SHADEDIF
 70
    70
  9
$SKETCHINC
 40
       1.000000
  9
$SKPOLY
 70
     0
  9
$SPLFRAME
 70
     0
  9
$SPLINESEGS
 70
     8
  9
$SPLINETYPE
 70
     6
  9
$SURFTAB1
 70
     6
  9
$SURFTAB2
 70
     6
  9
$SURFTYPE
 70
     6
  9
$SURFU
 70
     6
  9
$SURFV
 70
     6
  9
$TDCREATE
 40
2456344.7374999998
  9
$TDINDWG
 40
       0.000000
  9
$TDUPDATE
 40
2456344.7374999998
  9
$TDUSRTIMER
 40
       0.000000
  9
$TEXTSIZE
 40
       3.500000
  9
$TEXTSTYLE
  7
STANDARD
  9
$THICKNESS
 40
       0.000000
  9
$TILEMODE
 70
     1
  9
$TRACEWID
 40
       1.000000
  9
$TREEDEPTH
 70
 -3020
  9
$UCSNAME
  2

  9
$UCSORG
 10
       0.000000
 20
       0.000000
 30
       0.000000
  9
$UCSXDIR
 10
       1.000000
 20
       0.000000
 30
       0.000000
  9
$UCSYDIR
 10
       0.000000
 20
       1.000000
 30
       0.000000
  9
$UNITMODE
 70
     0
  9
$USERI1
 70
     0
  9
$USERI2
 70
     0
  9
$USERI3
 70
     0
  9
$USERI4
 70
     0
  9
$USERI5
 70
     0
  9
$USERR1
 40
       0.000000
  9
$USERR2
 40
       0.000000
  9
$USERR3
 40
       0.000000
  9
$USERR4
 40
       0.000000
  9
$USERR5
 40
       0.000000
  9
$USRTIMER
 70
     0
  9
$VISRETAIN
 70
     0
  9
$WORLDVIEW
 70
     1
  0
ENDSEC
  0
SECTION
  2
TABLES
  0
TABLE
  2
LTYPE
 70
   160
  0
LTYPE
  2
AUSGEZOGEN
 70
     0
  3
________________________________
 72
    65
 73
     2
 40
16.
 49
16.
 49
0.
  0
LTYPE
  2
VERDECKTE_KANTE
 70
     0
  3
__________________________
 72
    65
 73
     2
 40
5.
 49
4.063
 49
-0.938
  0
LTYPE
  2
HILFSLINIE
 70
     0
  3
________________________________
 72
    65
 73
     2
 40
16.
 49
16.
 49
0.
  0
LTYPE
  2
BRUCHLINIE
 70
     0
  3
________________________________
 72
    65
 73
     2
 40
16.
 49
16.
 49
0.
  0
LTYPE
  2
MITTELLINIE
 70
     0
  3
_______________________   ___
 72
    65
 73
     4
 40
13.
 49
9.34
 49
-1.22
 49
1.22
 49
-1.22
  0
LTYPE
  2
SCHNITTLINIE
 70
     0
  3
_______________________   ___
 72
    65
 73
     4
 40
13.
 49
9.34
 49
-1.22
 49
1.22
 49
-1.22
  0
LTYPE
  2
SCHWERLINIE
 70
     0
  3
______________________  __  __
 72
    65
 73
     6
 40
15.
 49
10.31
 49
-0.94
 49
0.94
 49
-0.94
 49
0.94
 49
-0.94
  0
LTYPE
  2
ENTWURFSLINIE
 70
     0
  3
__      __      __      __
 72
    65
 73
     8
 40
16.
 49
1.
 49
-3.
 49
1.
 49
-3.
 49
1.
 49
-3.
 49
1.
 49
-3.
  0
LTYPE
  2
SONDERLINIE1
 70
     0
  3
________________________________
 72
    65
 73
     2
 40
16.
 49
16.
 49
0.
  0
LTYPE
  2
SONDERLINIE2
 70
     0
  3
______________________  __  __
 72
    65
 73
     6
 40
15.
 49
10.31
 49
-0.94
 49
0.94
 49
-0.94
 49
0.94
 49
-0.94
  0
LTYPE
  2
SONDERLINIE3
 70
     0
  3
__________________  __  __  __
 72
    65
 73
     8
 40
16.
 49
9.
 49
-1.
 49
1.
 49
-1.
 49
1.
 49
-1.
 49
1.
 49
-1.
  0
LTYPE
  2
SONDERLINIE4
 70
     0
  3
__________________  __  __  __
 72
    65
 73
     8
 40
16.
 49
9.
 49
-1.
 49
1.
 49
-1.
 49
1.
 49
-1.
 49
1.
 49
-1.
  0
LTYPE
  2
SONDERLINIE5
 70
     0
  3
______________  __  __  __  __
 72
    65
 73
    10
 40
16.
 49
7.
 49
-1.
 49
1.
 49
-1.
 49
1.
 49
-1.
 49
1.
 49
-1.
 49
1.
 49
-1.
  0
LTYPE
  2
SONDERLINIE6
 70
     0
  3
______________  __  __  __  __
 72
    65
 73
    10
 40
16.
 49
7.
 49
-1.
 49
1.
 49
-1.
 49
1.
 49
-1.
 49
1.
 49
-1.
 49
1.
 49
-1.
  0
LTYPE
  2
SONDERLINIE7
 70
     0
  3
__________  __  __  __  __  __
 72
    65
 73
    12
 40
16.
 49
5.
 49
-1.
 49
1.
 49
-1.
 49
1.
 49
-1.
 49
1.
 49
-1.
 49
1.
 49
-1.
 49
1.
 49
-1.
  0
LTYPE
  2
SONDERLINIE8
 70
     0
  3
__________  __  __  __  __  __
 72
    65
 73
    12
 40
16.
 49
5.
 49
-1.
 49
1.
 49
-1.
 49
1.
 49
-1.
 49
1.
 49
-1.
 49
1.
 49
-1.
 49
1.
 49
-1.
  0
LTYPE
  2
HEIZUNG-VORLAUF
 70
     0
  3
 
 72
    65
 73
     2
 40
16.
 49
16.
 49
0.
  0
LTYPE
  2
HEIZUNG-RUECKLAUF
 70
     0
  3
 
 72
    65
 73
     2
 40
5.
 49
4.063
 49
-0.938
  0
LTYPE
  2
TRINKWASSER-KALT
 70
     0
  3
 
 72
    65
 73
     2
 40
16.
 49
16.
 49
0.
  0
LTYPE
  2
TRINKWASSER-WARM
 70
     0
  3
 
 72
    65
 73
     2
 40
5.
 49
4.063
 49
-0.938
  0
LTYPE
  2
TRINKWASSER-ZIRKULATION
 70
     0
  3
 
 72
    65
 73
     4
 40
13.
 49
9.34
 49
-1.22
 49
1.22
 49
-1.22
  0
LTYPE
  2
SANITAER-SCHMUTZWASSER
 70
     0
  3
 
 72
    65
 73
     2
 40
16.
 49
16.
 49
0.
  0
LTYPE
  2
SANITAER-REGENWASSER
 70
     0
  3
 
 72
    65
 73
     2
 40
5.
 49
4.063
 49
-0.938
  0
LTYPE
  2
SANITAER-MISCHWASSER
 70
     0
  3
 
 72
    65
 73
     4
 40
13.
 49
9.34
 49
-1.22
 49
1.22
 49
-1.22
  0
LTYPE
  2
SANITAER-ENTLUEFTUNG
 70
     0
  3
 
 72
    65
 73
     2
 40
5.
 49
4.063
 49
-0.938
  0
LTYPE
  2
SPRINKLER
 70
     0
  3
 
 72
    65
 73
     2
 40
16.
 49
16.
 49
0.
  0
LTYPE
  2
WERKWASSER
 70
     0
  3
 
 72
    65
 73
     2
 40
16.
 49
16.
 49
0.
  0
LTYPE
  2
KUEHLWASSER-VL
 70
     0
  3
 
 72
    65
 73
     2
 40
16.
 49
16.
 49
0.
  0
LTYPE
  2
KUEHLWASSER-RL-D
 70
     0
  3
 
 72
    65
 73
     2
 40
5.
 49
4.063
 49
-0.938
  0
LTYPE
  2
KUEHLWASSER-RL-DI
 70
     0
  3
 
 72
    65
 73
     2
 40
5.
 49
4.063
 49
-0.938
  0
LTYPE
  2
KALTWASSER-KAELTEANL--VL
 70
     0
  3
 
 72
    65
 73
     2
 40
16.
 49
16.
 49
0.
  0
LTYPE
  2
KALTWASSER-KAELTEANL--RL
 70
     0
  3
 
 72
    65
 73
     2
 40
5.
 49
4.063
 49
-0.938
  0
LTYPE
  2
SCHLEIFEMULSION
 70
     0
  3
 
 72
    65
 73
     2
 40
16.
 49
16.
 49
0.
  0
LTYPE
  2
BOHREMULSION
 70
     0
  3
 
 72
    65
 73
     2
 40
16.
 49
16.
 49
0.
  0
LTYPE
  2
SCHNEIDEMULSION
 70
     0
  3
 
 72
    65
 73
     2
 40
16.
 49
16.
 49
0.
  0
LTYPE
  2
DRUCKLUFT-HAUPTNETZ
 70
     0
  3
 
 72
    65
 73
     2
 40
16.
 49
16.
 49
0.
  0
LTYPE
  2
DRUCKLUFT-HOCHDRUCKNETZ
 70
     0
  3
 
 72
    65
 73
     2
 40
16.
 49
16.
 49
0.
  0
LTYPE
  2
DRUCKLUFT-NIEDERDRUCKNETZ
 70
     0
  3
 
 72
    65
 73
     2
 40
16.
 49
16.
 49
0.
  0
LTYPE
  2
MISCHWASSER-DRUCK
 70
     0
  3
 
 72
    65
 73
     2
 40
16.
 49
16.
 49
0.
  0
LTYPE
  2
MISCHWASSER-KANAL
 70
     0
  3
 
 72
    65
 73
     2
 40
16.
 49
16.
 49
0.
  0
LTYPE
  2
OELHALTIGES-ABWASSER-DRUCK
 70
     0
  3
 
 72
    65
 73
     2
 40
16.
 49
16.
 49
0.
  0
LTYPE
  2
OELHALTIGES-ABWASSER-KANAL
 70
     0
  3
 
 72
    65
 73
     2
 40
16.
 49
16.
 49
0.
  0
LTYPE
  2
REGENWASSER-DRUCK
 70
     0
  3
 
 72
    65
 73
     2
 40
16.
 49
16.
 49
0.
  0
LTYPE
  2
REGENWASSER-KANAL
 70
     0
  3
 
 72
    65
 73
     2
 40
16.
 49
16.
 49
0.
  0
LTYPE
  2
SCHMUTZWASSER-DRUCK
 70
     0
  3
 
 72
    65
 73
     2
 40
16.
 49
16.
 49
0.
  0
LTYPE
  2
SCHMUTZWASSER-KANAL
 70
     0
  3
 
 72
    65
 73
     2
 40
16.
 49
16.
 49
0.
  0
LTYPE
  2
ALTEMULSION
 70
     0
  3
 
 72
    65
 73
     2
 40
16.
 49
16.
 49
0.
  0
LTYPE
  2
ALTWASCHWASSER
 70
     0
  3
 
 72
    65
 73
     2
 40
16.
 49
16.
 49
0.
  0
LTYPE
  2
CHROMHALTIGES-SPUELWASSER
 70
     0
  3
 
 72
    65
 73
     2
 40
16.
 49
16.
 49
0.
  0
LTYPE
  2
CYANIDHALTIGES-SPUELWASSER
 70
     0
  3
 
 72
    65
 73
     2
 40
16.
 49
16.
 49
0.
  0
LTYPE
  2
GEKLAERTES-ABWASSER
 70
     0
  3
 
 72
    65
 73
     2
 40
16.
 49
16.
 49
0.
  0
LTYPE
  2
NITRITHALTIGES-SPUELWASSER
 70
     0
  3
 
 72
    65
 73
     2
 40
16.
 49
16.
 49
0.
  0
LTYPE
  2
SAURES-ALKALISCHES-ELUAT
 70
     0
  3
 
 72
    65
 73
     2
 40
16.
 49
16.
 49
0.
  0
LTYPE
  2
SAURES-ALKALISCHES-SPUELWASSER
 70
     0
  3
 
 72
    65
 73
     2
 40
16.
 49
16.
 49
0.
  0
LTYPE
  2
AMIDASULFONSAEURE
 70
     0
  3
 
 72
    65
 73
     2
 40
16.
 49
16.
 49
0.
  0
LTYPE
  2
CHROMHALTIGES-KONZENTRAT
 70
     0
  3
 
 72
    65
 73
     2
 40
16.
 49
16.
 49
0.
  0
LTYPE
  2
CYANIDHALTIGES-KONZENTRAT
 70
     0
  3
 
 72
    65
 73
     2
 40
16.
 49
16.
 49
0.
  0
LTYPE
  2
ELEKTROLYT
 70
     0
  3
 
 72
    65
 73
     2
 40
16.
 49
16.
 49
0.
  0
LTYPE
  2
NATRIUMBISULFIT
 70
     0
  3
 
 72
    65
 73
     2
 40
16.
 49
16.
 49
0.
  0
LTYPE
  2
NATRIUMHYPOCHLORIT
 70
     0
  3
 
 72
    65
 73
     2
 40
16.
 49
16.
 49
0.
  0
LTYPE
  2
NATRONLAUGE
 70
     0
  3
 
 72
    65
 73
     2
 40
16.
 49
16.
 49
0.
  0
LTYPE
  2
NITRITHALTIGES-KONZENTRAT
 70
     0
  3
 
 72
    65
 73
     2
 40
16.
 49
16.
 49
0.
  0
LTYPE
  2
PHOSPHORSAEURE
 70
     0
  3
 
 72
    65
 73
     2
 40
16.
 49
16.
 49
0.
  0
LTYPE
  2
SALPETERSAEURE
 70
     0
  3
 
 72
    65
 73
     2
 40
16.
 49
16.
 49
0.
  0
LTYPE
  2
SALZSAEURE
 70
     0
  3
 
 72
    65
 73
     2
 40
16.
 49
16.
 49
0.
  0
LTYPE
  2
SCHWEFELSAEURE
 70
     0
  3
 
 72
    65
 73
     2
 40
16.
 49
16.
 49
0.
  0
LTYPE
  2
BETRIEBSWAERME-RL
 70
     0
  3
 
 72
    65
 73
     2
 40
5.
 49
4.063
 49
-0.938
  0
LTYPE
  2
BETRIEBSWAERME-VL
 70
     0
  3
 
 72
    65
 73
     2
 40
16.
 49
16.
 49
0.
  0
LTYPE
  2
WARMWASSER-VL
 70
     0
  3
 
 72
    65
 73
     2
 40
16.
 49
16.
 49
0.
  0
LTYPE
  2
WARMWASSER-ZIRKULATION
 70
     0
  3
 
 72
    65
 73
     4
 40
13.
 49
9.34
 49
-1.22
 49
1.22
 49
-1.22
  0
LTYPE
  2
ROHWASSER
 70
     0
  3
 
 72
    65
 73
     2
 40
16.
 49
16.
 49
0.
  0
LTYPE
  2
ARGON
 70
     0
  3
 
 72
    65
 73
     2
 40
16.
 49
16.
 49
0.
  0
LTYPE
  2
CORGON
 70
     0
  3
 
 72
    65
 73
     2
 40
16.
 49
16.
 49
0.
  0
LTYPE
  2
KOHLENDIOXID
 70
     0
  3
 
 72
    65
 73
     2
 40
16.
 49
16.
 49
0.
  0
LTYPE
  2
STICKSTOFF
 70
     0
  3
 
 72
    65
 73
     2
 40
16.
 49
16.
 49
0.
  0
LTYPE
  2
AZETYLEN
 70
     0
  3
 
 72
    65
 73
     2
 40
16.
 49
16.
 49
0.
  0
LTYPE
  2
ERDGAS
 70
     0
  3
 
 72
    65
 73
     2
 40
16.
 49
16.
 49
0.
  0
LTYPE
  2
SAUERSTOFF--TECHNISCH-REIN
 70
     0
  3
 
 72
    65
 73
     2
 40
16.
 49
16.
 49
0.
  0
LTYPE
  2
TRAEGERGAS
 70
     0
  3
 
 72
    65
 73
     2
 40
16.
 49
16.
 49
0.
  0
LTYPE
  2
WASSERSTOFF
 70
     0
  3
 
 72
    65
 73
     2
 40
16.
 49
16.
 49
0.
  0
LTYPE
  2
KRAFTSTOFF-GK-A-I-D
 70
     0
  3
 
 72
    65
 73
     2
 40
16.
 49
16.
 49
0.
  0
LTYPE
  2
KRAFTSTOFF-SONDER-D
 70
     0
  3
 
 72
    65
 73
     2
 40
16.
 49
16.
 49
0.
  0
LTYPE
  2
ACHSOEL
 70
     0
  3
 
 72
    65
 73
     2
 40
16.
 49
16.
 49
0.
  0
LTYPE
  2
ALTOEL
 70
     0
  3
 
 72
    65
 73
     2
 40
16.
 49
16.
 49
0.
  0
LTYPE
  2
BOHROEL
 70
     0
  3
 
 72
    65
 73
     2
 40
16.
 49
16.
 49
0.
  0
LTYPE
  2
ERODIEROEL
 70
     0
  3
 
 72
    65
 73
     2
 40
16.
 49
16.
 49
0.
  0
LTYPE
  2
FETT
 70
     0
  3
 
 72
    65
 73
     2
 40
16.
 49
16.
 49
0.
  0
LTYPE
  2
GETRIEBEOEL
 70
     0
  3
 
 72
    65
 73
     2
 40
16.
 49
16.
 49
0.
  0
LTYPE
  2
HAERTEOEL
 70
     0
  3
 
 72
    65
 73
     2
 40
16.
 49
16.
 49
0.
  0
LTYPE
  2
HONOEL
 70
     0
  3
 
 72
    65
 73
     2
 40
16.
 49
16.
 49
0.
  0
LTYPE
  2
HYDRAULIKOEL
 70
     0
  3
 
 72
    65
 73
     2
 40
16.
 49
16.
 49
0.
  0
LTYPE
  2
MOTOROEL
 70
     0
  3
 
 72
    65
 73
     2
 40
16.
 49
16.
 49
0.
  0
LTYPE
  2
NORMALSPUELOEL
 70
     0
  3
 
 72
    65
 73
     2
 40
16.
 49
16.
 49
0.
  0
LTYPE
  2
RAEUMOEL
 70
     0
  3
 
 72
    65
 73
     2
 40
16.
 49
16.
 49
0.
  0
LTYPE
  2
SCHLEIFOEL
 70
     0
  3
 
 72
    65
 73
     2
 40
16.
 49
16.
 49
0.
  0
LTYPE
  2
SCHNEIDOEL
 70
     0
  3
 
 72
    65
 73
     2
 40
16.
 49
16.
 49
0.
  0
LTYPE
  2
SONDERSPUELOEL
 70
     0
  3
 
 72
    65
 73
     2
 40
16.
 49
16.
 49
0.
  0
LTYPE
  2
ZIEHOEL
 70
     0
  3
 
 72
    65
 73
     2
 40
16.
 49
16.
 49
0.
  0
LTYPE
  2
MONTAGEOEL
 70
     0
  3
 
 72
    65
 73
     2
 40
16.
 49
16.
 49
0.
  0
LTYPE
  2
MONTAGE-GLEITOEL
 70
     0
  3
 
 72
    65
 73
     2
 40
16.
 49
16.
 49
0.
  0
LTYPE
  2
SPUELOEL
 70
     0
  3
 
 72
    65
 73
     2
 40
16.
 49
16.
 49
0.
  0
LTYPE
  2
TIEFBOHROEL
 70
     0
  3
 
 72
    65
 73
     2
 40
16.
 49
16.
 49
0.
  0
LTYPE
  2
AMIN
 70
     0
  3
 
 72
    65
 73
     2
 40
16.
 49
16.
 49
0.
  0
LTYPE
  2
HAERTER
 70
     0
  3
 
 72
    65
 73
     2
 40
16.
 49
16.
 49
0.
  0
LTYPE
  2
HARZ
 70
     0
  3
 
 72
    65
 73
     2
 40
16.
 49
16.
 49
0.
  0
LTYPE
  2
LOESEMITTEL
 70
     0
  3
 
 72
    65
 73
     2
 40
16.
 49
16.
 49
0.
  0
LTYPE
  2
LACK
 70
     0
  3
 
 72
    65
 73
     2
 40
16.
 49
16.
 49
0.
  0
LTYPE
  2
WASCHWASSER
 70
     0
  3
 
 72
    65
 73
     2
 40
16.
 49
16.
 49
0.
  0
LTYPE
  2
GLEITSCHLEIFWASSER
 70
     0
  3
 
 72
    65
 73
     2
 40
16.
 49
16.
 49
0.
  0
LTYPE
  2
VERDUENNUNG
 70
     0
  3
 
 72
    65
 73
     2
 40
16.
 49
16.
 49
0.
  0
LTYPE
  2
KUEHLDECKEN-VORLAUF
 70
     0
  3
 
 72
    65
 73
     2
 40
16.
 49
16.
 49
0.
  0
LTYPE
  2
KUEHLDECKEN-RUECKLAUF
 70
     0
  3
 
 72
    65
 73
     2
 40
5.
 49
4.063
 49
-0.938
  0
LTYPE
  2
KONDENSAT
 70
     0
  3
 
 72
    65
 73
     2
 40
16.
 49
16.
 49
0.
  0
LTYPE
  2
KONDENSAT-REINDAMPF
 70
     0
  3
 
 72
    65
 73
     2
 40
16.
 49
16.
 49
0.
  0
LTYPE
  2
KONDENSAT-HOCHDRUCK
 70
     0
  3
 
 72
    65
 73
     2
 40
16.
 49
16.
 49
0.
  0
LTYPE
  2
DAMPF
 70
     0
  3
 
 72
    65
 73
     2
 40
16.
 49
16.
 49
0.
  0
LTYPE
  2
REINDAMPF
 70
     0
  3
 
 72
    65
 73
     2
 40
16.
 49
16.
 49
0.
  0
LTYPE
  2
DAMPF-HOCHDRUCK
 70
     0
  3
 
 72
    65
 73
     2
 40
16.
 49
16.
 49
0.
  0
LTYPE
  2
KLIMA-ZENTRALE
 70
     0
  3
 
 72
    65
 73
     2
 40
16.
 49
16.
 49
0.
  0
LTYPE
  2
KLIMA-AUSSENLUFT
 70
     0
  3
 
 72
    65
 73
     4
 40
13.
 49
9.34
 49
-1.22
 49
1.22
 49
-1.22
  0
LTYPE
  2
KLIMA-ZULUFT-I
 70
     0
  3
 
 72
    65
 73
     2
 40
16.
 49
16.
 49
0.
  0
LTYPE
  2
KLIMA-ZULUFT-II
 70
     0
  3
 
 72
    65
 73
     2
 40
16.
 49
16.
 49
0.
  0
LTYPE
  2
KLIMA-ZULUFT-III
 70
     0
  3
 
 72
    65
 73
     2
 40
16.
 49
16.
 49
0.
  0
LTYPE
  2
KLIMA-ZULUFT-IV
 70
     0
  3
 
 72
    65
 73
     2
 40
16.
 49
16.
 49
0.
  0
LTYPE
  2
KLIMA-UMLUFT
 70
     0
  3
 
 72
    65
 73
     2
 40
5.
 49
4.063
 49
-0.938
  0
LTYPE
  2
KLIMA-MISCHLUFT
 70
     0
  3
 
 72
    65
 73
     6
 40
11.
 49
3.78
 49
-1.03
 49
3.78
 49
-1.03
 49
0.34
 49
-1.03
  0
LTYPE
  2
KLIMA-ABLUFT
 70
     0
  3
 
 72
    65
 73
     2
 40
5.
 49
4.063
 49
-0.938
  0
LTYPE
  2
KLIMA-FORTLUFT
 70
     0
  3
 
 72
    65
 73
     2
 40
5.
 49
4.063
 49
-0.938
  0
LTYPE
  2
ENTRAUCHUNG
 70
     0
  3
 
 72
    65
 73
     2
 40
5.
 49
4.063
 49
-0.938
  0
LTYPE
  2
ELEKTRO-ZENTRALE
 70
     0
  3
 
 72
    65
 73
     2
 40
16.
 49
16.
 49
0.
  0
LTYPE
  2
STROMSCHIENEN
 70
     0
  3
 
 72
    65
 73
     2
 40
16.
 49
16.
 49
0.
  0
LTYPE
  2
ELEKTRO-LEITUNGSFUEHRUNG
 70
     0
  3
 
 72
    65
 73
     2
 40
16.
 49
16.
 49
0.
  0
LTYPE
  2
ELEKTRO-KABELTRAEGER
 70
     0
  3
 
 72
    65
 73
     2
 40
16.
 49
16.
 49
0.
  0
LTYPE
  2
INNENWAND
 70
     0
  3
 
 72
    65
 73
     2
 40
16.
 49
16.
 49
0.
  0
LTYPE
  2
AUSSENWAND
 70
     0
  3
 
 72
    65
 73
     2
 40
16.
 49
16.
 49
0.
  0
LTYPE
  2
ERDBERUEHREND
 70
     0
  3
 
 72
    65
 73
     2
 40
16.
 49
16.
 49
0.
  0
LTYPE
  2
REINWASSER
 70
     0
  3
 
 72
    65
 73
     2
 40
16.
 49
16.
 49
0.
  0
LTYPE
  2
MESSWASSER
 70
     0
  3
 
 72
    65
 73
     2
 40
16.
 49
16.
 49
0.
  0
LTYPE
  2
SCHWALLWASSER
 70
     0
  3
 
 72
    65
 73
     2
 40
16.
 49
16.
 49
0.
  0
LTYPE
  2
SCHLAMMWASSER
 70
     0
  3
 
 72
    65
 73
     2
 40
16.
 49
16.
 49
0.
  0
LTYPE
  2
ERSTFILTRAT
 70
     0
  3
 
 72
    65
 73
     2
 40
16.
 49
16.
 49
0.
  0
LTYPE
  2
FILTRAT
 70
     0
  3
 
 72
    65
 73
     2
 40
16.
 49
16.
 49
0.
  0
LTYPE
  2
SOLE-FILTRAT
 70
     0
  3
 
 72
    65
 73
     2
 40
16.
 49
16.
 49
0.
  0
LTYPE
  2
SOLE-REINWASSER
 70
     0
  3
 
 72
    65
 73
     2
 40
16.
 49
16.
 49
0.
  0
LTYPE
  2
SOLE-ROHWASSER
 70
     0
  3
 
 72
    65
 73
     2
 40
16.
 49
16.
 49
0.
  0
LTYPE
  2
SPUELWASSER
 70
     0
  3
 
 72
    65
 73
     2
 40
16.
 49
16.
 49
0.
  0
LTYPE
  2
SPUELLUFT
 70
     0
  3
 
 72
    65
 73
     2
 40
16.
 49
16.
 49
0.
  0
LTYPE
  2
CHLORLOESUNG
 70
     0
  3
 
 72
    65
 73
     2
 40
16.
 49
16.
 49
0.
  0
LTYPE
  2
PH-LOESUNG
 70
     0
  3
 
 72
    65
 73
     2
 40
16.
 49
16.
 49
0.
  0
LTYPE
  2
FLOCKUNGSMITTEL
 70
     0
  3
 
 72
    65
 73
     2
 40
16.
 49
16.
 49
0.
  0
LTYPE
  2
SEEWASSER--KALT
 70
     0
  3
 
 72
    65
 73
     2
 40
16.
 49
16.
 49
0.
  0
LTYPE
  2
SEEWASSER--WARM
 70
     0
  3
 
 72
    65
 73
     2
 40
5.
 49
4.063
 49
-0.938
  0
LTYPE
  2
SEEWASSER--ZIRKULATION
 70
     0
  3
 
 72
    65
 73
     4
 40
13.
 49
9.34
 49
-1.22
 49
1.22
 49
-1.22
  0
LTYPE
  2
LABORWASSER--KALT
 70
     0
  3
 
 72
    65
 73
     2
 40
16.
 49
16.
 49
0.
  0
LTYPE
  2
LABORWASSER--WARM
 70
     0
  3
 
 72
    65
 73
     2
 40
5.
 49
4.063
 49
-0.938
  0
LTYPE
  2
LABORWASSER--ZIRKULATION
 70
     0
  3
 
 72
    65
 73
     4
 40
13.
 49
9.34
 49
-1.22
 49
1.22
 49
-1.22
  0
LTYPE
  2
WASSER-VOLL-ENTHAERTET-VL
 70
     0
  3
 
 72
    65
 73
     2
 40
16.
 49
16.
 49
0.
  0
LTYPE
  2
WASSER-VOLL-ENTHAERTET-RL
 70
     0
  3
 
 72
    65
 73
     2
 40
16.
 49
16.
 49
0.
  0
LTYPE
  2
PROZESSKUEHLWASSER-VL
 70
     0
  3
 
 72
    65
 73
     2
 40
16.
 49
16.
 49
0.
  0
LTYPE
  2
PROZESSKUEHLWASSER-RL
 70
     0
  3
 
 72
    65
 73
     2
 40
16.
 49
16.
 49
0.
  0
ENDTAB
  0
TABLE
  2
LAYER
 70
    25
  0
LAYER
  2
0
 62
     7
  6
AUSGEZOGEN
 70
    64
  0
LAYER
  2
SICHTBARE_KANTE
 62
     7
  6
AUSGEZOGEN
 70
    64
  0
LAYER
  2
VERDECKTE_KANTE
 62
     8
  6
VERDECKTE_KANTE
 70
    64
  0
LAYER
  2
HILFSLINIE
 62
     8
  6
HILFSLINIE
 70
    64
  0
LAYER
  2
BRUCHLINIE
 62
     8
  6
BRUCHLINIE
 70
    64
  0
LAYER
  2
MITTELLINIE
 62
     8
  6
MITTELLINIE
 70
    64
  0
LAYER
  2
SCHNITTLINIE
 62
     7
  6
SCHNITTLINIE
 70
    64
  0
LAYER
  2
SCHWERLINIE
 62
     8
  6
SCHWERLINIE
 70
    64
  0
LAYER
  2
ENTWURFSLINIE
 62
     8
  6
ENTWURFSLINIE
 70
    64
  0
LAYER
  2
SONDERLINIE_1
 62
     8
  6
SONDERLINIE1
 70
    64
  0
LAYER
  2
SONDERLINIE_2
 62
     8
  6
SONDERLINIE2
 70
    64
  0
LAYER
  2
SONDERLINIE_3
 62
     8
  6
SONDERLINIE3
 70
    64
  0
LAYER
  2
SONDERLINIE_4
 62
     8
  6
SONDERLINIE4
 70
    64
  0
LAYER
  2
SONDERLINIE_5
 62
     8
  6
SONDERLINIE5
 70
    64
  0
LAYER
  2
SONDERLINIE_6
 62
     8
  6
SONDERLINIE6
 70
    64
  0
LAYER
  2
SONDERLINIE_7
 62
     8
  6
SONDERLINIE7
 70
    64
  0
LAYER
  2
SONDERLINIE_8
 62
     8
  6
SONDERLINIE8
 70
    64
  0
LAYER
  2
2D-TEXT
 62
     7
  6
AUSGEZOGEN
 70
    64
  0
LAYER
  2
SCHRAFFUR
 62
     8
  6
HILFSLINIE
 70
    64
  0
LAYER
  2
SYMBOL
 62
     7
  6
HILFSLINIE
 70
    64
  0
LAYER
  2
BEMASSUNG
 62
     8
  6
HILFSLINIE
 70
    64
  0
LAYER
  2
OBERFLAECHENZEICHEN
 62
     8
  6
HILFSLINIE
 70
    64
  0
LAYER
  2
FORM-LAGE-TOLERANZEN
 62
     8
  6
HILFSLINIE
 70
    64
  0
LAYER
  2
SCHWEISSZEICHEN
 62
     8
  6
HILFSLINIE
 70
    64
  0
LAYER
  2
GRUNDEBENE
 62
     7
  6
AUSGEZOGEN
 70
    64
  0
ENDTAB
  0
TABLE
  2
STYLE
 70
    23
  0
STYLE
  2
STANDARD
 70
     0
 40
     0
 41
       1.000000
 50
       0.000000
 71
     0
 42
       3.500000
  3
isocp
  4

  0
STYLE
  2
DIN-6776
 70
     0
 40
     0
 41
       1.000000
 50
       0.000000
 71
     0
 42
       3.500000
  3
isocp
  4

  0
STYLE
  2
ROMAN
 70
     0
 40
     0
 41
       1.000000
 50
       0.000000
 71
     0
 42
       3.500000
  3
romans.shx
  4

  0
STYLE
  2
SCRIPT
 70
     0
 40
     0
 41
       1.000000
 50
       0.000000
 71
     0
 42
       3.500000
  3
scripts.shx
  4

  0
STYLE
  2
GRIECHISCH
 70
     0
 40
     0
 41
       1.000000
 50
       0.000000
 71
     0
 42
       3.500000
  3
greeks.shx
  4

  0
STYLE
  2
KYRILLISCH
 70
     0
 40
     0
 41
       1.000000
 50
       0.000000
 71
     0
 42
       3.500000
  3
cyrillic.shx
  4

  0
STYLE
  2
MATH--FORMELZEICHEN
 70
     0
 40
     0
 41
       1.000000
 50
       0.000000
 71
     0
 42
       3.500000
  3
symath.shx
  4

  0
STYLE
  2
DOPPELLINIE
 70
     0
 40
     0
 41
       1.000000
 50
       0.000000
 71
     0
 42
       3.500000
  3
swissko.ttf
  4

  0
STYLE
  2
SERIFENSCHRIFT
 70
     0
 40
     0
 41
       1.000000
 50
       0.000000
 71
     0
 42
       3.500000
  3
romanc__.ttf
  4

  0
STYLE
  2
ARIAL
 70
     0
 40
     0
 41
       1.000000
 50
       0.000000
 71
     0
 42
       3.500000
  3
arial.ttf
  4

  0
STYLE
  2
ARIAL-FETT
 70
     0
 40
     0
 41
       1.000000
 50
       0.000000
 71
     0
 42
       3.500000
  3
arialbd.ttf
  4

  0
STYLE
  2
TIMES-NEW-ROMAN
 70
     0
 40
     0
 41
       1.000000
 50
       0.000000
 71
     0
 42
       3.500000
  3
times.ttf
  4

  0
STYLE
  2
TIMES-NEW-ROMAN-FETT
 70
     0
 40
     0
 41
       1.000000
 50
       0.000000
 71
     0
 42
       3.500000
  3
timesbd.ttf
  4

  0
STYLE
  2
DIN-6776-OSTEUROPA
 70
     0
 40
     0
 41
       1.000000
 50
       0.000000
 71
     0
 42
       3.500000
  3
txt
  4

  0
STYLE
  2
DIN-6776-KYRILLISCH
 70
     0
 40
     0
 41
       1.000000
 50
       0.000000
 71
     0
 42
       3.500000
  3
txt
  4

  0
STYLE
  2
ARIAL-OSTEUROPA
 70
     0
 40
     0
 41
       1.000000
 50
       0.000000
 71
     0
 42
       3.500000
  3
arial.ttf
  4

  0
STYLE
  2
ARIAL-KYRILLISCH
 70
     0
 40
     0
 41
       1.000000
 50
       0.000000
 71
     0
 42
       3.500000
  3
arial.ttf
  4

  0
STYLE
  2
ARIAL-FETT-OSTEUROPA
 70
     0
 40
     0
 41
       1.000000
 50
       0.000000
 71
     0
 42
       3.500000
  3
arialbd.ttf
  4

  0
STYLE
  2
ARIAL-FETT-KYRILLISCH
 70
     0
 40
     0
 41
       1.000000
 50
       0.000000
 71
     0
 42
       3.500000
  3
arialbd.ttf
  4

  0
STYLE
  2
TIMES-N-R-OSTEUROPA
 70
     0
 40
     0
 41
       1.000000
 50
       0.000000
 71
     0
 42
       3.500000
  3
times.ttf
  4

  0
STYLE
  2
TIMES-N-R-KYRILLISCH
 70
     0
 40
     0
 41
       1.000000
 50
       0.000000
 71
     0
 42
       3.500000
  3
times.ttf
  4

  0
STYLE
  2
TIMES-N-R-FETT-OSTEUROPA
 70
     0
 40
     0
 41
       1.000000
 50
       0.000000
 71
     0
 42
       3.500000
  3
timesbd.ttf
  4

  0
STYLE
  2
TIMES-N-R-FETT-KYRILLISCH
 70
     0
 40
     0
 41
       1.000000
 50
       0.000000
 71
     0
 42
       3.500000
  3
timesbd.ttf
  4

  0
ENDTAB
  0
TABLE
  2
VIEW
 70
     0
  0
ENDTAB
  0
TABLE
  2
VPORT
 70
     2
  0
VPORT
  2
*ACTIVE
 70
     0
 10
       0.000000
 20
       0.000000
 11
       1.000000
 21
       1.000000
 12
    1664.299927
 22
    1063.348999
 13
       0.000000
 23
       0.000000
 14
       1.000000
 24
       1.000000
 15
       0.000000
 25
       0.000000
 16
       0.000000
 26
       0.000000
 36
       1.000000
 17
       0.000000
 27
       0.000000
 37
       0.000000
 40
    2126.697998
 41
       1.565149
 42
      50.000000
 43
       0.000000
 44
       0.000000
 50
       0.000000
 51
       0.000000
 71
     0
 72
   100
 73
     1
 74
     1
 75
     0
 76
     0
 77
     0
 78
     0
  0
ENDTAB
  0
TABLE
  2
DIMSTYLE
 70
     1
  0
DIMSTYLE
  2
STDBEM
 70
     0
  3

  4

  5

  6

  7

 40
       1.000000
 41
       3.500000
 42
       0.100000
 43
       7.000000
 44
       1.800000
 45
       0.000000
 46
       0.000000
 47
       0.000000
 48
       0.000000
140
       3.500000
141
       1.500000
142
       0.000000
143
      25.400000
144
       1.000000
145
       0.000000
146
       1.000000
147
       0.090000
 71
     0
 72
     0
 73
     0
 74
     0
 75
     0
 76
     0
 77
     1
 78
     0
170
     0
171
     2
172
     0
173
     0
174
     0
175
     0
176
     0
177
     0
178
     0
  0
ENDTAB
  0
ENDSEC
  0
SECTION
  2
BLOCKS
  0
ENDSEC
  0
SECTION
  2
ENTITIES
  0
ARC
  8
HILFSLINIE
 10
      55.633545
 20
    1115.348999
 40
      17.000000
 50
      90.000000
 51
     180.000000
  0
ARC
  8
HILFSLINIE
 10
      55.633545
 20
     261.348999
 40
      17.000000
 50
     180.000000
 51
     270.000000
  0
ARC
  8
HILFSLINIE
 10
     982.635986
 20
  -88926.093750
 40
   90028.710938
 50
      90.000000
 51
      90.572067
  0
ARC
  8
HILFSLINIE
 10
   15163.795898
 20
     688.378662
 40
   15090.422852
 50
     178.462540
 51
     181.537674
  0
ARC
  8
HILFSLINIE
 10
      83.803589
 20
    1093.127319
 40
       5.000000
 50
      90.572121
 51
     178.462509
  0
ARC
  8
HILFSLINIE
 10
      83.803589
 20
     283.570648
 40
       5.000000
 50
     181.537476
 51
     269.427856
  0
ARC
  8
HILFSLINIE
 10
     982.635986
 20
   90302.796875
 40
   90028.710938
 50
     269.427917
 51
     270.000000
  0
ARC
  8
HILFSLINIE
 10
    1909.633545
 20
    1115.348999
 40
      17.000000
 50
       0.000000
 51
      90.000000
  0
ARC
  8
HILFSLINIE
 10
    1909.633545
 20
     261.348999
 40
      17.000000
 50
     270.000000
 51
       0.000000
  0
ARC
  8
HILFSLINIE
 10
     982.631104
 20
  -88926.093750
 40
   90028.710938
 50
      89.427925
 51
      89.999992
  0
ARC
  8
HILFSLINIE
 10
  -13198.528320
 20
     688.378662
 40
   15090.422852
 50
     358.462311
 51
       1.537456
  0
ARC
  8
HILFSLINIE
 10
    1881.463501
 20
    1093.127319
 40
       5.000000
 50
       1.537500
 51
      89.427872
  0
ARC
  8
HILFSLINIE
 10
    1881.463501
 20
     283.570648
 40
       5.000000
 50
     270.572113
 51
     358.462494
  0
ARC
  8
HILFSLINIE
 10
     982.631104
 20
   90302.796875
 40
   90028.710938
 50
     270.000000
 51
     270.572052
  0
ARC
  8
HILFSLINIE
 10
    1529.633789
 20
     915.848755
 40
      20.000025
 50
       0.000000
 51
      90.000000
  0
ARC
  8
HILFSLINIE
 10
    1529.633789
 20
     460.848999
 40
      20.000025
 50
     270.000000
 51
       0.000000
  0
ARC
  8
HILFSLINIE
 10
     435.633301
 20
     915.848755
 40
      20.000025
 50
      90.000000
 51
     180.000000
  0
ARC
  8
HILFSLINIE
 10
     435.633301
 20
     460.848999
 40
      20.000025
 50
     180.000000
 51
     270.000000
  0
ARC
  8
HILFSLINIE
 10
    1909.633545
 20
    1115.348999
 40
      17.000000
 50
       0.000000
 51
      90.000000
  0
ARC
  8
HILFSLINIE
 10
     943.656738
 20
    1469.555054
 40
      10.377666
 50
      24.888252
 51
      87.102760
  0
ARC
  8
HILFSLINIE
 10
     957.159912
 20
    1475.499390
 40
       4.362232
 50
     205.236618
 51
     268.083618
  0
ARC
  8
HILFSLINIE
 10
    1021.610352
 20
    1469.555054
 40
      10.377666
 50
      92.897240
 51
     155.111603
  0
ARC
  8
HILFSLINIE
 10
    1008.107178
 20
    1475.499390
 40
       4.362232
 50
     271.916351
 51
     334.763702
  0
ARC
  8
HILFSLINIE
 10
     399.679932
 20
     914.821655
 40
      80.362404
 50
     126.639397
 51
     152.712753
  0
ARC
  8
HILFSLINIE
 10
     400.476624
 20
     915.193726
 40
      80.902939
 50
     153.205612
 51
     179.493042
  0
ARC
  8
HILFSLINIE
 10
     400.475830
 20
     461.503784
 40
      80.902184
 50
     180.506943
 51
     206.794632
  0
ARC
  8
HILFSLINIE
 10
     399.679321
 20
     461.875854
 40
      80.361740
 50
     207.287430
 51
     233.360733
  0
ARC
  8
HILFSLINIE
 10
    1564.789795
 20
     915.193726
 40
      80.903389
 50
       0.506951
 51
      26.794199
  0
ARC
  8
HILFSLINIE
 10
    1565.587402
 20
     914.822144
 40
      80.361916
 50
      27.287037
 51
      53.360519
  0
ARC
  8
HILFSLINIE
 10
    1565.586914
 20
     461.876343
 40
      80.362556
 50
     306.639374
 51
     332.712372
  0
ARC
  8
HILFSLINIE
 10
    1564.790039
 20
     461.504272
 40
      80.902985
 50
     333.205292
 51
     359.492676
  0
LINE
  8
HILFSLINIE
 10
     415.633301
 20
     915.848755
 11
     415.633301
 21
     460.848999
  0
LINE
  8
HILFSLINIE
 10
     535.633301
 20
     440.848999
 11
     435.633301
 21
     440.848969
  0
LINE
  8
HILFSLINIE
 10
     535.633301
 20
     935.848755
 11
     435.633301
 21
     935.848755
  0
LINE
  8
HILFSLINIE
 10
      38.633545
 20
     261.348999
 11
      38.633545
 21
    1115.348999
  0
LINE
  8
HILFSLINIE
 10
    1909.633545
 20
    1132.348999
 11
      55.633545
 21
    1132.348999
  0
LINE
  8
HILFSLINIE
 10
    1909.633545
 20
     244.348999
 11
      55.633545
 21
     244.348999
  0
LINE
  8
HILFSLINIE
 10
    1549.633789
 20
     915.848755
 11
    1549.633789
 21
     460.848999
  0
LINE
  8
HILFSLINIE
 10
    1926.633545
 20
     261.348999
 11
    1926.633545
 21
    1115.348999
  0
LINE
  8
HILFSLINIE
 10
     982.633545
 20
     935.848877
 11
    1529.633789
 21
     935.848755
  0
LINE
  8
HILFSLINIE
 10
     982.633545
 20
     440.848877
 11
    1529.633789
 21
     440.848969
  0
LINE
  8
HILFSLINIE
 10
     982.633545
 20
     935.848877
 11
     535.633301
 21
     935.848755
  0
LINE
  8
HILFSLINIE
 10
     982.633545
 20
     440.848877
 11
     535.633301
 21
     440.848999
  0
LINE
  8
HILFSLINIE
 10
    1581.922485
 20
    1568.348999
 11
     383.344116
 21
    1568.348999
  0
LINE
  8
HILFSLINIE
 10
     939.728394
 20
    1479.919556
 11
     982.633545
 21
    1479.919312
  0
LINE
  8
HILFSLINIE
 10
     948.946777
 20
    1473.922485
 11
     982.633545
 21
    1473.922485
  0
LINE
  8
HILFSLINIE
 10
     953.214050
 20
    1473.639526
 11
     953.070618
 21
    1473.922485
  0
LINE
  8
HILFSLINIE
 10
    1025.538696
 20
    1479.919556
 11
     982.633545
 21
    1479.919312
  0
LINE
  8
HILFSLINIE
 10
    1016.320312
 20
    1473.922485
 11
     982.633545
 21
    1473.922485
  0
LINE
  8
HILFSLINIE
 10
    1012.053101
 20
    1473.639526
 11
    1012.196533
 21
    1473.922485
  0
LINE
  8
HILFSLINIE
 10
    1042.953369
 20
     374.873413
 11
     982.633545
 21
     374.852905
  0
LINE
  8
HILFSLINIE
 10
     982.633545
 20
     374.852905
 11
     922.313232
 21
     374.873413
  0
LINE
  8
HILFSLINIE
 10
     922.313354
 20
    1001.824585
 11
    1042.953491
 21
    1001.824585
  0
LINE
  8
HILFSLINIE
 10
    1042.953491
 20
    1001.824585
 11
    1091.133545
 21
    1001.779663
  0
LINE
  8
HILFSLINIE
 10
     874.133545
 20
    1001.779663
 11
     922.313354
 21
    1001.824585
  0
LINE
  8
HILFSLINIE
 10
    2639.212891
 20
    1476.920044
 11
    2638.751709
 21
    1476.920044
  0
LINE
  8
HILFSLINIE
 10
    2682.633545
 20
    1479.919556
 11
    2638.817383
 21
    1479.919312
  0
LINE
  8
HILFSLINIE
 10
    2649.110107
 20
    1473.639526
 11
    2682.633545
 21
    1473.639526
  0
LINE
  8
HILFSLINIE
 10
    2682.633545
 20
    1468.139526
 11
    2682.633545
 21
    1471.139526
  0
LINE
  8
HILFSLINIE
 10
    2682.633545
 20
    1473.922241
 11
    2648.947021
 21
    1473.922241
  0
LINE
  8
HILFSLINIE
 10
    2726.054199
 20
    1476.920044
 11
    2726.515381
 21
    1476.920044
  0
LINE
  8
HILFSLINIE
 10
    2682.633545
 20
    1479.919556
 11
    2726.449707
 21
    1479.919312
  0
LINE
  8
HILFSLINIE
 10
    2716.156982
 20
    1473.639526
 11
    2682.633545
 21
    1473.639526
  0
LINE
  8
HILFSLINIE
 10
    2682.633545
 20
    1468.139526
 11
    2682.633545
 21
    1471.139526
  0
LINE
  8
HILFSLINIE
 10
    2682.633545
 20
    1473.922241
 11
    2716.320068
 21
    1473.922241
  0
LINE
  8
HILFSLINIE
 10
    3295.966553
 20
     688.346802
 11
    2069.301025
 21
     688.347046
  0
CIRCLE
  8
HILFSLINIE
 10
     982.633545
 20
     688.348999
 40
      45.000000
  0
POLYLINE
  8
HILFSLINIE
 66
     1
 10
       0.000000
 20
       0.000000
 30
       0.000000
  0
VERTEX
  8
HILFSLINIE
 10
    1778.782959
 20
    1864.664673
 30
       0.000000
  0
VERTEX
  8
HILFSLINIE
 10
    1392.123901
 20
    1864.664917
 30
       0.000000
  0
VERTEX
  8
HILFSLINIE
 10
    1005.548584
 20
    1864.664917
 30
       0.000000
  0
VERTEX
  8
HILFSLINIE
 10
     619.087524
 20
    1864.664917
 30
       0.000000
  0
VERTEX
  8
HILFSLINIE
 10
     232.633301
 20
    1864.664673
 30
       0.000000
  0
SEQEND
  8
HILFSLINIE
  0
POLYLINE
  8
HILFSLINIE
 66
     1
 10
       0.000000
 20
       0.000000
 30
       0.000000
  0
VERTEX
  8
HILFSLINIE
 10
     980.022949
 20
    1568.348999
 30
       0.000000
  0
VERTEX
  8
HILFSLINIE
 10
     600.894653
 20
    1568.348999
 30
       0.000000
  0
VERTEX
  8
HILFSLINIE
 10
     383.344116
 20
    1568.348999
 30
       0.000000
  0
SEQEND
  8
HILFSLINIE
  0
POLYLINE
  8
HILFSLINIE
 66
     1
 10
       0.000000
 20
       0.000000
 30
       0.000000
  0
VERTEX
  8
HILFSLINIE
 10
     985.243652
 20
    1568.348999
 30
       0.000000
  0
VERTEX
  8
HILFSLINIE
 10
    1364.371948
 20
    1568.348999
 30
       0.000000
  0
VERTEX
  8
HILFSLINIE
 10
    1581.922485
 20
    1568.348999
 30
       0.000000
  0
SEQEND
  8
HILFSLINIE
  0
POLYLINE
  8
HILFSLINIE
 66
     1
 10
       0.000000
 20
       0.000000
 30
       0.000000
  0
VERTEX
  8
HILFSLINIE
 10
     351.721497
 20
     979.305054
 30
       0.000000
  0
VERTEX
  8
HILFSLINIE
 10
     359.185181
 20
     984.355347
 30
       0.000000
  0
VERTEX
  8
HILFSLINIE
 10
     367.104492
 20
     988.664917
 30
       0.000000
  0
VERTEX
  8
HILFSLINIE
 10
     375.369446
 20
     992.237183
 30
       0.000000
  0
VERTEX
  8
HILFSLINIE
 10
     383.905884
 20
     995.101440
 30
       0.000000
  0
VERTEX
  8
HILFSLINIE
 10
     395.586487
 20
     997.868530
 30
       0.000000
  0
VERTEX
  8
HILFSLINIE
 10
     407.492432
 20
     999.503784
 30
       0.000000
  0
VERTEX
  8
HILFSLINIE
 10
     419.493591
 20
    1000.082886
 30
       0.000000
  0
SEQEND
  8
HILFSLINIE
  0
POLYLINE
  8
HILFSLINIE
 66
     1
 10
       0.000000
 20
       0.000000
 30
       0.000000
  0
VERTEX
  8
HILFSLINIE
 10
    1647.416016
 20
     688.348999
 30
       0.000000
  0
VERTEX
  8
HILFSLINIE
 10
    1646.984375
 20
     574.567261
 30
       0.000000
  0
VERTEX
  8
HILFSLINIE
 10
    1645.689941
 20
     460.787964
 30
       0.000000
  0
SEQEND
  8
HILFSLINIE
  0
POLYLINE
  8
HILFSLINIE
 66
     1
 10
       0.000000
 20
       0.000000
 30
       0.000000
  0
VERTEX
  8
HILFSLINIE
 10
    2544.314209
 20
    1568.348999
 30
       0.000000
  0
VERTEX
  8
HILFSLINIE
 10
    2682.633545
 20
    1568.348999
 30
       0.000000
  0
VERTEX
  8
HILFSLINIE
 10
    2820.953125
 20
    1568.348999
 30
       0.000000
  0
SEQEND
  8
HILFSLINIE
  0
POLYLINE
  8
HILFSLINIE
 66
     1
 10
       0.000000
 20
       0.000000
 30
       0.000000
  0
VERTEX
  8
HILFSLINIE
 10
    2439.428711
 20
    1859.216675
 30
       0.000000
  0
VERTEX
  8
HILFSLINIE
 10
    2561.033936
 20
    1859.217163
 30
       0.000000
  0
VERTEX
  8
HILFSLINIE
 10
    2682.633301
 20
    1859.217163
 30
       0.000000
  0
VERTEX
  8
HILFSLINIE
 10
    2804.232422
 20
    1859.217163
 30
       0.000000
  0
VERTEX
  8
HILFSLINIE
 10
    2925.837891
 20
    1859.216675
 30
       0.000000
  0
SEQEND
  8
HILFSLINIE
  0
POLYLINE
  8
HILFSLINIE
 66
     1
 10
       0.000000
 20
       0.000000
 30
       0.000000
  0
VERTEX
  8
HILFSLINIE
 10
    2682.633545
 20
    1493.601440
 30
       0.000000
  0
VERTEX
  8
HILFSLINIE
 10
    2633.635498
 20
    1494.201782
 30
       0.000000
  0
VERTEX
  8
HILFSLINIE
 10
    2584.658936
 20
    1496.002563
 30
       0.000000
  0
VERTEX
  8
HILFSLINIE
 10
    2535.745361
 20
    1499.002563
 30
       0.000000
  0
VERTEX
  8
HILFSLINIE
 10
    2486.926514
 20
    1503.199585
 30
       0.000000
  0
SEQEND
  8
HILFSLINIE
  0
POLYLINE
  8
HILFSLINIE
 66
     1
 10
       0.000000
 20
       0.000000
 30
       0.000000
  0
VERTEX
  8
HILFSLINIE
 10
    2682.633545
 20
    1493.601440
 30
       0.000000
  0
VERTEX
  8
HILFSLINIE
 10
    2731.631592
 20
    1494.201782
 30
       0.000000
  0
VERTEX
  8
HILFSLINIE
 10
    2780.608154
 20
    1496.002563
 30
       0.000000
  0
VERTEX
  8
HILFSLINIE
 10
    2829.521729
 20
    1499.002563
 30
       0.000000
  0
VERTEX
  8
HILFSLINIE
 10
    2878.340576
 20
    1503.199585
 30
       0.000000
  0
SEQEND
  8
HILFSLINIE
  0
POLYLINE
  8
HILFSLINIE
 66
     1
 10
       0.000000
 20
       0.000000
 30
       0.000000
  0
VERTEX
  8
HILFSLINIE
 10
     319.576782
 20
     460.787964
 30
       0.000000
  0
VERTEX
  8
HILFSLINIE
 10
     318.282532
 20
     574.559937
 30
       0.000000
  0
VERTEX
  8
HILFSLINIE
 10
     317.851135
 20
     688.367065
 30
       0.000000
  0
VERTEX
  8
HILFSLINIE
 10
     318.282593
 20
     802.142456
 30
       0.000000
  0
VERTEX
  8
HILFSLINIE
 10
     319.576843
 20
     915.909546
 30
       0.000000
  0
SEQEND
  8
HILFSLINIE
  0
POLYLINE
  8
HILFSLINIE
 66
     1
 10
       0.000000
 20
       0.000000
 30
       0.000000
  0
VERTEX
  8
HILFSLINIE
 10
     922.313232
 20
     374.873413
 30
       0.000000
  0
VERTEX
  8
HILFSLINIE
 10
     676.275635
 20
     375.374390
 30
       0.000000
  0
VERTEX
  8
HILFSLINIE
 10
     419.493530
 20
     376.614624
 30
       0.000000
  0
SEQEND
  8
HILFSLINIE
  0
POLYLINE
  8
HILFSLINIE
 66
     1
 10
       0.000000
 20
       0.000000
 30
       0.000000
  0
VERTEX
  8
HILFSLINIE
 10
    1545.773193
 20
     376.614624
 30
       0.000000
  0
VERTEX
  8
HILFSLINIE
 10
    1517.425659
 20
     376.442261
 30
       0.000000
  0
VERTEX
  8
HILFSLINIE
 10
    1507.927612
 20
     376.386108
 30
       0.000000
  0
VERTEX
  8
HILFSLINIE
 10
    1486.634033
 20
     376.264038
 30
       0.000000
  0
VERTEX
  8
HILFSLINIE
 10
    1448.611328
 20
     376.059448
 30
       0.000000
  0
VERTEX
  8
HILFSLINIE
 10
    1380.713379
 20
     375.733276
 30
       0.000000
  0
VERTEX
  8
HILFSLINIE
 10
    1259.466553
 20
     375.278687
 30
       0.000000
  0
VERTEX
  8
HILFSLINIE
 10
    1042.953369
 20
     374.873413
 30
       0.000000
  0
SEQEND
  8
HILFSLINIE
  0
POLYLINE
  8
HILFSLINIE
 66
     1
 10
       0.000000
 20
       0.000000
 30
       0.000000
  0
VERTEX
  8
HILFSLINIE
 10
     874.133545
 20
    1072.696655
 30
       0.000000
  0
VERTEX
  8
HILFSLINIE
 10
     982.677429
 20
    1072.762085
 30
       0.000000
  0
VERTEX
  8
HILFSLINIE
 10
    1091.133545
 20
    1072.696655
 30
       0.000000
  0
SEQEND
  8
HILFSLINIE
  0
POLYLINE
  8
HILFSLINIE
 66
     1
 10
       0.000000
 20
       0.000000
 30
       0.000000
  0
VERTEX
  8
HILFSLINIE
 10
    1545.773193
 20
    1000.082886
 30
       0.000000
  0
VERTEX
  8
HILFSLINIE
 10
    1557.774658
 20
     999.503784
 30
       0.000000
  0
VERTEX
  8
HILFSLINIE
 10
    1569.681396
 20
     997.868042
 30
       0.000000
  0
VERTEX
  8
HILFSLINIE
 10
    1581.361328
 20
     995.101440
 30
       0.000000
  0
VERTEX
  8
HILFSLINIE
 10
    1589.896240
 20
     992.237671
 30
       0.000000
  0
VERTEX
  8
HILFSLINIE
 10
    1598.161133
 20
     988.665405
 30
       0.000000
  0
VERTEX
  8
HILFSLINIE
 10
    1606.081421
 20
     984.355347
 30
       0.000000
  0
VERTEX
  8
HILFSLINIE
 10
    1613.545288
 20
     979.305054
 30
       0.000000
  0
SEQEND
  8
HILFSLINIE
  0
POLYLINE
  8
HILFSLINIE
 66
     1
 10
       0.000000
 20
       0.000000
 30
       0.000000
  0
VERTEX
  8
HILFSLINIE
 10
    1091.133545
 20
    1001.779663
 30
       0.000000
  0
VERTEX
  8
HILFSLINIE
 10
    1339.714600
 20
    1001.136597
 30
       0.000000
  0
VERTEX
  8
HILFSLINIE
 10
    1449.089600
 20
    1000.636108
 30
       0.000000
  0
VERTEX
  8
HILFSLINIE
 10
    1497.214355
 20
    1000.373901
 30
       0.000000
  0
VERTEX
  8
HILFSLINIE
 10
    1515.216064
 20
    1000.268921
 30
       0.000000
  0
VERTEX
  8
HILFSLINIE
 10
    1545.773193
 20
    1000.082886
 30
       0.000000
  0
SEQEND
  8
HILFSLINIE
  0
POLYLINE
  8
HILFSLINIE
 66
     1
 10
       0.000000
 20
       0.000000
 30
       0.000000
  0
VERTEX
  8
HILFSLINIE
 10
     419.493591
 20
    1000.082886
 30
       0.000000
  0
VERTEX
  8
HILFSLINIE
 10
     676.275696
 20
    1001.323608
 30
       0.000000
  0
VERTEX
  8
HILFSLINIE
 10
     874.133545
 20
    1001.779663
 30
       0.000000
  0
SEQEND
  8
HILFSLINIE
  0
POLYLINE
  8
HILFSLINIE
 66
     1
 10
       0.000000
 20
       0.000000
 30
       0.000000
  0
VERTEX
  8
HILFSLINIE
 10
    1645.689941
 20
     915.909546
 30
       0.000000
  0
VERTEX
  8
HILFSLINIE
 10
    1646.984375
 20
     802.136597
 30
       0.000000
  0
VERTEX
  8
HILFSLINIE
 10
    1647.416016
 20
     688.348999
 30
       0.000000
  0
SEQEND
  8
HILFSLINIE
  0
POLYLINE
  8
HILFSLINIE
 66
     1
 10
       0.000000
 20
       0.000000
 30
       0.000000
  0
VERTEX
  8
HILFSLINIE
 10
    1613.545166
 20
     397.392944
 30
       0.000000
  0
VERTEX
  8
HILFSLINIE
 10
    1606.081543
 20
     392.342651
 30
       0.000000
  0
VERTEX
  8
HILFSLINIE
 10
    1598.162231
 20
     388.033081
 30
       0.000000
  0
VERTEX
  8
HILFSLINIE
 10
    1589.897339
 20
     384.460327
 30
       0.000000
  0
VERTEX
  8
HILFSLINIE
 10
    1581.360840
 20
     381.596558
 30
       0.000000
  0
VERTEX
  8
HILFSLINIE
 10
    1569.680176
 20
     378.829468
 30
       0.000000
  0
VERTEX
  8
HILFSLINIE
 10
    1557.774414
 20
     377.194214
 30
       0.000000
  0
VERTEX
  8
HILFSLINIE
 10
    1545.773193
 20
     376.614624
 30
       0.000000
  0
SEQEND
  8
HILFSLINIE
  0
POLYLINE
  8
HILFSLINIE
 66
     1
 10
       0.000000
 20
       0.000000
 30
       0.000000
  0
VERTEX
  8
HILFSLINIE
 10
     351.721497
 20
     397.392944
 30
       0.000000
  0
VERTEX
  8
HILFSLINIE
 10
     359.185181
 20
     392.342651
 30
       0.000000
  0
VERTEX
  8
HILFSLINIE
 10
     367.104492
 20
     388.033081
 30
       0.000000
  0
VERTEX
  8
HILFSLINIE
 10
     375.369446
 20
     384.460815
 30
       0.000000
  0
VERTEX
  8
HILFSLINIE
 10
     383.905884
 20
     381.596558
 30
       0.000000
  0
VERTEX
  8
HILFSLINIE
 10
     395.586487
 20
     378.829468
 30
       0.000000
  0
VERTEX
  8
HILFSLINIE
 10
     407.492432
 20
     377.194214
 30
       0.000000
  0
VERTEX
  8
HILFSLINIE
 10
     419.493591
 20
     376.615112
 30
       0.000000
  0
SEQEND
  8
HILFSLINIE
  0
LINE
  8
MITTELLINIE
 10
      32.633545
 20
     688.348999
 11
    1932.633545
 21
     688.348999
  0
LINE
  8
MITTELLINIE
 10
     982.633545
 20
     238.348999
 11
     982.633545
 21
    1138.348999
  0
LINE
  8
MITTELLINIE
 10
     982.633301
 20
    1888.348999
 11
     982.633301
 21
    1468.518188
  0
LINE
  8
MITTELLINIE
 10
     947.633545
 20
    1823.348999
 11
    1017.633545
 21
    1823.348999
  0
LINE
  8
MITTELLINIE
 10
    1022.883545
 20
     312.348999
 11
     942.383545
 21
     312.348999
  0
LINE
  8
MITTELLINIE
 10
    2682.633545
 20
    1888.348999
 11
    2682.633545
 21
    1468.518188
  0
CIRCLE
  8
MITTELLINIE
 10
     982.633301
 20
    1823.348999
 40
      26.000000
  0
LINE
  8
MITTELLINIE
 62
     3
 10
     982.633545
 20
     256.848999
 11
     982.633545
 21
     261.848999
  0
LINE
  8
MITTELLINIE
 62
     3
 10
     982.633545
 20
     264.348999
 11
     982.633545
 21
     269.098999
  0
LINE
  8
MITTELLINIE
 62
     3
 10
     982.633545
 20
     254.348999
 11
     982.633545
 21
     249.598999
  0
ARC
  8
ENTWURFSLINIE
 10
    7602.787109
 20
    5943.812500
 40
    8500.000000
 50
     208.497040
 51
     208.902985
  0
ARC
  8
ENTWURFSLINIE
 10
   -5637.520508
 20
    5943.812500
 40
    8500.000000
 50
     331.097015
 51
     331.502960
  0
ARC
  8
ENTWURFSLINIE
 10
   -5637.520508
 20
    5943.812500
 40
    8500.000000
 50
     331.097015
 51
     331.502960
  0
ARC
  8
ENTWURFSLINIE
 10
   -3971.048096
 20
    3380.508057
 40
    7200.000000
 50
     347.832611
 51
     348.039093
  0
ARC
  8
ENTWURFSLINIE
 10
    9336.316406
 20
    3380.508057
 40
    7200.000000
 50
     191.960907
 51
     192.167358
  0
ARC
  8
ENTWURFSLINIE
 10
   -3971.049072
 20
    3380.508057
 40
    7200.000000
 50
     347.832611
 51
     348.039093
  0
ARC
  8
SICHTBARE_KANTE
 10
      55.633545
 20
    1115.348999
 40
      23.000000
 50
      90.000000
 51
     180.000000
  0
ARC
  8
SICHTBARE_KANTE
 10
      55.633545
 20
     261.348999
 40
      23.000000
 50
     180.000000
 51
     270.000000
  0
ARC
  8
SICHTBARE_KANTE
 10
    1909.633545
 20
     261.348999
 40
      23.000000
 50
     270.000000
 51
       0.000000
  0
ARC
  8
SICHTBARE_KANTE
 10
    1909.633545
 20
    1115.348999
 40
      23.000000
 50
       0.000000
 51
      90.000000
  0
ARC
  8
SICHTBARE_KANTE
 10
      38.632812
 20
    1862.348511
 40
       5.999504
 50
     179.995331
 51
     270.004669
  0
ARC
  8
SICHTBARE_KANTE
 10
      38.632812
 20
    1882.349487
 40
       5.999504
 50
      88.201492
 51
     180.004654
  0
ARC
  8
SICHTBARE_KANTE
 10
    7602.787109
 20
    5943.812500
 40
    8500.000000
 50
     208.902985
 51
     210.998108
  0
ARC
  8
SICHTBARE_KANTE
 10
      74.008484
 20
    1787.191772
 40
     100.000000
 50
      28.902962
 51
      88.201340
  0
ARC
  8
SICHTBARE_KANTE
 10
    1926.633789
 20
    1862.348511
 40
       5.999504
 50
     269.995331
 51
       0.004663
  0
ARC
  8
SICHTBARE_KANTE
 10
    1926.633789
 20
    1882.349487
 40
       5.999504
 50
     359.995331
 51
      91.797920
  0
ARC
  8
SICHTBARE_KANTE
 10
   -5637.520508
 20
    5943.812500
 40
    8500.000000
 50
     329.001892
 51
     331.097015
  0
ARC
  8
SICHTBARE_KANTE
 10
    1891.258057
 20
    1787.191772
 40
     100.000000
 50
      91.798622
 51
     151.097031
  0
ARC
  8
SICHTBARE_KANTE
 10
      74.008484
 20
    1787.191772
 40
      96.999931
 50
      28.903004
 51
      88.201355
  0
ARC
  8
SICHTBARE_KANTE
 10
    7602.787109
 20
    5943.812500
 40
    8503.000000
 50
     208.902985
 51
     210.998108
  0
ARC
  8
SICHTBARE_KANTE
 10
      38.632812
 20
    1882.349487
 40
       2.999524
 50
      88.201935
 51
     180.009323
  0
ARC
  8
SICHTBARE_KANTE
 10
      38.632812
 20
    1862.348511
 40
       2.999512
 50
     179.990677
 51
     270.009308
  0
ARC
  8
SICHTBARE_KANTE
 10
    2268.729492
 20
    1856.655151
 40
      27.000568
 50
      12.167233
 51
      86.849052
  0
ARC
  8
SICHTBARE_KANTE
 10
    9336.316406
 20
    3380.508057
 40
    7203.000000
 50
     192.167358
 51
     194.506760
  0
ARC
  8
SICHTBARE_KANTE
 10
   -3971.048096
 20
    3380.508057
 40
    7203.000000
 50
     345.493225
 51
     347.832611
  0
ARC
  8
SICHTBARE_KANTE
 10
    3096.537598
 20
    1856.655151
 40
      26.999954
 50
      93.152054
 51
     167.834320
  0
ARC
  8
SICHTBARE_KANTE
 10
    2238.633057
 20
    1882.349487
 40
       3.000142
 50
      86.846550
 51
     180.009323
  0
ARC
  8
SICHTBARE_KANTE
 10
    2238.633057
 20
    1862.348511
 40
       2.999512
 50
     179.990677
 51
     270.009308
  0
ARC
  8
SICHTBARE_KANTE
 10
    3126.634033
 20
    1882.349487
 40
       5.999504
 50
     359.995331
 51
      93.151505
  0
ARC
  8
SICHTBARE_KANTE
 10
    3126.634033
 20
    1862.348511
 40
       5.999504
 50
     269.995331
 51
       0.004663
  0
ARC
  8
SICHTBARE_KANTE
 10
    1926.633789
 20
    1862.348511
 40
       5.999504
 50
     269.995331
 51
       0.004663
  0
ARC
  8
SICHTBARE_KANTE
 10
    1926.633789
 20
    1882.349487
 40
       5.999504
 50
     359.995331
 51
      91.797920
  0
ARC
  8
SICHTBARE_KANTE
 10
   -5637.520508
 20
    5943.812500
 40
    8500.000000
 50
     329.001892
 51
     331.097015
  0
ARC
  8
SICHTBARE_KANTE
 10
    1891.258057
 20
    1787.191772
 40
     100.000000
 50
      91.798622
 51
     151.097031
  0
ARC
  8
SICHTBARE_KANTE
 10
    1891.258057
 20
    1787.191772
 40
      96.999931
 50
      91.798576
 51
     151.096970
  0
ARC
  8
SICHTBARE_KANTE
 10
   -5637.520508
 20
    5943.812500
 40
    8503.000000
 50
     329.001892
 51
     331.097015
  0
ARC
  8
SICHTBARE_KANTE
 10
    1926.633789
 20
    1882.349487
 40
       2.999524
 50
     359.990662
 51
      91.798065
  0
ARC
  8
SICHTBARE_KANTE
 10
    1926.633789
 20
    1862.348511
 40
       2.999512
 50
     269.990662
 51
       0.009327
  0
ARC
  8
SICHTBARE_KANTE
 10
     938.553894
 20
    1467.921265
 40
      12.001083
 50
      30.003664
 51
      88.741646
  0
ARC
  8
SICHTBARE_KANTE
 10
     953.440552
 20
    1476.140015
 40
       5.000498
 50
     210.003372
 51
     269.997192
  0
ARC
  8
SICHTBARE_KANTE
 10
     953.440552
 20
    1476.140015
 40
       8.000498
 50
     210.002090
 51
     269.998230
  0
ARC
  8
SICHTBARE_KANTE
 10
     938.553894
 20
    1467.921265
 40
       9.001083
 50
      30.004238
 51
      88.740715
  0
ARC
  8
SICHTBARE_KANTE
 10
    1026.713257
 20
    1467.921265
 40
      12.001083
 50
      91.258347
 51
     149.996475
  0
ARC
  8
SICHTBARE_KANTE
 10
    1011.826538
 20
    1476.140015
 40
       5.000498
 50
     270.002777
 51
     329.996979
  0
ARC
  8
SICHTBARE_KANTE
 10
    1011.826538
 20
    1476.140015
 40
       8.000498
 50
     270.001740
 51
     329.997894
  0
ARC
  8
SICHTBARE_KANTE
 10
    1026.713257
 20
    1467.921265
 40
       9.001083
 50
      91.259666
 51
     149.995758
  0
ARC
  8
SICHTBARE_KANTE
 10
    3126.634033
 20
    1882.349487
 40
       5.999504
 50
     359.995331
 51
      93.151505
  0
ARC
  8
SICHTBARE_KANTE
 10
    3126.634033
 20
    1862.348511
 40
       5.999504
 50
     269.995331
 51
       0.004663
  0
ARC
  8
SICHTBARE_KANTE
 10
   -3971.048096
 20
    3380.508057
 40
    7200.000000
 50
     345.493225
 51
     347.832611
  0
ARC
  8
SICHTBARE_KANTE
 10
    3096.537598
 20
    1856.655151
 40
      30.000000
 50
      93.152206
 51
     167.832748
  0
ARC
  8
SICHTBARE_KANTE
 10
    2238.633057
 20
    1882.349487
 40
       5.999504
 50
      86.848488
 51
     180.004654
  0
ARC
  8
SICHTBARE_KANTE
 10
    2238.633057
 20
    1862.348511
 40
       5.999504
 50
     179.995331
 51
     270.004669
  0
ARC
  8
SICHTBARE_KANTE
 10
    9336.316406
 20
    3380.508057
 40
    7200.000000
 50
     192.167358
 51
     194.506760
  0
ARC
  8
SICHTBARE_KANTE
 10
    2268.729492
 20
    1856.655151
 40
      30.000000
 50
      12.167020
 51
      86.847794
  0
ARC
  8
SICHTBARE_KANTE
 10
    3096.537598
 20
    1856.655151
 40
      30.000000
 50
      93.152206
 51
     167.832977
  0
ARC
  8
SICHTBARE_KANTE
 10
    3096.537598
 20
    1856.655151
 40
      27.000568
 50
      93.150948
 51
     167.832748
  0
ARC
  8
SICHTBARE_KANTE
 10
    3126.634033
 20
    1882.349487
 40
       3.000142
 50
     359.990662
 51
      93.153450
  0
ARC
  8
SICHTBARE_KANTE
 10
    3126.634033
 20
    1862.348511
 40
       2.999512
 50
     269.990662
 51
       0.009327
  0
ARC
  8
SICHTBARE_KANTE
 10
    2638.553955
 20
    1467.921265
 40
       9.001084
 50
      30.003176
 51
      88.741104
  0
ARC
  8
SICHTBARE_KANTE
 10
    2653.440674
 20
    1476.140015
 40
       8.000503
 50
     210.001205
 51
     269.996490
  0
ARC
  8
SICHTBARE_KANTE
 10
    2638.553955
 20
    1467.921265
 40
      12.001084
 50
      30.002220
 51
      88.742233
  0
ARC
  8
SICHTBARE_KANTE
 10
    2653.440674
 20
    1476.140015
 40
       5.000496
 50
     210.002319
 51
     269.994385
  0
ARC
  8
SICHTBARE_KANTE
 10
    2726.713135
 20
    1467.921265
 40
       9.001084
 50
      91.258888
 51
     149.996826
  0
ARC
  8
SICHTBARE_KANTE
 10
    2711.826416
 20
    1476.140015
 40
       8.000503
 50
     270.003479
 51
     329.998779
  0
ARC
  8
SICHTBARE_KANTE
 10
    2726.713135
 20
    1467.921265
 40
      12.001084
 50
      91.257759
 51
     149.997787
  0
ARC
  8
SICHTBARE_KANTE
 10
    2711.826416
 20
    1476.140015
 40
       5.000496
 50
     270.005585
 51
     329.997650
  0
LINE
  8
SICHTBARE_KANTE
 10
      32.633545
 20
     261.348999
 11
      32.633545
 21
    1115.348999
  0
LINE
  8
SICHTBARE_KANTE
 10
    1909.633545
 20
    1138.348999
 11
      55.633545
 21
    1138.348999
  0
LINE
  8
SICHTBARE_KANTE
 10
    1909.633545
 20
     238.348999
 11
      55.633545
 21
     238.348999
  0
LINE
  8
SICHTBARE_KANTE
 10
      38.632812
 20
    1888.348999
 11
    1926.633545
 21
    1888.348999
  0
LINE
  8
SICHTBARE_KANTE
 10
      47.633301
 20
    1856.348999
 11
      47.633301
 21
    1859.348999
  0
LINE
  8
SICHTBARE_KANTE
 10
      38.633301
 20
    1856.348999
 11
      47.633301
 21
    1856.348999
  0
LINE
  8
SICHTBARE_KANTE
 10
      32.633301
 20
    1882.348999
 11
      32.633301
 21
    1862.348999
  0
LINE
  8
SICHTBARE_KANTE
 10
      38.821106
 20
    1888.346069
 11
      77.147217
 21
    1887.142456
  0
LINE
  8
SICHTBARE_KANTE
 10
    1917.633301
 20
    1856.348999
 11
    1917.633301
 21
    1859.098999
  0
LINE
  8
SICHTBARE_KANTE
 10
    1926.633301
 20
    1856.348999
 11
    1917.633301
 21
    1856.348999
  0
LINE
  8
SICHTBARE_KANTE
 10
    1932.633301
 20
    1882.348999
 11
    1932.633301
 21
    1862.348999
  0
LINE
  8
SICHTBARE_KANTE
 10
    1926.445557
 20
    1888.346069
 11
    1888.119385
 21
    1887.142456
  0
LINE
  8
SICHTBARE_KANTE
 10
    1932.633545
 20
    1115.348999
 11
    1932.633545
 21
     261.348999
  0
LINE
  8
SICHTBARE_KANTE
 10
      38.726929
 20
    1885.347534
 11
      77.053040
 21
    1884.143921
  0
LINE
  8
SICHTBARE_KANTE
 10
      35.633301
 20
    1882.348999
 11
      35.633301
 21
    1862.348999
  0
LINE
  8
SICHTBARE_KANTE
 10
      38.633301
 20
    1859.348999
 11
      47.633301
 21
    1859.348999
  0
LINE
  8
SICHTBARE_KANTE
 10
    1917.633301
 20
    1856.348999
 11
    1917.633301
 21
    1859.348999
  0
LINE
  8
SICHTBARE_KANTE
 10
    1926.633301
 20
    1856.348999
 11
    1917.633301
 21
    1856.348999
  0
LINE
  8
SICHTBARE_KANTE
 10
    1932.633301
 20
    1882.348999
 11
    1932.633301
 21
    1862.348999
  0
LINE
  8
SICHTBARE_KANTE
 10
    2716.320068
 20
    1473.922241
 11
    2716.156982
 21
    1473.639526
  0
LINE
  8
SICHTBARE_KANTE
 10
    2708.633545
 20
    1471.139526
 11
    2708.633545
 21
    1468.139526
  0
LINE
  8
SICHTBARE_KANTE
 10
    2682.633545
 20
    1471.139526
 11
    2711.826904
 21
    1471.139526
  0
LINE
  8
SICHTBARE_KANTE
 10
    2682.633545
 20
    1468.139526
 11
    2711.826904
 21
    1468.139526
  0
LINE
  8
SICHTBARE_KANTE
 10
    2999.401611
 20
    1576.947754
 11
    2996.129639
 21
    1564.753784
  0
LINE
  8
SICHTBARE_KANTE
 10
    3002.306152
 20
    1576.196289
 11
    2999.032471
 21
    1563.997192
  0
LINE
  8
SICHTBARE_KANTE
 10
    2365.866455
 20
    1576.947998
 11
    2369.137451
 21
    1564.753784
  0
LINE
  8
SICHTBARE_KANTE
 10
    2362.961670
 20
    1576.197266
 11
    2366.234619
 21
    1563.997192
  0
LINE
  8
SICHTBARE_KANTE
 10
    1926.445557
 20
    1888.346069
 11
    1888.119385
 21
    1887.142456
  0
LINE
  8
SICHTBARE_KANTE
 10
    1926.539673
 20
    1885.347534
 11
    1888.213623
 21
    1884.143921
  0
LINE
  8
SICHTBARE_KANTE
 10
    1929.633301
 20
    1882.348999
 11
    1929.633301
 21
    1862.348999
  0
LINE
  8
SICHTBARE_KANTE
 10
    1926.633301
 20
    1859.348999
 11
    1917.633301
 21
    1859.348999
  0
LINE
  8
SICHTBARE_KANTE
 10
     930.201111
 20
    1477.125854
 11
     415.554993
 21
    1490.602417
  0
LINE
  8
SICHTBARE_KANTE
 10
     939.728394
 20
    1479.919556
 11
     938.817444
 21
    1479.919556
  0
LINE
  8
SICHTBARE_KANTE
 10
     930.279663
 20
    1480.124878
 11
     415.633545
 21
    1493.601440
  0
LINE
  8
SICHTBARE_KANTE
 10
     938.817444
 20
    1479.919556
 11
     930.279663
 21
    1480.124878
  0
LINE
  8
SICHTBARE_KANTE
 10
     948.946777
 20
    1473.922485
 11
     949.110168
 21
    1473.639526
  0
LINE
  8
SICHTBARE_KANTE
 10
     956.633545
 20
    1471.139526
 11
     956.633545
 21
    1468.139526
  0
LINE
  8
SICHTBARE_KANTE
 10
     946.348755
 20
    1472.422485
 11
     946.512085
 21
    1472.139526
  0
LINE
  8
SICHTBARE_KANTE
 10
     938.751709
 20
    1476.920288
 11
     930.201111
 21
    1477.125854
  0
LINE
  8
SICHTBARE_KANTE
 10
     982.633545
 20
    1468.139526
 11
     953.440308
 21
    1468.139526
  0
LINE
  8
SICHTBARE_KANTE
 10
    2648.947021
 20
    1473.922241
 11
    2649.110107
 21
    1473.639526
  0
LINE
  8
SICHTBARE_KANTE
 10
    2656.633545
 20
    1471.139526
 11
    2656.633545
 21
    1468.139526
  0
LINE
  8
SICHTBARE_KANTE
 10
    2682.633545
 20
    1471.139526
 11
    2653.440186
 21
    1471.139526
  0
LINE
  8
SICHTBARE_KANTE
 10
    2682.633545
 20
    1468.139526
 11
    2653.440186
 21
    1468.139526
  0
LINE
  8
SICHTBARE_KANTE
 10
    2930.583252
 20
    1491.882202
 11
    2919.245850
 21
    1490.529175
  0
LINE
  8
SICHTBARE_KANTE
 10
    2718.918213
 20
    1472.422241
 11
    2718.755127
 21
    1472.139526
  0
LINE
  8
SICHTBARE_KANTE
 10
     982.633545
 20
    1471.139526
 11
     953.440308
 21
    1471.139526
  0
LINE
  8
SICHTBARE_KANTE
 10
    1035.066040
 20
    1477.125854
 11
    1549.712158
 21
    1490.602417
  0
LINE
  8
SICHTBARE_KANTE
 10
    1025.538696
 20
    1479.919556
 11
    1026.449707
 21
    1479.919556
  0
LINE
  8
SICHTBARE_KANTE
 10
    1034.987427
 20
    1480.124878
 11
    1549.633545
 21
    1493.601440
  0
LINE
  8
SICHTBARE_KANTE
 10
    1026.449707
 20
    1479.919556
 11
    1034.987427
 21
    1480.124878
  0
LINE
  8
SICHTBARE_KANTE
 10
    1016.320312
 20
    1473.922485
 11
    1016.156982
 21
    1473.639526
  0
LINE
  8
SICHTBARE_KANTE
 10
    1008.633545
 20
    1471.139526
 11
    1008.633545
 21
    1468.139526
  0
LINE
  8
SICHTBARE_KANTE
 10
    1018.918335
 20
    1472.422485
 11
    1018.755005
 21
    1472.139526
  0
LINE
  8
SICHTBARE_KANTE
 10
    1026.515381
 20
    1476.920288
 11
    1035.066040
 21
    1477.125854
  0
LINE
  8
SICHTBARE_KANTE
 10
     982.633545
 20
    1468.139526
 11
    1011.826782
 21
    1468.139526
  0
LINE
  8
SICHTBARE_KANTE
 10
     982.633545
 20
    1471.139526
 11
    1011.826782
 21
    1471.139526
  0
LINE
  8
SICHTBARE_KANTE
 10
    3126.633545
 20
    1856.348999
 11
    3117.633545
 21
    1856.348999
  0
LINE
  8
SICHTBARE_KANTE
 10
    3117.633545
 20
    1856.348999
 11
    3117.633545
 21
    1859.098999
  0
LINE
  8
SICHTBARE_KANTE
 10
    3094.887939
 20
    1886.609741
 11
    3126.304199
 21
    1888.339966
  0
LINE
  8
SICHTBARE_KANTE
 10
    3095.053467
 20
    1883.614868
 11
    3126.468994
 21
    1885.345093
  0
LINE
  8
SICHTBARE_KANTE
 10
    3129.633545
 20
    1862.348999
 11
    3129.633545
 21
    1882.348999
  0
LINE
  8
SICHTBARE_KANTE
 10
    3126.633545
 20
    1859.348999
 11
    3117.633545
 21
    1859.348999
  0
LINE
  8
SICHTBARE_KANTE
 10
    2434.683838
 20
    1491.882202
 11
    2446.021240
 21
    1490.529175
  0
LINE
  8
SICHTBARE_KANTE
 10
    2646.348877
 20
    1472.422241
 11
    2646.511963
 21
    1472.139526
  0
LINE
  8
SICHTBARE_KANTE
 10
     314.148865
 20
    1564.684814
 11
     315.279907
 21
    1563.208130
  0
LINE
  8
SICHTBARE_KANTE
 10
     316.719971
 20
    1566.230103
 11
     317.851074
 21
    1564.754028
  0
LINE
  8
SICHTBARE_KANTE
 10
    1917.633301
 20
    1859.348999
 11
    1826.432861
 21
    1859.348999
  0
LINE
  8
SICHTBARE_KANTE
 10
    1917.633301
 20
    1856.348999
 11
    1823.241455
 21
    1856.348999
  0
LINE
  8
SICHTBARE_KANTE
 10
      47.633301
 20
    1859.348999
 11
     138.833801
 21
    1859.348999
  0
LINE
  8
SICHTBARE_KANTE
 10
      47.633301
 20
    1856.348999
 11
     142.025146
 21
    1856.348999
  0
LINE
  8
SICHTBARE_KANTE
 10
    3132.633545
 20
    1862.348999
 11
    3132.633545
 21
    1882.348999
  0
LINE
  8
SICHTBARE_KANTE
 10
    3126.304199
 20
    1888.348999
 11
    2238.633057
 21
    1888.348999
  0
LINE
  8
SICHTBARE_KANTE
 10
    3126.633545
 20
    1856.348999
 11
    3117.633545
 21
    1856.348999
  0
LINE
  8
SICHTBARE_KANTE
 10
    3117.633545
 20
    1856.348999
 11
    3117.633545
 21
    1859.098999
  0
LINE
  8
SICHTBARE_KANTE
 10
    3094.887939
 20
    1886.609741
 11
    3126.304199
 21
    1888.339966
  0
LINE
  8
SICHTBARE_KANTE
 10
    2232.633545
 20
    1862.348999
 11
    2232.633545
 21
    1882.348999
  0
LINE
  8
SICHTBARE_KANTE
 10
    2238.633545
 20
    1856.348999
 11
    2247.633545
 21
    1856.348999
  0
LINE
  8
SICHTBARE_KANTE
 10
    2247.633545
 20
    1856.348999
 11
    2247.633545
 21
    1859.098999
  0
LINE
  8
SICHTBARE_KANTE
 10
    2270.379150
 20
    1886.609741
 11
    2238.962891
 21
    1888.339966
  0
LINE
  8
SICHTBARE_KANTE
 10
    2270.213623
 20
    1883.614868
 11
    2238.798096
 21
    1885.345093
  0
LINE
  8
SICHTBARE_KANTE
 10
    2235.633545
 20
    1862.348999
 11
    2235.633545
 21
    1882.348999
  0
LINE
  8
SICHTBARE_KANTE
 10
    2238.633545
 20
    1859.348999
 11
    2247.633545
 21
    1859.348999
  0
LINE
  8
SICHTBARE_KANTE
 10
    3132.633545
 20
    1862.348999
 11
    3132.633545
 21
    1882.348999
  0
CIRCLE
  8
SICHTBARE_KANTE
 10
     982.633545
 20
     688.348999
 40
      26.000000
  0
POLYLINE
  8
SICHTBARE_KANTE
 66
     1
 10
       0.000000
 20
       0.000000
 30
       0.000000
  0
VERTEX
  8
SICHTBARE_KANTE
 10
     317.851135
 20
    1564.754028
 30
       0.000000
  0
VERTEX
  8
SICHTBARE_KANTE
 10
     324.480652
 20
    1553.806763
 30
       0.000000
  0
VERTEX
  8
SICHTBARE_KANTE
 10
     331.348206
 20
    1543.007935
 30
       0.000000
  0
VERTEX
  8
SICHTBARE_KANTE
 10
     338.690002
 20
    1532.539185
 30
       0.000000
  0
VERTEX
  8
SICHTBARE_KANTE
 10
     344.815918
 20
    1524.907104
 30
       0.000000
  0
VERTEX
  8
SICHTBARE_KANTE
 10
     351.556946
 20
    1517.751587
 30
       0.000000
  0
VERTEX
  8
SICHTBARE_KANTE
 10
     358.935669
 20
    1511.307007
 30
       0.000000
  0
VERTEX
  8
SICHTBARE_KANTE
 10
     366.974487
 20
    1505.806763
 30
       0.000000
  0
VERTEX
  8
SICHTBARE_KANTE
 10
     374.478577
 20
    1501.938843
 30
       0.000000
  0
VERTEX
  8
SICHTBARE_KANTE
 10
     382.392395
 20
    1498.877075
 30
       0.000000
  0
VERTEX
  8
SICHTBARE_KANTE
 10
     390.576294
 20
    1496.577515
 30
       0.000000
  0
VERTEX
  8
SICHTBARE_KANTE
 10
     398.890686
 20
    1494.996216
 30
       0.000000
  0
VERTEX
  8
SICHTBARE_KANTE
 10
     407.240051
 20
    1494.045532
 30
       0.000000
  0
VERTEX
  8
SICHTBARE_KANTE
 10
     415.633545
 20
    1493.601440
 30
       0.000000
  0
SEQEND
  8
SICHTBARE_KANTE
  0
POLYLINE
  8
SICHTBARE_KANTE
 66
     1
 10
       0.000000
 20
       0.000000
 30
       0.000000
  0
VERTEX
  8
SICHTBARE_KANTE
 10
    2726.515381
 20
    1476.920044
 30
       0.000000
  0
VERTEX
  8
SICHTBARE_KANTE
 10
    2756.989502
 20
    1477.819702
 30
       0.000000
  0
VERTEX
  8
SICHTBARE_KANTE
 10
    2787.453369
 20
    1479.183228
 30
       0.000000
  0
VERTEX
  8
SICHTBARE_KANTE
 10
    2823.272217
 20
    1481.381470
 30
       0.000000
  0
VERTEX
  8
SICHTBARE_KANTE
 10
    2859.046387
 20
    1484.220581
 30
       0.000000
  0
VERTEX
  8
SICHTBARE_KANTE
 10
    2894.809814
 20
    1487.705200
 30
       0.000000
  0
VERTEX
  8
SICHTBARE_KANTE
 10
    2930.504639
 20
    1491.830444
 30
       0.000000
  0
SEQEND
  8
SICHTBARE_KANTE
  0
POLYLINE
  8
SICHTBARE_KANTE
 66
     1
 10
       0.000000
 20
       0.000000
 30
       0.000000
  0
VERTEX
  8
SICHTBARE_KANTE
 10
    2726.449707
 20
    1479.919312
 30
       0.000000
  0
VERTEX
  8
SICHTBARE_KANTE
 10
    2756.878174
 20
    1480.817505
 30
       0.000000
  0
VERTEX
  8
SICHTBARE_KANTE
 10
    2787.296143
 20
    1482.179077
 30
       0.000000
  0
VERTEX
  8
SICHTBARE_KANTE
 10
    2823.061768
 20
    1484.373901
 30
       0.000000
  0
VERTEX
  8
SICHTBARE_KANTE
 10
    2858.782227
 20
    1487.209106
 30
       0.000000
  0
VERTEX
  8
SICHTBARE_KANTE
 10
    2894.491943
 20
    1490.688354
 30
       0.000000
  0
VERTEX
  8
SICHTBARE_KANTE
 10
    2930.133545
 20
    1494.807495
 30
       0.000000
  0
SEQEND
  8
SICHTBARE_KANTE
  0
POLYLINE
  8
SICHTBARE_KANTE
 66
     1
 10
       0.000000
 20
       0.000000
 30
       0.000000
  0
VERTEX
  8
SICHTBARE_KANTE
 10
    2369.137451
 20
    1564.754028
 30
       0.000000
  0
VERTEX
  8
SICHTBARE_KANTE
 10
    2372.411377
 20
    1552.713501
 30
       0.000000
  0
VERTEX
  8
SICHTBARE_KANTE
 10
    2376.198242
 20
    1540.830933
 30
       0.000000
  0
VERTEX
  8
SICHTBARE_KANTE
 10
    2379.261230
 20
    1532.998169
 30
       0.000000
  0
VERTEX
  8
SICHTBARE_KANTE
 10
    2382.964355
 20
    1525.438843
 30
       0.000000
  0
VERTEX
  8
SICHTBARE_KANTE
 10
    2387.485596
 20
    1518.383179
 30
       0.000000
  0
VERTEX
  8
SICHTBARE_KANTE
 10
    2391.370117
 20
    1513.732300
 30
       0.000000
  0
VERTEX
  8
SICHTBARE_KANTE
 10
    2395.778564
 20
    1509.545532
 30
       0.000000
  0
VERTEX
  8
SICHTBARE_KANTE
 10
    2400.633057
 20
    1505.922974
 30
       0.000000
  0
VERTEX
  8
SICHTBARE_KANTE
 10
    2405.853271
 20
    1502.911743
 30
       0.000000
  0
VERTEX
  8
SICHTBARE_KANTE
 10
    2411.370361
 20
    1500.440552
 30
       0.000000
  0
VERTEX
  8
SICHTBARE_KANTE
 10
    2417.074219
 20
    1498.465698
 30
       0.000000
  0
VERTEX
  8
SICHTBARE_KANTE
 10
    2426.022705
 20
    1496.251587
 30
       0.000000
  0
VERTEX
  8
SICHTBARE_KANTE
 10
    2435.133545
 20
    1494.807495
 30
       0.000000
  0
SEQEND
  8
SICHTBARE_KANTE
  0
POLYLINE
  8
SICHTBARE_KANTE
 66
     1
 10
       0.000000
 20
       0.000000
 30
       0.000000
  0
VERTEX
  8
SICHTBARE_KANTE
 10
     315.279968
 20
    1563.208130
 30
       0.000000
  0
VERTEX
  8
SICHTBARE_KANTE
 10
     321.647949
 20
    1552.691284
 30
       0.000000
  0
VERTEX
  8
SICHTBARE_KANTE
 10
     328.224365
 20
    1542.303833
 30
       0.000000
  0
VERTEX
  8
SICHTBARE_KANTE
 10
     335.210876
 20
    1532.197876
 30
       0.000000
  0
VERTEX
  8
SICHTBARE_KANTE
 10
     340.958618
 20
    1524.813110
 30
       0.000000
  0
VERTEX
  8
SICHTBARE_KANTE
 10
     347.222107
 20
    1517.816772
 30
       0.000000
  0
VERTEX
  8
SICHTBARE_KANTE
 10
     354.041199
 20
    1511.398315
 30
       0.000000
  0
VERTEX
  8
SICHTBARE_KANTE
 10
     361.455566
 20
    1505.746460
 30
       0.000000
  0
VERTEX
  8
SICHTBARE_KANTE
 10
     369.965454
 20
    1500.774292
 30
       0.000000
  0
VERTEX
  8
SICHTBARE_KANTE
 10
     379.048889
 20
    1496.847290
 30
       0.000000
  0
VERTEX
  8
SICHTBARE_KANTE
 10
     388.487976
 20
    1493.972778
 30
       0.000000
  0
VERTEX
  8
SICHTBARE_KANTE
 10
     397.409668
 20
    1492.187378
 30
       0.000000
  0
VERTEX
  8
SICHTBARE_KANTE
 10
     406.460144
 20
    1491.099731
 30
       0.000000
  0
VERTEX
  8
SICHTBARE_KANTE
 10
     415.554993
 20
    1490.602417
 30
       0.000000
  0
SEQEND
  8
SICHTBARE_KANTE
  0
POLYLINE
  8
SICHTBARE_KANTE
 66
     1
 10
       0.000000
 20
       0.000000
 30
       0.000000
  0
VERTEX
  8
SICHTBARE_KANTE
 10
    1649.987183
 20
    1563.208130
 30
       0.000000
  0
VERTEX
  8
SICHTBARE_KANTE
 10
    1643.619141
 20
    1552.691284
 30
       0.000000
  0
VERTEX
  8
SICHTBARE_KANTE
 10
    1637.042725
 20
    1542.303833
 30
       0.000000
  0
VERTEX
  8
SICHTBARE_KANTE
 10
    1630.056152
 20
    1532.197876
 30
       0.000000
  0
VERTEX
  8
SICHTBARE_KANTE
 10
    1624.308472
 20
    1524.813110
 30
       0.000000
  0
VERTEX
  8
SICHTBARE_KANTE
 10
    1618.044922
 20
    1517.816772
 30
       0.000000
  0
VERTEX
  8
SICHTBARE_KANTE
 10
    1611.225830
 20
    1511.398315
 30
       0.000000
  0
VERTEX
  8
SICHTBARE_KANTE
 10
    1603.811523
 20
    1505.746460
 30
       0.000000
  0
VERTEX
  8
SICHTBARE_KANTE
 10
    1595.301636
 20
    1500.774292
 30
       0.000000
  0
VERTEX
  8
SICHTBARE_KANTE
 10
    1586.218262
 20
    1496.847290
 30
       0.000000
  0
VERTEX
  8
SICHTBARE_KANTE
 10
    1576.779175
 20
    1493.972778
 30
       0.000000
  0
VERTEX
  8
SICHTBARE_KANTE
 10
    1567.857422
 20
    1492.187378
 30
       0.000000
  0
VERTEX
  8
SICHTBARE_KANTE
 10
    1558.806885
 20
    1491.099731
 30
       0.000000
  0
VERTEX
  8
SICHTBARE_KANTE
 10
    1549.712158
 20
    1490.602417
 30
       0.000000
  0
SEQEND
  8
SICHTBARE_KANTE
  0
POLYLINE
  8
SICHTBARE_KANTE
 66
     1
 10
       0.000000
 20
       0.000000
 30
       0.000000
  0
VERTEX
  8
SICHTBARE_KANTE
 10
    1647.416016
 20
    1564.754028
 30
       0.000000
  0
VERTEX
  8
SICHTBARE_KANTE
 10
    1640.786377
 20
    1553.806763
 30
       0.000000
  0
VERTEX
  8
SICHTBARE_KANTE
 10
    1633.918945
 20
    1543.007935
 30
       0.000000
  0
VERTEX
  8
SICHTBARE_KANTE
 10
    1626.577148
 20
    1532.539185
 30
       0.000000
  0
VERTEX
  8
SICHTBARE_KANTE
 10
    1620.451172
 20
    1524.907104
 30
       0.000000
  0
VERTEX
  8
SICHTBARE_KANTE
 10
    1613.710205
 20
    1517.751587
 30
       0.000000
  0
VERTEX
  8
SICHTBARE_KANTE
 10
    1606.331421
 20
    1511.307007
 30
       0.000000
  0
VERTEX
  8
SICHTBARE_KANTE
 10
    1598.292603
 20
    1505.806763
 30
       0.000000
  0
VERTEX
  8
SICHTBARE_KANTE
 10
    1590.788574
 20
    1501.938843
 30
       0.000000
  0
VERTEX
  8
SICHTBARE_KANTE
 10
    1582.874756
 20
    1498.877075
 30
       0.000000
  0
VERTEX
  8
SICHTBARE_KANTE
 10
    1574.690796
 20
    1496.577515
 30
       0.000000
  0
VERTEX
  8
SICHTBARE_KANTE
 10
    1566.376465
 20
    1494.996216
 30
       0.000000
  0
VERTEX
  8
SICHTBARE_KANTE
 10
    1558.027100
 20
    1494.045532
 30
       0.000000
  0
VERTEX
  8
SICHTBARE_KANTE
 10
    1549.633545
 20
    1493.601440
 30
       0.000000
  0
SEQEND
  8
SICHTBARE_KANTE
  0
POLYLINE
  8
SICHTBARE_KANTE
 66
     1
 10
       0.000000
 20
       0.000000
 30
       0.000000
  0
VERTEX
  8
SICHTBARE_KANTE
 10
     165.512268
 20
     359.330444
 30
       0.000000
  0
VERTEX
  8
SICHTBARE_KANTE
 10
     163.171143
 20
     490.841187
 30
       0.000000
  0
VERTEX
  8
SICHTBARE_KANTE
 10
     161.998413
 20
     622.493530
 30
       0.000000
  0
VERTEX
  8
SICHTBARE_KANTE
 10
     161.998352
 20
     754.196655
 30
       0.000000
  0
VERTEX
  8
SICHTBARE_KANTE
 10
     163.171143
 20
     885.852417
 30
       0.000000
  0
VERTEX
  8
SICHTBARE_KANTE
 10
     165.512268
 20
    1017.367554
 30
       0.000000
  0
SEQEND
  8
SICHTBARE_KANTE
  0
POLYLINE
  8
SICHTBARE_KANTE
 66
     1
 10
       0.000000
 20
       0.000000
 30
       0.000000
  0
VERTEX
  8
SICHTBARE_KANTE
 10
     200.542847
 20
    1069.348999
 30
       0.000000
  0
VERTEX
  8
SICHTBARE_KANTE
 10
     195.707947
 20
    1069.064331
 30
       0.000000
  0
VERTEX
  8
SICHTBARE_KANTE
 10
     191.057861
 20
    1068.233276
 30
       0.000000
  0
VERTEX
  8
SICHTBARE_KANTE
 10
     186.760986
 20
    1066.808960
 30
       0.000000
  0
VERTEX
  8
SICHTBARE_KANTE
 10
     182.938965
 20
    1064.821655
 30
       0.000000
  0
VERTEX
  8
SICHTBARE_KANTE
 10
     179.621338
 20
    1062.348022
 30
       0.000000
  0
VERTEX
  8
SICHTBARE_KANTE
 10
     176.777100
 20
    1059.467163
 30
       0.000000
  0
VERTEX
  8
SICHTBARE_KANTE
 10
     174.359558
 20
    1056.248901
 30
       0.000000
  0
VERTEX
  8
SICHTBARE_KANTE
 10
     172.318481
 20
    1052.742554
 30
       0.000000
  0
VERTEX
  8
SICHTBARE_KANTE
 10
     170.112061
 20
    1047.679077
 30
       0.000000
  0
VERTEX
  8
SICHTBARE_KANTE
 10
     168.422729
 20
    1042.229370
 30
       0.000000
  0
VERTEX
  8
SICHTBARE_KANTE
 10
     167.181396
 20
    1036.431519
 30
       0.000000
  0
VERTEX
  8
SICHTBARE_KANTE
 10
     166.505554
 20
    1031.874390
 30
       0.000000
  0
VERTEX
  8
SICHTBARE_KANTE
 10
     166.017944
 20
    1027.154663
 30
       0.000000
  0
VERTEX
  8
SICHTBARE_KANTE
 10
     165.692810
 20
    1022.300659
 30
       0.000000
  0
VERTEX
  8
SICHTBARE_KANTE
 10
     165.512329
 20
    1017.367554
 30
       0.000000
  0
SEQEND
  8
SICHTBARE_KANTE
  0
POLYLINE
  8
SICHTBARE_KANTE
 66
     1
 10
       0.000000
 20
       0.000000
 30
       0.000000
  0
VERTEX
  8
SICHTBARE_KANTE
 10
     200.542786
 20
    1069.348999
 30
       0.000000
  0
VERTEX
  8
SICHTBARE_KANTE
 10
     425.058533
 20
    1071.027222
 30
       0.000000
  0
VERTEX
  8
SICHTBARE_KANTE
 10
     649.588379
 20
    1072.143433
 30
       0.000000
  0
VERTEX
  8
SICHTBARE_KANTE
 10
     874.133545
 20
    1072.696655
 30
       0.000000
  0
SEQEND
  8
SICHTBARE_KANTE
  0
POLYLINE
  8
SICHTBARE_KANTE
 66
     1
 10
       0.000000
 20
       0.000000
 30
       0.000000
  0
VERTEX
  8
SICHTBARE_KANTE
 10
    1091.133545
 20
    1072.696655
 30
       0.000000
  0
VERTEX
  8
SICHTBARE_KANTE
 10
    1427.949707
 20
    1071.655640
 30
       0.000000
  0
VERTEX
  8
SICHTBARE_KANTE
 10
    1764.724243
 20
    1069.348999
 30
       0.000000
  0
SEQEND
  8
SICHTBARE_KANTE
  0
POLYLINE
  8
SICHTBARE_KANTE
 66
     1
 10
       0.000000
 20
       0.000000
 30
       0.000000
  0
VERTEX
  8
SICHTBARE_KANTE
 10
    2638.751709
 20
    1476.920044
 30
       0.000000
  0
VERTEX
  8
SICHTBARE_KANTE
 10
    2608.277588
 20
    1477.819702
 30
       0.000000
  0
VERTEX
  8
SICHTBARE_KANTE
 10
    2577.813721
 20
    1479.183228
 30
       0.000000
  0
VERTEX
  8
SICHTBARE_KANTE
 10
    2541.994873
 20
    1481.381470
 30
       0.000000
  0
VERTEX
  8
SICHTBARE_KANTE
 10
    2506.220703
 20
    1484.220581
 30
       0.000000
  0
VERTEX
  8
SICHTBARE_KANTE
 10
    2470.457275
 20
    1487.705200
 30
       0.000000
  0
VERTEX
  8
SICHTBARE_KANTE
 10
    2434.762451
 20
    1491.830444
 30
       0.000000
  0
SEQEND
  8
SICHTBARE_KANTE
  0
POLYLINE
  8
SICHTBARE_KANTE
 66
     1
 10
       0.000000
 20
       0.000000
 30
       0.000000
  0
VERTEX
  8
SICHTBARE_KANTE
 10
    2638.817383
 20
    1479.919312
 30
       0.000000
  0
VERTEX
  8
SICHTBARE_KANTE
 10
    2608.388916
 20
    1480.817505
 30
       0.000000
  0
VERTEX
  8
SICHTBARE_KANTE
 10
    2577.970947
 20
    1482.179077
 30
       0.000000
  0
VERTEX
  8
SICHTBARE_KANTE
 10
    2542.205322
 20
    1484.373901
 30
       0.000000
  0
VERTEX
  8
SICHTBARE_KANTE
 10
    2506.484863
 20
    1487.209106
 30
       0.000000
  0
VERTEX
  8
SICHTBARE_KANTE
 10
    2470.775146
 20
    1490.688354
 30
       0.000000
  0
VERTEX
  8
SICHTBARE_KANTE
 10
    2435.133545
 20
    1494.807495
 30
       0.000000
  0
SEQEND
  8
SICHTBARE_KANTE
  0
POLYLINE
  8
SICHTBARE_KANTE
 66
     1
 10
       0.000000
 20
       0.000000
 30
       0.000000
  0
VERTEX
  8
SICHTBARE_KANTE
 10
    1799.754639
 20
    1017.367554
 30
       0.000000
  0
VERTEX
  8
SICHTBARE_KANTE
 10
    1799.574097
 20
    1022.300659
 30
       0.000000
  0
VERTEX
  8
SICHTBARE_KANTE
 10
    1799.249146
 20
    1027.154663
 30
       0.000000
  0
VERTEX
  8
SICHTBARE_KANTE
 10
    1798.761475
 20
    1031.874878
 30
       0.000000
  0
VERTEX
  8
SICHTBARE_KANTE
 10
    1798.085571
 20
    1036.432007
 30
       0.000000
  0
VERTEX
  8
SICHTBARE_KANTE
 10
    1796.844116
 20
    1042.229858
 30
       0.000000
  0
VERTEX
  8
SICHTBARE_KANTE
 10
    1795.154663
 20
    1047.679565
 30
       0.000000
  0
VERTEX
  8
SICHTBARE_KANTE
 10
    1792.947998
 20
    1052.742554
 30
       0.000000
  0
VERTEX
  8
SICHTBARE_KANTE
 10
    1790.906982
 20
    1056.249390
 30
       0.000000
  0
VERTEX
  8
SICHTBARE_KANTE
 10
    1788.489502
 20
    1059.467163
 30
       0.000000
  0
VERTEX
  8
SICHTBARE_KANTE
 10
    1785.645386
 20
    1062.348022
 30
       0.000000
  0
VERTEX
  8
SICHTBARE_KANTE
 10
    1782.327881
 20
    1064.821655
 30
       0.000000
  0
VERTEX
  8
SICHTBARE_KANTE
 10
    1778.505981
 20
    1066.808960
 30
       0.000000
  0
VERTEX
  8
SICHTBARE_KANTE
 10
    1774.209351
 20
    1068.233276
 30
       0.000000
  0
VERTEX
  8
SICHTBARE_KANTE
 10
    1769.559326
 20
    1069.064331
 30
       0.000000
  0
VERTEX
  8
SICHTBARE_KANTE
 10
    1764.724121
 20
    1069.348999
 30
       0.000000
  0
SEQEND
  8
SICHTBARE_KANTE
  0
POLYLINE
  8
SICHTBARE_KANTE
 66
     1
 10
       0.000000
 20
       0.000000
 30
       0.000000
  0
VERTEX
  8
SICHTBARE_KANTE
 10
    1799.754761
 20
     359.330444
 30
       0.000000
  0
VERTEX
  8
SICHTBARE_KANTE
 10
    1802.095825
 20
     490.841187
 30
       0.000000
  0
VERTEX
  8
SICHTBARE_KANTE
 10
    1803.268677
 20
     622.493530
 30
       0.000000
  0
VERTEX
  8
SICHTBARE_KANTE
 10
    1803.268677
 20
     754.196655
 30
       0.000000
  0
VERTEX
  8
SICHTBARE_KANTE
 10
    1802.095825
 20
     885.852417
 30
       0.000000
  0
VERTEX
  8
SICHTBARE_KANTE
 10
    1799.754761
 20
    1017.367554
 30
       0.000000
  0
SEQEND
  8
SICHTBARE_KANTE
  0
POLYLINE
  8
SICHTBARE_KANTE
 66
     1
 10
       0.000000
 20
       0.000000
 30
       0.000000
  0
VERTEX
  8
SICHTBARE_KANTE
 10
    1764.724121
 20
     307.348999
 30
       0.000000
  0
VERTEX
  8
SICHTBARE_KANTE
 10
    1769.559326
 20
     307.633667
 30
       0.000000
  0
VERTEX
  8
SICHTBARE_KANTE
 10
    1774.209351
 20
     308.464722
 30
       0.000000
  0
VERTEX
  8
SICHTBARE_KANTE
 10
    1778.505981
 20
     309.889038
 30
       0.000000
  0
VERTEX
  8
SICHTBARE_KANTE
 10
    1782.327881
 20
     311.876343
 30
       0.000000
  0
VERTEX
  8
SICHTBARE_KANTE
 10
    1785.645386
 20
     314.349976
 30
       0.000000
  0
VERTEX
  8
SICHTBARE_KANTE
 10
    1788.489502
 20
     317.230347
 30
       0.000000
  0
VERTEX
  8
SICHTBARE_KANTE
 10
    1790.906982
 20
     320.448608
 30
       0.000000
  0
VERTEX
  8
SICHTBARE_KANTE
 10
    1792.947998
 20
     323.954956
 30
       0.000000
  0
VERTEX
  8
SICHTBARE_KANTE
 10
    1795.154663
 20
     329.018433
 30
       0.000000
  0
VERTEX
  8
SICHTBARE_KANTE
 10
    1796.844116
 20
     334.468140
 30
       0.000000
  0
VERTEX
  8
SICHTBARE_KANTE
 10
    1798.085571
 20
     340.265991
 30
       0.000000
  0
VERTEX
  8
SICHTBARE_KANTE
 10
    1798.761475
 20
     344.823120
 30
       0.000000
  0
VERTEX
  8
SICHTBARE_KANTE
 10
    1799.249146
 20
     349.542847
 30
       0.000000
  0
VERTEX
  8
SICHTBARE_KANTE
 10
    1799.574097
 20
     354.396851
 30
       0.000000
  0
VERTEX
  8
SICHTBARE_KANTE
 10
    1799.754639
 20
     359.330444
 30
       0.000000
  0
SEQEND
  8
SICHTBARE_KANTE
  0
POLYLINE
  8
SICHTBARE_KANTE
 66
     1
 10
       0.000000
 20
       0.000000
 30
       0.000000
  0
VERTEX
  8
SICHTBARE_KANTE
 10
     982.633545
 20
     303.935913
 30
       0.000000
  0
VERTEX
  8
SICHTBARE_KANTE
 10
    1243.380371
 20
     304.315308
 30
       0.000000
  0
VERTEX
  8
SICHTBARE_KANTE
 10
    1504.066406
 20
     305.453003
 30
       0.000000
  0
VERTEX
  8
SICHTBARE_KANTE
 10
    1764.724243
 20
     307.348999
 30
       0.000000
  0
SEQEND
  8
SICHTBARE_KANTE
  0
POLYLINE
  8
SICHTBARE_KANTE
 66
     1
 10
       0.000000
 20
       0.000000
 30
       0.000000
  0
VERTEX
  8
SICHTBARE_KANTE
 10
     200.542786
 20
     307.348999
 30
       0.000000
  0
VERTEX
  8
SICHTBARE_KANTE
 10
     461.221802
 20
     305.453003
 30
       0.000000
  0
VERTEX
  8
SICHTBARE_KANTE
 10
     721.925415
 20
     304.314819
 30
       0.000000
  0
VERTEX
  8
SICHTBARE_KANTE
 10
     982.633545
 20
     303.935913
 30
       0.000000
  0
SEQEND
  8
SICHTBARE_KANTE
  0
POLYLINE
  8
SICHTBARE_KANTE
 66
     1
 10
       0.000000
 20
       0.000000
 30
       0.000000
  0
VERTEX
  8
SICHTBARE_KANTE
 10
     165.512329
 20
     359.330444
 30
       0.000000
  0
VERTEX
  8
SICHTBARE_KANTE
 10
     165.687866
 20
     354.494995
 30
       0.000000
  0
VERTEX
  8
SICHTBARE_KANTE
 10
     166.004456
 20
     349.704468
 30
       0.000000
  0
VERTEX
  8
SICHTBARE_KANTE
 10
     166.482178
 20
     345.013062
 30
       0.000000
  0
VERTEX
  8
SICHTBARE_KANTE
 10
     167.150024
 20
     340.447632
 30
       0.000000
  0
VERTEX
  8
SICHTBARE_KANTE
 10
     168.387024
 20
     334.607300
 30
       0.000000
  0
VERTEX
  8
SICHTBARE_KANTE
 10
     170.082520
 20
     329.099487
 30
       0.000000
  0
VERTEX
  8
SICHTBARE_KANTE
 10
     172.307007
 20
     323.977905
 30
       0.000000
  0
VERTEX
  8
SICHTBARE_KANTE
 10
     174.367859
 20
     320.436401
 30
       0.000000
  0
VERTEX
  8
SICHTBARE_KANTE
 10
     176.807129
 20
     317.195679
 30
       0.000000
  0
VERTEX
  8
SICHTBARE_KANTE
 10
     179.669312
 20
     314.307983
 30
       0.000000
  0
VERTEX
  8
SICHTBARE_KANTE
 10
     182.992126
 20
     311.842651
 30
       0.000000
  0
VERTEX
  8
SICHTBARE_KANTE
 10
     186.800598
 20
     309.872437
 30
       0.000000
  0
VERTEX
  8
SICHTBARE_KANTE
 10
     191.069031
 20
     308.461792
 30
       0.000000
  0
VERTEX
  8
SICHTBARE_KANTE
 10
     195.697449
 20
     307.634644
 30
       0.000000
  0
VERTEX
  8
SICHTBARE_KANTE
 10
     200.542847
 20
     307.348999
 30
       0.000000
  0
SEQEND
  8
SICHTBARE_KANTE
  0
POLYLINE
  8
SICHTBARE_KANTE
 66
     1
 10
       0.000000
 20
       0.000000
 30
       0.000000
  0
VERTEX
  8
SICHTBARE_KANTE
 10
     874.133545
 20
    1072.696655
 30
       0.000000
  0
VERTEX
  8
SICHTBARE_KANTE
 10
     982.677429
 20
    1072.762085
 30
       0.000000
  0
VERTEX
  8
SICHTBARE_KANTE
 10
    1091.133545
 20
    1072.696655
 30
       0.000000
  0
SEQEND
  8
SICHTBARE_KANTE
  0
POLYLINE
  8
SICHTBARE_KANTE
 66
     1
 10
       0.000000
 20
       0.000000
 30
       0.000000
  0
VERTEX
  8
SICHTBARE_KANTE
 10
     982.633545
 20
     306.855347
 30
       0.000000
  0
VERTEX
  8
SICHTBARE_KANTE
 10
     986.669800
 20
     306.922729
 30
       0.000000
  0
VERTEX
  8
SICHTBARE_KANTE
 10
     990.923767
 20
     307.145386
 30
       0.000000
  0
VERTEX
  8
SICHTBARE_KANTE
 10
     994.944031
 20
     307.515991
 30
       0.000000
  0
VERTEX
  8
SICHTBARE_KANTE
 10
     998.612427
 20
     308.027222
 30
       0.000000
  0
VERTEX
  8
SICHTBARE_KANTE
 10
    1001.830322
 20
     308.662964
 30
       0.000000
  0
VERTEX
  8
SICHTBARE_KANTE
 10
    1004.499634
 20
     309.407593
 30
       0.000000
  0
VERTEX
  8
SICHTBARE_KANTE
 10
    1006.552490
 20
     310.238159
 30
       0.000000
  0
VERTEX
  8
SICHTBARE_KANTE
 10
    1007.921509
 20
     311.134155
 30
       0.000000
  0
VERTEX
  8
SICHTBARE_KANTE
 10
    1008.577881
 20
     312.068726
 30
       0.000000
  0
VERTEX
  8
SICHTBARE_KANTE
 10
    1008.492432
 20
     313.015991
 30
       0.000000
  0
VERTEX
  8
SICHTBARE_KANTE
 10
    1007.678223
 20
     313.949585
 30
       0.000000
  0
VERTEX
  8
SICHTBARE_KANTE
 10
    1006.147949
 20
     314.841675
 30
       0.000000
  0
VERTEX
  8
SICHTBARE_KANTE
 10
    1003.954956
 20
     315.667847
 30
       0.000000
  0
VERTEX
  8
SICHTBARE_KANTE
 10
    1001.152466
 20
     316.403198
 30
       0.000000
  0
VERTEX
  8
SICHTBARE_KANTE
 10
     997.828003
 20
     317.026733
 30
       0.000000
  0
VERTEX
  8
SICHTBARE_KANTE
 10
     994.069092
 20
     317.519409
 30
       0.000000
  0
VERTEX
  8
SICHTBARE_KANTE
 10
     989.987854
 20
     317.868530
 30
       0.000000
  0
VERTEX
  8
SICHTBARE_KANTE
 10
     986.348633
 20
     318.042847
 30
       0.000000
  0
VERTEX
  8
SICHTBARE_KANTE
 10
     982.633545
 20
     318.101440
 30
       0.000000
  0
SEQEND
  8
SICHTBARE_KANTE
  0
POLYLINE
  8
SICHTBARE_KANTE
 66
     1
 10
       0.000000
 20
       0.000000
 30
       0.000000
  0
VERTEX
  8
SICHTBARE_KANTE
 10
     982.633545
 20
     318.101440
 30
       0.000000
  0
VERTEX
  8
SICHTBARE_KANTE
 10
     978.596436
 20
     318.032104
 30
       0.000000
  0
VERTEX
  8
SICHTBARE_KANTE
 10
     974.342468
 20
     317.803101
 30
       0.000000
  0
VERTEX
  8
SICHTBARE_KANTE
 10
     970.322266
 20
     317.421753
 30
       0.000000
  0
VERTEX
  8
SICHTBARE_KANTE
 10
     966.653992
 20
     316.897339
 30
       0.000000
  0
VERTEX
  8
SICHTBARE_KANTE
 10
     963.436157
 20
     316.247437
 30
       0.000000
  0
VERTEX
  8
SICHTBARE_KANTE
 10
     960.767029
 20
     315.489624
 30
       0.000000
  0
VERTEX
  8
SICHTBARE_KANTE
 10
     958.714294
 20
     314.646851
 30
       0.000000
  0
VERTEX
  8
SICHTBARE_KANTE
 10
     957.345337
 20
     313.742554
 30
       0.000000
  0
VERTEX
  8
SICHTBARE_KANTE
 10
     956.689209
 20
     312.804077
 30
       0.000000
  0
VERTEX
  8
SICHTBARE_KANTE
 10
     956.774658
 20
     311.857300
 30
       0.000000
  0
VERTEX
  8
SICHTBARE_KANTE
 10
     957.589111
 20
     310.929077
 30
       0.000000
  0
VERTEX
  8
SICHTBARE_KANTE
 10
     959.119446
 20
     310.045776
 30
       0.000000
  0
VERTEX
  8
SICHTBARE_KANTE
 10
     961.312561
 20
     309.231812
 30
       0.000000
  0
VERTEX
  8
SICHTBARE_KANTE
 10
     964.115173
 20
     308.510620
 30
       0.000000
  0
VERTEX
  8
SICHTBARE_KANTE
 10
     967.439819
 20
     307.900757
 30
       0.000000
  0
VERTEX
  8
SICHTBARE_KANTE
 10
     971.198730
 20
     307.420776
 30
       0.000000
  0
VERTEX
  8
SICHTBARE_KANTE
 10
     975.280029
 20
     307.081421
 30
       0.000000
  0
VERTEX
  8
SICHTBARE_KANTE
 10
     978.918884
 20
     306.912476
 30
       0.000000
  0
VERTEX
  8
SICHTBARE_KANTE
 10
     982.633545
 20
     306.855347
 30
       0.000000
  0
SEQEND
  8
SICHTBARE_KANTE
  0
POLYLINE
  8
SICHTBARE_KANTE
 66
     1
 10
       0.000000
 20
       0.000000
 30
       0.000000
  0
VERTEX
  8
SICHTBARE_KANTE
 10
    1007.686890
 20
     310.980347
 30
       0.000000
  0
VERTEX
  8
SICHTBARE_KANTE
 10
    1007.584229
 20
     311.089722
 30
       0.000000
  0
VERTEX
  8
SICHTBARE_KANTE
 10
    1006.006348
 20
     311.978394
 30
       0.000000
  0
VERTEX
  8
SICHTBARE_KANTE
 10
    1003.760498
 20
     312.798218
 30
       0.000000
  0
VERTEX
  8
SICHTBARE_KANTE
 10
    1000.919067
 20
     313.526245
 30
       0.000000
  0
VERTEX
  8
SICHTBARE_KANTE
 10
     997.554932
 20
     314.139526
 30
       0.000000
  0
VERTEX
  8
SICHTBARE_KANTE
 10
     993.770142
 20
     314.622925
 30
       0.000000
  0
VERTEX
  8
SICHTBARE_KANTE
 10
     989.667053
 20
     314.959351
 30
       0.000000
  0
VERTEX
  8
SICHTBARE_KANTE
 10
     985.365662
 20
     315.140991
 30
       0.000000
  0
VERTEX
  8
SICHTBARE_KANTE
 10
     980.986206
 20
     315.160522
 30
       0.000000
  0
VERTEX
  8
SICHTBARE_KANTE
 10
     976.653198
 20
     315.019409
 30
       0.000000
  0
VERTEX
  8
SICHTBARE_KANTE
 10
     972.491150
 20
     314.720093
 30
       0.000000
  0
VERTEX
  8
SICHTBARE_KANTE
 10
     968.614990
 20
     314.272827
 30
       0.000000
  0
VERTEX
  8
SICHTBARE_KANTE
 10
     965.139526
 20
     313.689331
 30
       0.000000
  0
VERTEX
  8
SICHTBARE_KANTE
 10
     962.157227
 20
     312.988647
 30
       0.000000
  0
VERTEX
  8
SICHTBARE_KANTE
 10
     959.760254
 20
     312.188843
 30
       0.000000
  0
VERTEX
  8
SICHTBARE_KANTE
 10
     958.007996
 20
     311.315796
 30
       0.000000
  0
VERTEX
  8
SICHTBARE_KANTE
 10
     957.580261
 20
     310.938843
 30
       0.000000
  0
SEQEND
  8
SICHTBARE_KANTE
  0
POLYLINE
  8
SICHTBARE_KANTE
 66
     1
 10
       0.000000
 20
       0.000000
 30
       0.000000
  0
VERTEX
  8
SICHTBARE_KANTE
 10
    2366.234619
 20
    1563.997192
 30
       0.000000
  0
VERTEX
  8
SICHTBARE_KANTE
 10
    2368.658936
 20
    1554.839722
 30
       0.000000
  0
VERTEX
  8
SICHTBARE_KANTE
 10
    2371.317627
 20
    1545.702271
 30
       0.000000
  0
VERTEX
  8
SICHTBARE_KANTE
 10
    2374.420166
 20
    1536.732788
 30
       0.000000
  0
VERTEX
  8
SICHTBARE_KANTE
 10
    2378.176514
 20
    1528.078735
 30
       0.000000
  0
VERTEX
  8
SICHTBARE_KANTE
 10
    2382.795898
 20
    1519.887573
 30
       0.000000
  0
VERTEX
  8
SICHTBARE_KANTE
 10
    2386.480713
 20
    1514.795532
 30
       0.000000
  0
VERTEX
  8
SICHTBARE_KANTE
 10
    2390.700928
 20
    1510.114868
 30
       0.000000
  0
VERTEX
  8
SICHTBARE_KANTE
 10
    2395.413574
 20
    1505.965698
 30
       0.000000
  0
VERTEX
  8
SICHTBARE_KANTE
 10
    2400.589111
 20
    1502.413208
 30
       0.000000
  0
VERTEX
  8
SICHTBARE_KANTE
 10
    2406.139648
 20
    1499.434448
 30
       0.000000
  0
VERTEX
  8
SICHTBARE_KANTE
 10
    2411.941162
 20
    1497.012817
 30
       0.000000
  0
VERTEX
  8
SICHTBARE_KANTE
 10
    2419.395264
 20
    1494.692261
 30
       0.000000
  0
VERTEX
  8
SICHTBARE_KANTE
 10
    2427.035889
 20
    1493.003052
 30
       0.000000
  0
VERTEX
  8
SICHTBARE_KANTE
 10
    2434.766846
 20
    1491.829956
 30
       0.000000
  0
SEQEND
  8
SICHTBARE_KANTE
  0
POLYLINE
  8
SICHTBARE_KANTE
 66
     1
 10
       0.000000
 20
       0.000000
 30
       0.000000
  0
VERTEX
  8
SICHTBARE_KANTE
 10
    2999.032471
 20
    1563.997192
 30
       0.000000
  0
VERTEX
  8
SICHTBARE_KANTE
 10
    2996.608154
 20
    1554.839722
 30
       0.000000
  0
VERTEX
  8
SICHTBARE_KANTE
 10
    2993.949463
 20
    1545.702271
 30
       0.000000
  0
VERTEX
  8
SICHTBARE_KANTE
 10
    2990.846924
 20
    1536.732788
 30
       0.000000
  0
VERTEX
  8
SICHTBARE_KANTE
 10
    2987.090576
 20
    1528.078735
 30
       0.000000
  0
VERTEX
  8
SICHTBARE_KANTE
 10
    2982.471436
 20
    1519.887573
 30
       0.000000
  0
VERTEX
  8
SICHTBARE_KANTE
 10
    2978.786377
 20
    1514.795532
 30
       0.000000
  0
VERTEX
  8
SICHTBARE_KANTE
 10
    2974.566162
 20
    1510.114868
 30
       0.000000
  0
VERTEX
  8
SICHTBARE_KANTE
 10
    2969.853516
 20
    1505.965698
 30
       0.000000
  0
VERTEX
  8
SICHTBARE_KANTE
 10
    2964.677979
 20
    1502.413208
 30
       0.000000
  0
VERTEX
  8
SICHTBARE_KANTE
 10
    2959.127441
 20
    1499.434448
 30
       0.000000
  0
VERTEX
  8
SICHTBARE_KANTE
 10
    2953.325928
 20
    1497.012817
 30
       0.000000
  0
VERTEX
  8
SICHTBARE_KANTE
 10
    2945.871826
 20
    1494.692261
 30
       0.000000
  0
VERTEX
  8
SICHTBARE_KANTE
 10
    2938.231201
 20
    1493.003052
 30
       0.000000
  0
VERTEX
  8
SICHTBARE_KANTE
 10
    2930.500244
 20
    1491.829956
 30
       0.000000
  0
SEQEND
  8
SICHTBARE_KANTE
  0
POLYLINE
  8
SICHTBARE_KANTE
 66
     1
 10
       0.000000
 20
       0.000000
 30
       0.000000
  0
VERTEX
  8
SICHTBARE_KANTE
 10
    2996.129639
 20
    1564.754028
 30
       0.000000
  0
VERTEX
  8
SICHTBARE_KANTE
 10
    2992.855713
 20
    1552.713501
 30
       0.000000
  0
VERTEX
  8
SICHTBARE_KANTE
 10
    2989.069092
 20
    1540.830933
 30
       0.000000
  0
VERTEX
  8
SICHTBARE_KANTE
 10
    2986.006104
 20
    1532.998169
 30
       0.000000
  0
VERTEX
  8
SICHTBARE_KANTE
 10
    2982.302979
 20
    1525.438843
 30
       0.000000
  0
VERTEX
  8
SICHTBARE_KANTE
 10
    2977.781494
 20
    1518.383179
 30
       0.000000
  0
VERTEX
  8
SICHTBARE_KANTE
 10
    2973.896973
 20
    1513.732300
 30
       0.000000
  0
VERTEX
  8
SICHTBARE_KANTE
 10
    2969.488525
 20
    1509.545532
 30
       0.000000
  0
VERTEX
  8
SICHTBARE_KANTE
 10
    2964.634033
 20
    1505.922974
 30
       0.000000
  0
VERTEX
  8
SICHTBARE_KANTE
 10
    2959.413818
 20
    1502.911743
 30
       0.000000
  0
VERTEX
  8
SICHTBARE_KANTE
 10
    2953.896729
 20
    1500.440552
 30
       0.000000
  0
VERTEX
  8
SICHTBARE_KANTE
 10
    2948.192871
 20
    1498.465698
 30
       0.000000
  0
VERTEX
  8
SICHTBARE_KANTE
 10
    2939.244385
 20
    1496.251587
 30
       0.000000
  0
VERTEX
  8
SICHTBARE_KANTE
 10
    2930.133545
 20
    1494.807495
 30
       0.000000
  0
SEQEND
  8
SICHTBARE_KANTE
  0
TEXT
  8
2D-TEXT
 10
    2502.790283
 20
     915.329956
 40
     100.000008
 50
       0.000060
 51
       0.000000
 41
       0.746667
  1
PURO DUO
  7
DIN-6776
 72
     5
 11
    2945.457031
 21
     915.330444
  0
TEXT
  8
2D-TEXT
 10
    3122.635010
 20
     555.015503
 40
      66.666672
 50
       0.000054
 51
       0.000000
 41
       0.910000
  1
420
  7
DIN-6776
 72
     5
 11
    3235.301758
 21
     555.015625
  0
TEXT
  8
2D-TEXT
 10
    3115.967041
 20
     755.015015
 40
      66.666672
 50
       0.000076
 51
       0.000000
 41
       0.910000
  1
Tiefe
  7
DIN-6776
 72
     5
 11
    3282.800293
 21
     755.015259
  0
TEXT
  8
2D-TEXT
 10
    2782.634521
 20
     755.015015
 40
      66.666672
 50
       0.000065
 51
       0.000000
 41
       0.910000
  1
Breite
  7
DIN-6776
 72
     5
 11
    2981.404541
 21
     755.015259
  0
TEXT
  8
2D-TEXT
 10
    2449.300537
 20
     755.015015
 40
      66.666672
 50
       0.000054
 51
       0.000000
 41
       0.910000
  1
Laenge
  7
DIN-6776
 72
     5
 11
    2691.967285
 21
     755.015259
  0
TEXT
  8
2D-TEXT
 10
    2115.967041
 20
     755.014771
 40
      66.666672
 50
       0.000062
 51
       0.000000
 41
       0.910000
  1
Modell
  7
DIN-6776
 72
     5
 11
    2323.967041
 21
     755.015015
  0
TEXT
  8
2D-TEXT
 10
    2115.968018
 20
     555.015015
 40
      66.666672
 50
       0.000054
 51
       0.000000
 41
       0.910000
  1
665
  7
DIN-6776
 72
     5
 11
    2228.634766
 21
     555.015137
  0
TEXT
  8
2D-TEXT
 10
    2449.302002
 20
     555.015503
 40
      66.666672
 50
       0.000086
 51
       0.000000
 41
       0.910000
  1
1900
  7
DIN-6776
 72
     5
 11
    2594.468750
 21
     555.015747
  0
TEXT
  8
2D-TEXT
 10
    2789.301025
 20
     555.015503
 40
      66.666672
 50
       0.000054
 51
       0.000000
 41
       0.910000
  1
900
  7
DIN-6776
 72
     5
 11
    2901.967773
 21
     555.015625
  0
ENDSEC
  0
EOF
