  0
SECTION
  2
HEADER
  9
$ACADVER
  1
AC1018
  9
$ACADMAINTVER
 70
     0
  9
$DWGCODEPAGE
  3
ANSI_1252
  9
$INSBASE
 10
0.0
 20
0.0
 30
0.0
  9
$EXTMIN
 10
-728.1161958942333
 20
-445.5555555555561
 30
0.0
  9
$EXTMAX
 10
450.0000000000027
 20
382.559739381899
 30
0.0
  9
$LIMMIN
 10
0.0
 20
0.0
  9
$LIMMAX
 10
12.0
 20
9.0
  9
$ORTHOMODE
 70
     0
  9
$REGENMODE
 70
     1
  9
$FILLMODE
 70
     1
  9
$QTEXTMODE
 70
     0
  9
$MIRRTEXT
 70
     1
  9
$LTSCALE
 40
1.0
  9
$ATTMODE
 70
     1
  9
$TEXTSIZE
 40
0.2
  9
$TRACEWID
 40
0.05
  9
$TEXTSTYLE
  7
Standard
  9
$CLAYER
  8
0
  9
$CELTYPE
  6
ByLayer
  9
$CECOLOR
 62
   256
  9
$CELTSCALE
 40
1.0
  9
$DISPSILH
 70
     0
  9
$DIMSCALE
 40
1.0
  9
$DIMASZ
 40
0.18
  9
$DIMEXO
 40
0.0625
  9
$DIMDLI
 40
0.38
  9
$DIMRND
 40
0.0
  9
$DIMDLE
 40
0.0
  9
$DIMEXE
 40
0.18
  9
$DIMTP
 40
0.0
  9
$DIMTM
 40
0.0
  9
$DIMTXT
 40
0.18
  9
$DIMCEN
 40
0.09
  9
$DIMTSZ
 40
0.0
  9
$DIMTOL
 70
     0
  9
$DIMLIM
 70
     0
  9
$DIMTIH
 70
     1
  9
$DIMTOH
 70
     1
  9
$DIMSE1
 70
     0
  9
$DIMSE2
 70
     0
  9
$DIMTAD
 70
     0
  9
$DIMZIN
 70
     0
  9
$DIMBLK
  1

  9
$DIMASO
 70
     1
  9
$DIMSHO
 70
     1
  9
$DIMPOST
  1

  9
$DIMAPOST
  1

  9
$DIMALT
 70
     0
  9
$DIMALTD
 70
     2
  9
$DIMALTF
 40
25.4
  9
$DIMLFAC
 40
1.0
  9
$DIMTOFL
 70
     0
  9
$DIMTVP
 40
0.0
  9
$DIMTIX
 70
     0
  9
$DIMSOXD
 70
     0
  9
$DIMSAH
 70
     0
  9
$DIMBLK1
  1

  9
$DIMBLK2
  1

  9
$DIMSTYLE
  2
Standard
  9
$DIMCLRD
 70
     0
  9
$DIMCLRE
 70
     0
  9
$DIMCLRT
 70
     0
  9
$DIMTFAC
 40
1.0
  9
$DIMGAP
 40
0.09
  9
$DIMJUST
 70
     0
  9
$DIMSD1
 70
     0
  9
$DIMSD2
 70
     0
  9
$DIMTOLJ
 70
     1
  9
$DIMTZIN
 70
     0
  9
$DIMALTZ
 70
     0
  9
$DIMALTTZ
 70
     0
  9
$DIMUPT
 70
     0
  9
$DIMDEC
 70
     4
  9
$DIMTDEC
 70
     4
  9
$DIMALTU
 70
     2
  9
$DIMALTTD
 70
     2
  9
$DIMTXSTY
  7
Standard
  9
$DIMAUNIT
 70
     0
  9
$DIMADEC
 70
     0
  9
$DIMALTRND
 40
0.0
  9
$DIMAZIN
 70
     0
  9
$DIMDSEP
 70
    46
  9
$DIMATFIT
 70
     3
  9
$DIMFRAC
 70
     0
  9
$DIMLDRBLK
  1

  9
$DIMLUNIT
 70
     2
  9
$DIMLWD
 70
    -2
  9
$DIMLWE
 70
    -2
  9
$DIMTMOVE
 70
     2
  9
$LUNITS
 70
     2
  9
$LUPREC
 70
     2
  9
$SKETCHINC
 40
0.1
  9
$FILLETRAD
 40
0.5
  9
$AUNITS
 70
     0
  9
$AUPREC
 70
     0
  9
$MENU
  1
.
  9
$ELEVATION
 40
0.0
  9
$PELEVATION
 40
0.0
  9
$THICKNESS
 40
0.0
  9
$LIMCHECK
 70
     0
  9
$CHAMFERA
 40
0.5
  9
$CHAMFERB
 40
0.5
  9
$CHAMFERC
 40
1.0
  9
$CHAMFERD
 40
0.0
  9
$SKPOLY
 70
     0
  9
$TDCREATE
 40
2457079.68471993
  9
$TDUCREATE
 40
2457079.643053264
  9
$TDUPDATE
 40
2457079.684719942
  9
$TDUUPDATE
 40
2457079.643053276
  9
$TDINDWG
 40
0.0000000116
  9
$TDUSRTIMER
 40
0.0000000116
  9
$USRTIMER
 70
     1
  9
$ANGBASE
 50
0.0
  9
$ANGDIR
 70
     0
  9
$PDMODE
 70
     0
  9
$PDSIZE
 40
0.0
  9
$PLINEWID
 40
0.0
  9
$SPLFRAME
 70
     0
  9
$SPLINETYPE
 70
     6
  9
$SPLINESEGS
 70
     8
  9
$HANDSEED
  5
153
  9
$SURFTAB1
 70
     6
  9
$SURFTAB2
 70
     6
  9
$SURFTYPE
 70
     6
  9
$SURFU
 70
     6
  9
$SURFV
 70
     6
  9
$UCSBASE
  2

  9
$UCSNAME
  2

  9
$UCSORG
 10
0.0
 20
0.0
 30
0.0
  9
$UCSXDIR
 10
1.0
 20
0.0
 30
0.0
  9
$UCSYDIR
 10
0.0
 20
1.0
 30
0.0
  9
$UCSORTHOREF
  2

  9
$UCSORTHOVIEW
 70
     0
  9
$UCSORGTOP
 10
0.0
 20
0.0
 30
0.0
  9
$UCSORGBOTTOM
 10
0.0
 20
0.0
 30
0.0
  9
$UCSORGLEFT
 10
0.0
 20
0.0
 30
0.0
  9
$UCSORGRIGHT
 10
0.0
 20
0.0
 30
0.0
  9
$UCSORGFRONT
 10
0.0
 20
0.0
 30
0.0
  9
$UCSORGBACK
 10
0.0
 20
0.0
 30
0.0
  9
$PUCSBASE
  2

  9
$PUCSNAME
  2

  9
$PUCSORG
 10
0.0
 20
0.0
 30
0.0
  9
$PUCSXDIR
 10
1.0
 20
0.0
 30
0.0
  9
$PUCSYDIR
 10
0.0
 20
1.0
 30
0.0
  9
$PUCSORTHOREF
  2

  9
$PUCSORTHOVIEW
 70
     0
  9
$PUCSORGTOP
 10
0.0
 20
0.0
 30
0.0
  9
$PUCSORGBOTTOM
 10
0.0
 20
0.0
 30
0.0
  9
$PUCSORGLEFT
 10
0.0
 20
0.0
 30
0.0
  9
$PUCSORGRIGHT
 10
0.0
 20
0.0
 30
0.0
  9
$PUCSORGFRONT
 10
0.0
 20
0.0
 30
0.0
  9
$PUCSORGBACK
 10
0.0
 20
0.0
 30
0.0
  9
$USERI1
 70
     0
  9
$USERI2
 70
     0
  9
$USERI3
 70
     0
  9
$USERI4
 70
     0
  9
$USERI5
 70
     0
  9
$USERR1
 40
0.0
  9
$USERR2
 40
0.0
  9
$USERR3
 40
0.0
  9
$USERR4
 40
0.0
  9
$USERR5
 40
0.0
  9
$WORLDVIEW
 70
     1
  9
$SHADEDGE
 70
     3
  9
$SHADEDIF
 70
    70
  9
$TILEMODE
 70
     0
  9
$MAXACTVP
 70
    64
  9
$PINSBASE
 10
0.0
 20
0.0
 30
0.0
  9
$PLIMCHECK
 70
     0
  9
$PEXTMIN
 10
0.0
 20
0.0
 30
0.0
  9
$PEXTMAX
 10
0.0
 20
0.0
 30
0.0
  9
$PLIMMIN
 10
0.0
 20
0.0
  9
$PLIMMAX
 10
12.0
 20
9.0
  9
$UNITMODE
 70
     0
  9
$VISRETAIN
 70
     1
  9
$PLINEGEN
 70
     0
  9
$PSLTSCALE
 70
     1
  9
$TREEDEPTH
 70
  3020
  9
$CMLSTYLE
  2
Standard
  9
$CMLJUST
 70
     0
  9
$CMLSCALE
 40
1.0
  9
$PROXYGRAPHICS
 70
     1
  9
$MEASUREMENT
 70
     0
  9
$CELWEIGHT
370
    -1
  9
$ENDCAPS
280
     0
  9
$JOINSTYLE
280
     0
  9
$LWDISPLAY
290
     0
  9
$INSUNITS
 70
     4
  9
$HYPERLINKBASE
  1

  9
$STYLESHEET
  1

  9
$XEDIT
290
     1
  9
$CEPSNTYPE
380
     0
  9
$PSTYLEMODE
290
     1
  9
$FINGERPRINTGUID
  2
{A70F7F6A-C0ED-4A69-9957-B28BF73151BB}
  9
$VERSIONGUID
  2
{FAEB1C32-E019-11D5-929B-00C0DF256EC4}
  9
$EXTNAMES
290
     1
  9
$PSVPSCALE
 40
0.0
  9
$OLESTARTUP
290
     0
  9
$SORTENTS
280
   127
  9
$INDEXCTL
280
     0
  9
$HIDETEXT
280
     1
  9
$XCLIPFRAME
290
     0
  9
$HALOGAP
280
     0
  9
$OBSCOLOR
 70
   257
  9
$OBSLTYPE
280
     0
  9
$INTERSECTIONDISPLAY
280
     0
  9
$INTERSECTIONCOLOR
 70
   257
  9
$DIMASSOC
280
     2
  9
$PROJECTNAME
  1

  0
ENDSEC
  0
SECTION
  2
CLASSES
  0
CLASS
  1
ACDBDICTIONARYWDFLT
  2
AcDbDictionaryWithDefault
  3
ObjectDBX Classes
 90
        0
 91
        4
280
     0
281
     0
  0
CLASS
  1
VISUALSTYLE
  2
AcDbVisualStyle
  3
ObjectDBX Classes
 90
     4095
 91
        4
280
     0
281
     0
  0
CLASS
  1
SCALE
  2
AcDbScale
  3
ObjectDBX Classes
 90
     1153
 91
        4
280
     0
281
     0
  0
CLASS
  1
DICTIONARYVAR
  2
AcDbDictionaryVar
  3
ObjectDBX Classes
 90
        0
 91
        4
280
     0
281
     0
  0
ENDSEC
  0
SECTION
  2
TABLES
  0
TABLE
  2
VPORT
  5
8
330
0
100
AcDbSymbolTable
 70
     1
  0
VPORT
  5
29
330
8
100
AcDbSymbolTableRecord
100
AcDbViewportTableRecord
  2
*Active
 70
     0
 10
0.0
 20
0.0
 11
1.0
 21
1.0
 12
-139.0580979471154
 22
-31.49790808682849
 13
0.0
 23
0.0
 14
0.5
 24
0.5
 15
0.5
 25
0.5
 16
0.0
 26
0.0
 36
1.0
 17
0.0
 27
0.0
 37
0.0
 40
844.6776008362041
 41
1.422647550524007
 42
50.0
 43
0.0
 44
0.0
 50
0.0
 51
0.0
 71
     0
 72
   100
 73
     1
 74
     3
 75
     0
 76
     0
 77
     0
 78
     0
281
     0
 65
     1
110
0.0
120
0.0
130
0.0
111
1.0
121
0.0
131
0.0
112
0.0
122
1.0
132
0.0
 79
     0
146
0.0
  0
ENDTAB
  0
TABLE
  2
LTYPE
  5
5
330
0
100
AcDbSymbolTable
 70
     1
  0
LTYPE
  5
14
330
5
100
AcDbSymbolTableRecord
100
AcDbLinetypeTableRecord
  2
ByBlock
 70
     0
  3

 72
    65
 73
     0
 40
0.0
  0
LTYPE
  5
15
330
5
100
AcDbSymbolTableRecord
100
AcDbLinetypeTableRecord
  2
ByLayer
 70
     0
  3

 72
    65
 73
     0
 40
0.0
  0
LTYPE
  5
16
330
5
100
AcDbSymbolTableRecord
100
AcDbLinetypeTableRecord
  2
Continuous
 70
     0
  3
Solid line
 72
    65
 73
     0
 40
0.0
  0
ENDTAB
  0
TABLE
  2
LAYER
  5
2
330
0
100
AcDbSymbolTable
 70
     3
  0
LAYER
  5
10
330
2
100
AcDbSymbolTableRecord
100
AcDbLayerTableRecord
  2
0
 70
     0
 62
     7
  6
Continuous
370
    -3
390
F
  0
LAYER
  5
3B
330
2
100
AcDbSymbolTableRecord
100
AcDbLayerTableRecord
  2
Linee visibili 2D
 70
     0
 62
     7
  6
Continuous
370
    -3
390
F
  0
LAYER
  5
3E
330
2
100
AcDbSymbolTableRecord
100
AcDbLayerTableRecord
  2
Linee visibili 2D - Tangent
 70
     0
 62
     7
  6
Continuous
370
    -3
390
F
  0
ENDTAB
  0
TABLE
  2
STYLE
  5
3
330
0
100
AcDbSymbolTable
 70
     1
  0
STYLE
  5
11
330
3
100
AcDbSymbolTableRecord
100
AcDbTextStyleTableRecord
  2
Standard
 70
     0
 40
0.0
 41
1.0
 50
0.0
 71
     0
 42
0.2
  3
txt
  4

  0
ENDTAB
  0
TABLE
  2
VIEW
  5
6
330
0
100
AcDbSymbolTable
 70
     0
  0
ENDTAB
  0
TABLE
  2
UCS
  5
7
330
0
100
AcDbSymbolTable
 70
     0
  0
ENDTAB
  0
TABLE
  2
APPID
  5
9
330
0
100
AcDbSymbolTable
 70
     1
  0
APPID
  5
12
330
9
100
AcDbSymbolTableRecord
100
AcDbRegAppTableRecord
  2
ACAD
 70
     0
  0
ENDTAB
  0
TABLE
  2
DIMSTYLE
  5
A
330
0
100
AcDbSymbolTable
 70
     1
100
AcDbDimStyleTable
  0
DIMSTYLE
105
27
330
A
100
AcDbSymbolTableRecord
100
AcDbDimStyleTableRecord
  2
Standard
 70
     0
340
11
  0
ENDTAB
  0
TABLE
  2
BLOCK_RECORD
  5
1
330
0
100
AcDbSymbolTable
 70
     3
  0
BLOCK_RECORD
  5
1F
330
1
100
AcDbSymbolTableRecord
100
AcDbBlockTableRecord
  2
*Model_Space
340
22
  0
BLOCK_RECORD
  5
128
330
1
100
AcDbSymbolTableRecord
100
AcDbBlockTableRecord
  2
*Paper_Space
340
129
  0
BLOCK_RECORD
  5
23
330
1
100
AcDbSymbolTableRecord
100
AcDbBlockTableRecord
  2
*Paper_Space0
340
26
  0
BLOCK_RECORD
  5
1B
330
1
100
AcDbSymbolTableRecord
100
AcDbBlockTableRecord
  2
*Paper_Space1
340
1E
  0
BLOCK_RECORD
  5
123
330
1
100
AcDbSymbolTableRecord
100
AcDbBlockTableRecord
  2
*Paper_Space2
340
124
  0
ENDTAB
  0
ENDSEC
  0
SECTION
  2
BLOCKS
  0
BLOCK
  5
20
330
1F
100
AcDbEntity
  8
0
100
AcDbBlockBegin
  2
*Model_Space
 70
     0
 10
0.0
 20
0.0
 30
0.0
  3
*Model_Space
  1

  0
ENDBLK
  5
21
330
1F
100
AcDbEntity
  8
0
100
AcDbBlockEnd
  0
BLOCK
  5
12A
330
128
100
AcDbEntity
 67
     1
  8
0
100
AcDbBlockBegin
  2
*Paper_Space
 70
     0
 10
0.0
 20
0.0
 30
0.0
  3
*Paper_Space
  1

  0
ENDBLK
  5
12B
330
128
100
AcDbEntity
 67
     1
  8
0
100
AcDbBlockEnd
  0
BLOCK
  5
24
330
23
100
AcDbEntity
  8
0
100
AcDbBlockBegin
  2
*Paper_Space0
 70
     0
 10
0.0
 20
0.0
 30
0.0
  3
*Paper_Space0
  1

  0
ENDBLK
  5
25
330
23
100
AcDbEntity
  8
0
100
AcDbBlockEnd
  0
BLOCK
  5
1C
330
1B
100
AcDbEntity
  8
0
100
AcDbBlockBegin
  2
*Paper_Space1
 70
     0
 10
0.0
 20
0.0
 30
0.0
  3
*Paper_Space1
  1

  0
ENDBLK
  5
1D
330
1B
100
AcDbEntity
  8
0
100
AcDbBlockEnd
  0
BLOCK
  5
125
330
123
100
AcDbEntity
  8
0
100
AcDbBlockBegin
  2
*Paper_Space2
 70
     0
 10
0.0
 20
0.0
 30
0.0
  3
*Paper_Space2
  1

  0
VIEWPORT
  5
127
330
123
100
AcDbEntity
  8
0
100
AcDbViewport
 10
6.0
 20
4.5
 30
0.0
 40
12.696
 41
9.522
 68
     1
 69
     1
 12
6.0
 22
4.5
 13
0.0
 23
0.0
 14
0.5
 24
0.5
 15
0.5
 25
0.5
 16
0.0
 26
0.0
 36
1.0
 17
0.0
 27
0.0
 37
0.0
 42
50.0
 43
0.0
 44
0.0
 45
9.522
 50
0.0
 51
0.0
 72
   100
 90
   557152
  1

281
     0
 71
     1
 74
     0
110
0.0
120
0.0
130
0.0
111
1.0
121
0.0
131
0.0
112
0.0
122
1.0
132
0.0
 79
     0
146
0.0
170
     0
  0
ENDBLK
  5
126
330
123
100
AcDbEntity
  8
0
100
AcDbBlockEnd
  0
ENDSEC
  0
SECTION
  2
ENTITIES
  0
SPLINE
  5
3C
330
1F
100
AcDbEntity
  8
Linee visibili 2D
100
AcDbSpline
210
0.0
220
0.0
230
1.0
 70
     8
 71
     3
 72
    22
 73
    18
 74
     0
 42
0.0000000001
 43
0.0000000001
 40
0.0
 40
0.0
 40
0.0
 40
0.0
 40
5.061265846191594
 40
10.43732154568449
 40
15.47579515037251
 40
20.18161667163004
 40
24.61734229779305
 40
28.89309895101565
 40
33.1484830627549
 40
37.52349086575612
 40
42.12671784619773
 40
47.01444667064524
 40
52.19569649017829
 40
57.63281158763095
 40
68.9990343752736
 40
74.76040574828835
 40
80.97516474114953
 40
80.97516474114953
 40
80.97516474114953
 40
80.97516474114953
 10
-500.2455192285178
 20
-282.9818428136585
 30
0.0
 10
-501.8723224472405
 20
-282.5337735121008
 30
0.0
 10
-505.1615009648987
 20
-281.375470338579
 30
0.0
 10
-509.7230966263195
 20
-278.9242447371453
 30
0.0
 10
-513.6595350822416
 20
-275.7368589267649
 30
0.0
 10
-516.645887046675
 20
-272.0338193016778
 30
0.0
 10
-518.5542064718611
 20
-267.9490243185576
 30
0.0
 10
-519.3067301634906
 20
-263.6513180133905
 30
0.0
 10
-518.8548837798173
 20
-259.3320982908637
 30
0.0
 10
-517.2536168691863
 20
-255.1834767374382
 30
0.0
 10
-514.5878513183119
 20
-251.3714355636583
 30
0.0
 10
-510.9951942083106
 20
-248.0184189990485
 30
0.0
 10
-506.612607566915
 20
-245.2412838221868
 30
0.0
 10
-499.8442669114918
 20
-242.3719461946612
 30
0.0
 10
-492.3608523246368
 20
-241.0443388250214
 30
0.0
 10
-484.5675546909534
 20
-241.2788096074607
 30
0.0
 10
-480.6245826688359
 20
-241.9795371832437
 30
0.0
 10
-478.6220638938011
 20
-242.5100913115991
 30
0.0
  0
SPLINE
  5
3D
330
1F
100
AcDbEntity
  8
Linee visibili 2D
100
AcDbSpline
210
0.0
220
0.0
230
1.0
 70
     8
 71
     3
 72
    22
 73
    18
 74
     0
 42
0.0000000001
 43
0.0000000001
 40
0.0
 40
0.0
 40
0.0
 40
0.0
 40
5.994364627170094
 40
11.1975087526597
 40
16.09758919834589
 40
20.70767362655635
 40
25.08874336349333
 40
29.34481963808438
 40
33.61287618234095
 40
38.03335987030887
 40
42.71800642185237
 40
47.72530351219876
 40
53.06362509965794
 40
58.68858227402466
 40
69.87815987021649
 40
75.8358086521308
 40
81.66130595271251
 40
81.66130595271251
 40
81.66130595271251
 40
81.66130595271251
 10
-478.6220638938009
 20
-242.5100913115991
 30
0.0
 10
-476.6909501669746
 20
-243.0234284297869
 30
0.0
 10
-473.1609434664705
 20
-244.2760941659207
 30
0.0
 10
-468.4594092562431
 20
-246.9033525568118
 30
0.0
 10
-464.6743915658071
 20
-250.0596456194836
 30
0.0
 10
-461.7897947090408
 20
-253.7184055304885
 30
0.0
 10
-459.9438655491136
 20
-257.7691834496836
 30
0.0
 10
-459.2248154578509
 20
-262.0503574885902
 30
0.0
 10
-459.7129013496756
 20
-266.3800630460046
 30
0.0
 10
-461.3635527123706
 20
-270.5586864822698
 30
0.0
 10
-464.1195608396158
 20
-274.410673131346
 30
0.0
 10
-467.8406443040801
 20
-277.8001142134165
 30
0.0
 10
-472.399431291732
 20
-280.5919930085749
 30
0.0
 10
-479.2690315828809
 20
-283.362511961968
 30
0.0
 10
-486.8379517178236
 20
-284.5872277986282
 30
0.0
 10
-494.5049086162703
 20
-284.238553959872
 30
0.0
 10
-498.3731376642437
 20
-283.4969553090682
 30
0.0
 10
-500.2455192285178
 20
-282.9818428136585
 30
0.0
  0
SPLINE
  5
3F
330
1F
100
AcDbEntity
  8
Linee visibili 2D - Tangent
100
AcDbSpline
210
0.0
220
0.0
230
1.0
 70
    24
 71
     2
 72
     6
 73
     3
 74
     0
 42
0.0000000001
 43
0.0000000001
 40
0.0
 40
0.0
 40
0.0
 40
7.326118621115525
 40
7.326118621115525
 40
7.326118621115525
 10
-643.915699438968
 20
-177.0639623497032
 30
0.0
 10
-640.3712083271271
 20
-177.9884007039188
 30
0.0
 10
-636.8267172152862
 20
-178.9128390581343
 30
0.0
  0
SPLINE
  5
40
330
1F
100
AcDbEntity
  8
Linee visibili 2D - Tangent
100
AcDbSpline
210
0.0
220
0.0
230
1.0
 70
    24
 71
     2
 72
     6
 73
     3
 74
     0
 42
0.0000000001
 43
0.0000000001
 40
0.0
 40
0.0
 40
0.0
 40
14.63026298638431
 40
14.63026298638431
 40
14.63026298638431
 10
-645.1929206118111
 20
-190.9149736923876
 30
0.0
 10
-641.0098189135487
 20
-184.9139063752609
 30
0.0
 10
-636.8267172152862
 20
-178.9128390581343
 30
0.0
  0
SPLINE
  5
41
330
1F
100
AcDbEntity
  8
Linee visibili 2D - Tangent
100
AcDbSpline
210
0.0
220
0.0
230
1.0
 70
    24
 71
     2
 72
     6
 73
     3
 74
     0
 42
0.0000000001
 43
0.0000000001
 40
0.0
 40
0.0
 40
0.0
 40
35.13670350103057
 40
35.13670350103057
 40
35.13670350103057
 10
-645.1929206118111
 20
-190.9149736923876
 30
0.0
 10
-655.2392474771103
 20
-205.3274092861865
 30
0.0
 10
-665.2855743424095
 20
-219.7398448799854
 30
0.0
  0
SPLINE
  5
42
330
1F
100
AcDbEntity
  8
Linee visibili 2D - Tangent
100
AcDbSpline
210
0.0
220
0.0
230
1.0
 70
    24
 71
     2
 72
     6
 73
     3
 74
     0
 42
0.0000000001
 43
0.0000000001
 40
0.0
 40
0.0
 40
0.0
 40
41.88174568784932
 40
41.88174568784932
 40
41.88174568784932
 10
-665.2855743424095
 20
-219.7398448799854
 30
0.0
 10
-677.2604514636263
 20
-236.9189738857638
 30
0.0
 10
-689.235328584843
 20
-254.0981028915423
 30
0.0
  0
SPLINE
  5
43
330
1F
100
AcDbEntity
  8
Linee visibili 2D - Tangent
100
AcDbSpline
210
0.0
220
0.0
230
1.0
 70
    12
 71
     3
 72
    11
 73
     7
 74
     0
 42
0.0000000001
 43
0.0000000001
 40
0.0
 40
0.0
 40
0.0
 40
0.0
 40
3.299661081976538
 40
6.599322163953075
 40
9.898983245929614
 40
12.08659995249271
 40
12.08659995249271
 40
12.08659995249271
 40
12.08659995249271
 10
-689.2353285848432
 20
-254.0981028915423
 30
0.0
 41
1523.418000530479
 10
-689.8853294269201
 20
-255.0305924867902
 30
0.0
 41
1522.287685519463
 10
-691.1855234048861
 20
-256.8975584528491
 30
0.0
 41
1520.029680583396
 10
-693.1593770482341
 20
-259.7215314557112
 30
0.0
 41
1516.626922663494
 10
-694.9014561948314
 20
-262.2458670425815
 30
0.0
 41
1513.598084255005
 10
-696.0227663701901
 20
-263.8084063378492
 30
0.0
 41
1511.729316911371
 10
-696.4449194753083
 20
-264.4409640944138
 30
0.0
 41
1510.974101359012
  0
SPLINE
  5
44
330
1F
100
AcDbEntity
  8
Linee visibili 2D - Tangent
100
AcDbSpline
210
0.0
220
0.0
230
1.0
 70
     8
 71
     3
 72
    16
 73
    12
 74
     0
 42
0.0000000001
 43
0.0000000001
 40
0.0
 40
0.0
 40
0.0
 40
0.0
 40
5.644828525282569
 40
11.07223449239083
 40
16.47001012238065
 40
22.43957818181192
 40
29.01638020317009
 40
36.09922372886887
 40
43.83555977306396
 40
47.76516766957413
 40
52.23803633942177
 40
52.23803633942177
 40
52.23803633942177
 40
52.23803633942177
 10
-696.4449194753083
 20
-264.4409640944139
 30
0.0
 10
-697.4969735116698
 20
-265.9993269913568
 30
0.0
 10
-699.1767703020166
 20
-269.3315679672863
 30
0.0
 10
-700.021214464705
 20
-274.8314916363084
 30
0.0
 10
-699.0381961457089
 20
-280.4129924626576
 30
0.0
 10
-696.3112401780957
 20
-285.7992797510711
 30
0.0
 10
-691.97252916858
 20
-290.7520496985387
 30
0.0
 10
-686.2901745716506
 20
-295.1064534735556
 30
0.0
 10
-680.7532425805911
 20
-298.0462170545742
 30
0.0
 10
-675.7686637838586
 20
-300.0723904737781
 30
0.0
 10
-673.0983593493837
 20
-300.9285540615909
 30
0.0
 10
-671.672753946506
 20
-301.3623929214002
 30
0.0
  0
SPLINE
  5
45
330
1F
100
AcDbEntity
  8
Linee visibili 2D - Tangent
100
AcDbSpline
210
0.0
220
0.0
230
1.0
 70
    12
 71
     2
 72
     6
 73
     3
 74
     0
 42
0.0000000001
 43
0.0000000001
 40
0.0
 40
0.0
 40
0.0
 40
5.989248892898333
 40
5.989248892898333
 40
5.989248892898333
 10
-671.6727539465058
 20
-301.3623929214003
 30
0.0
 41
1.0
 10
-668.8001641869416
 20
-302.208661762302
 30
0.0
 41
0.9999860082759335
 10
-665.9187819327235
 20
-303.0244921263571
 30
0.0
 41
1.0
  0
SPLINE
  5
46
330
1F
100
AcDbEntity
  8
Linee visibili 2D - Tangent
100
AcDbSpline
210
0.0
220
0.0
230
1.0
 70
    12
 71
     2
 72
     6
 73
     3
 74
     0
 42
0.0000000001
 43
0.0000000001
 40
0.0
 40
0.0
 40
0.0
 40
0.4957418404415187
 40
0.4957418404415187
 40
0.4957418404415187
 10
-665.9187819327235
 20
-303.0244921263572
 30
0.0
 41
1.0
 10
-665.6818489409164
 20
-303.0973140810478
 30
0.0
 41
0.9999965014733877
 10
-665.4445340100054
 20
-303.1688815545144
 30
0.0
 41
1.0
  0
SPLINE
  5
47
330
1F
100
AcDbEntity
  8
Linee visibili 2D - Tangent
100
AcDbSpline
210
0.0
220
0.0
230
1.0
 70
     8
 71
     3
 72
    10
 73
     6
 74
     0
 42
0.0000000001
 43
0.0000000001
 40
0.0
 40
0.0
 40
0.0
 40
0.0
 40
1.559201559596182
 40
6.17182707206421
 40
114.3125442355753
 40
114.3125442355753
 40
114.3125442355753
 40
114.3125442355753
 10
-665.4445340100054
 20
-303.1688815545144
 30
0.0
 10
-664.9494999363386
 20
-303.3278487928498
 30
0.0
 10
-662.9684453246999
 20
-303.88279817394
 30
0.0
 10
-626.3730661288564
 20
-314.4991090298678
 30
0.0
 10
-590.2767787561739
 20
-324.9704691010382
 30
0.0
 10
-555.6571675857268
 20
-335.0134632821542
 30
0.0
  0
SPLINE
  5
48
330
1F
100
AcDbEntity
  8
Linee visibili 2D - Tangent
100
AcDbSpline
210
0.0
220
0.0
230
1.0
 70
     8
 71
     3
 72
    10
 73
     6
 74
     0
 42
0.0000000001
 43
0.0000000001
 40
0.0
 40
0.0
 40
0.0
 40
0.0
 40
1.721845741673692
 40
6.78291347000568
 40
120.0301841394055
 40
120.0301841394055
 40
120.0301841394055
 40
120.0301841394055
 10
-440.380598698187
 20
-368.4580816126733
 30
0.0
 10
-440.9361299557067
 20
-368.3130658702378
 30
0.0
 10
-443.101989137892
 20
-367.6640472939121
 30
0.0
 10
-481.5279553078244
 20
-356.5173318492468
 30
0.0
 10
-519.4026850042831
 20
-345.5304063743558
 30
0.0
 10
-555.6571675857268
 20
-335.0134632821542
 30
0.0
  0
SPLINE
  5
49
330
1F
100
AcDbEntity
  8
Linee visibili 2D - Tangent
100
AcDbSpline
210
0.0
220
0.0
230
1.0
 70
    12
 71
     2
 72
     6
 73
     3
 74
     0
 42
0.0000000001
 43
0.0000000001
 40
0.0
 40
0.0
 40
0.0
 40
0.5499179357488654
 40
0.5499179357488654
 40
0.5499179357488654
 10
-439.8505813656708
 20
-368.6046788108733
 30
0.0
 41
1.0
 10
-440.1157725138382
 20
-368.5320399690946
 30
0.0
 41
0.999996901037867
 10
-440.380598698187
 20
-368.4580816126733
 30
0.0
 41
1.0
  0
SPLINE
  5
4A
330
1F
100
AcDbEntity
  8
Linee visibili 2D - Tangent
100
AcDbSpline
210
0.0
220
0.0
230
1.0
 70
    12
 71
     2
 72
     6
 73
     3
 74
     0
 42
0.0000000001
 43
0.0000000001
 40
0.0
 40
0.0
 40
0.0
 40
6.620447440074091
 40
6.620447440074091
 40
6.620447440074091
 10
-433.4942875256309
 20
-370.4560249439817
 30
0.0
 41
1.0
 10
-436.6770954904852
 20
-369.5463548117453
 30
0.0
 41
0.9999873231003786
 10
-439.8505813656708
 20
-368.6046788108732
 30
0.0
 41
1.0
  0
SPLINE
  5
4B
330
1F
100
AcDbEntity
  8
Linee visibili 2D - Tangent
100
AcDbSpline
210
0.0
220
0.0
230
1.0
 70
     8
 71
     3
 72
    16
 73
    12
 74
     0
 42
0.0000000001
 43
0.0000000001
 40
0.0
 40
0.0
 40
0.0
 40
0.0
 40
6.203216461680126
 40
12.98072717275406
 40
20.30247563114721
 40
28.58986496217986
 40
37.5173826839723
 40
46.68743560237704
 40
56.13378133378344
 40
60.71236881964538
 40
65.76261960434518
 40
65.76261960434518
 40
65.76261960434518
 40
65.76261960434518
 10
-374.2426921452397
 20
-355.7645809704549
 30
0.0
 10
-375.0632852487288
 20
-357.6634247710347
 30
0.0
 10
-377.4244253955274
 20
-361.3451596904518
 30
0.0
 10
-382.5302268598994
 20
-365.868496697097
 30
0.0
 10
-389.1078291227823
 20
-369.4685052232055
 30
0.0
 10
-396.9046023997832
 20
-372.0357301063406
 30
0.0
 10
-405.6105821162042
 20
-373.4396658733186
 30
0.0
 10
-414.807131150225
 20
-373.6726768986995
 30
0.0
 10
-422.5152341253508
 20
-372.9006776853745
 30
0.0
 10
-428.7642110110307
 20
-371.7156248134017
 30
0.0
 10
-431.8725099620637
 20
-370.9054024399872
 30
0.0
 10
-433.494287525631
 20
-370.4560249439818
 30
0.0
  0
SPLINE
  5
4C
330
1F
100
AcDbEntity
  8
Linee visibili 2D - Tangent
100
AcDbSpline
210
0.0
220
0.0
230
1.0
 70
    12
 71
     3
 72
    11
 73
     7
 74
     0
 42
0.0000000001
 43
0.0000000001
 40
0.0
 40
0.0
 40
0.0
 40
0.0
 40
3.299661081976538
 40
6.599322163953075
 40
9.898983245929614
 40
12.0865999525005
 40
12.0865999525005
 40
12.0865999525005
 40
12.0865999525005
 10
-369.3377072053243
 20
-343.8829803863927
 30
0.0
 41
1421.771645521654
 10
-369.7796929342708
 20
-344.9536254463733
 30
0.0
 41
1420.641330510637
 10
-370.6657591623788
 20
-347.0968938944623
 30
0.0
 41
1418.384003261762
 10
-372.0002895215053
 20
-350.3435541407975
 30
0.0
 41
1414.978195749502
 10
-373.2125272885905
 20
-353.2344933167197
 30
0.0
 41
1411.959283020261
 10
-373.9266270486426
 20
-355.0477246035678
 30
0.0
 41
1410.072350117713
 10
-374.2426921452396
 20
-355.7645809704549
 30
0.0
 41
1409.327746350179
  0
SPLINE
  5
4D
330
1F
100
AcDbEntity
  8
Linee visibili 2D - Tangent
100
AcDbSpline
210
0.0
220
0.0
230
1.0
 70
    24
 71
     2
 72
     6
 73
     3
 74
     0
 42
0.0000000001
 43
0.0000000001
 40
0.0
 40
0.0
 40
0.0
 40
47.27528180293462
 40
47.27528180293462
 40
47.27528180293462
 10
-369.3377072053242
 20
-343.8829803863927
 30
0.0
 10
-360.3179336143904
 20
-322.0339128604086
 30
0.0
 10
-351.2981600234565
 20
-300.1848453344244
 30
0.0
  0
SPLINE
  5
4E
330
1F
100
AcDbEntity
  8
Linee visibili 2D - Tangent
100
AcDbSpline
210
0.0
220
0.0
230
1.0
 70
    24
 71
     2
 72
     6
 73
     3
 74
     0
 42
0.0000000001
 43
0.0000000001
 40
0.0
 40
0.0
 40
0.0
 40
30.92197803235933
 40
30.92197803235933
 40
30.92197803235933
 10
-351.2981600234565
 20
-300.1848453344244
 30
0.0
 10
-345.3984756598957
 20
-285.8937325097077
 30
0.0
 10
-339.4987912963348
 20
-271.6026196849909
 30
0.0
  0
SPLINE
  5
4F
330
1F
100
AcDbEntity
  8
Linee visibili 2D - Tangent
100
AcDbSpline
210
0.0
220
0.0
230
1.0
 70
    24
 71
     2
 72
     6
 73
     3
 74
     0
 42
0.0000000001
 43
0.0000000001
 40
0.0
 40
0.0
 40
0.0
 40
14.79088100044798
 40
14.79088100044798
 40
14.79088100044798
 10
-333.8548102243404
 20
-257.930910266327
 30
0.0
 10
-336.6768007603376
 20
-264.766764975659
 30
0.0
 10
-339.4987912963348
 20
-271.6026196849909
 30
0.0
  0
SPLINE
  5
50
330
1F
100
AcDbEntity
  8
Linee visibili 2D - Tangent
100
AcDbSpline
210
0.0
220
0.0
230
1.0
 70
    24
 71
     2
 72
     6
 73
     3
 74
     0
 42
0.0000000001
 43
0.0000000001
 40
0.0
 40
0.0
 40
0.0
 40
8.36663167753638
 40
8.36663167753638
 40
8.36663167753638
 10
-333.8548102243404
 20
-257.930910266327
 30
0.0
 10
-329.8069025735415
 20
-258.9866446351397
 30
0.0
 10
-325.7589949227425
 20
-260.0423790039523
 30
0.0
  0
SPLINE
  5
51
330
1F
100
AcDbEntity
  8
Linee visibili 2D - Tangent
100
AcDbSpline
210
0.0
220
0.0
230
1.0
 70
    24
 71
     2
 72
     6
 73
     3
 74
     0
 42
0.0000000001
 43
0.0000000001
 40
0.0
 40
0.0
 40
0.0
 40
57.87274115377537
 40
57.87274115377537
 40
57.87274115377537
 10
-347.5163393460069
 20
-313.6695375367268
 30
0.0
 10
-336.6376671343747
 20
-286.8559582703396
 30
0.0
 10
-325.7589949227425
 20
-260.0423790039523
 30
0.0
  0
SPLINE
  5
52
330
1F
100
AcDbEntity
  8
Linee visibili 2D - Tangent
100
AcDbSpline
210
0.0
220
0.0
230
1.0
 70
    24
 71
     2
 72
     6
 73
     3
 74
     0
 42
0.0000000001
 43
0.0000000001
 40
0.0
 40
0.0
 40
0.0
 40
36.44542744472678
 40
36.44542744472678
 40
36.44542744472678
 10
-347.5163393460069
 20
-313.6695375367268
 30
0.0
 10
-354.3671960858063
 20
-330.5554209112487
 30
0.0
 10
-361.2180528256056
 20
-347.4413042857707
 30
0.0
  0
SPLINE
  5
53
330
1F
100
AcDbEntity
  8
Linee visibili 2D - Tangent
100
AcDbSpline
210
0.0
220
0.0
230
1.0
 70
    12
 71
     3
 72
     9
 73
     5
 74
     0
 42
0.0000000001
 43
0.0000000001
 40
-128.5401417943583
 40
-128.5401417943583
 40
-128.5401417943583
 40
-128.5401417943583
 40
-125.2442407227081
 40
-121.9483603409679
 40
-121.9483603409679
 40
-121.9483603409679
 40
-121.9483603409679
 10
-361.2180528256057
 20
-347.4413042857707
 30
0.0
 41
1418.021933127833
 10
-361.7586331839895
 20
-348.7737180774972
 30
0.0
 41
1416.622938582881
 10
-362.8515417442587
 20
-351.4469959491688
 30
0.0
 41
1413.824385655012
 10
-363.9145489623006
 20
-354.1286769186585
 30
0.0
 41
1411.028123200398
 10
-364.4739982451421
 20
-355.4665070766428
 30
0.0
 41
1409.637262274537
  0
SPLINE
  5
54
330
1F
100
AcDbEntity
  8
Linee visibili 2D - Tangent
100
AcDbSpline
210
0.0
220
0.0
230
1.0
 70
    24
 71
     2
 72
     6
 73
     3
 74
     0
 42
0.0000000001
 43
0.0000000001
 40
0.0
 40
0.0
 40
0.0
 40
0.7456612024160818
 40
0.7456612024160818
 40
0.7456612024160818
 10
-364.7593558269357
 20
-356.155405965669
 30
0.0
 10
-364.6166770360389
 20
-355.8109565211558
 30
0.0
 10
-364.4739982451422
 20
-355.4665070766428
 30
0.0
  0
SPLINE
  5
55
330
1F
100
AcDbEntity
  8
Linee visibili 2D - Tangent
100
AcDbSpline
210
0.0
220
0.0
230
1.0
 70
    24
 71
     2
 72
     6
 73
     3
 74
     0
 42
0.0000000001
 43
0.0000000001
 40
0.0
 40
0.0
 40
0.0
 40
39.01725418707665
 40
39.01725418707665
 40
39.01725418707665
 10
-379.4229187490847
 20
-392.3123699799101
 30
0.0
 10
-372.0911372880101
 20
-374.2338879727895
 30
0.0
 10
-364.7593558269357
 20
-356.155405965669
 30
0.0
  0
SPLINE
  5
56
330
1F
100
AcDbEntity
  8
Linee visibili 2D - Tangent
100
AcDbSpline
210
0.0
220
0.0
230
1.0
 70
    24
 71
     2
 72
     6
 73
     3
 74
     0
 42
0.0000000001
 43
0.0000000001
 40
0.0
 40
0.0
 40
0.0
 40
359.5860055270718
 40
359.5860055270718
 40
359.5860055270718
 10
-379.4229187490847
 20
-392.3123699799101
 30
0.0
 10
-552.0374216494139
 20
-342.0156779296267
 30
0.0
 10
-724.6519245497432
 20
-291.7189858793432
 30
0.0
  0
SPLINE
  5
57
330
1F
100
AcDbEntity
  8
Linee visibili 2D - Tangent
100
AcDbSpline
210
0.0
220
0.0
230
1.0
 70
    24
 71
     2
 72
     6
 73
     3
 74
     0
 42
0.0000000001
 43
0.0000000001
 40
0.0
 40
0.0
 40
0.0
 40
38.1414949746783
 40
38.1414949746783
 40
38.1414949746783
 10
-702.6884523257683
 20
-260.5359852737233
 30
0.0
 10
-713.6701884377558
 20
-276.1274855765333
 30
0.0
 10
-724.6519245497432
 20
-291.7189858793432
 30
0.0
  0
SPLINE
  5
58
330
1F
100
AcDbEntity
  8
Linee visibili 2D - Tangent
100
AcDbSpline
210
0.0
220
0.0
230
1.0
 70
    24
 71
     2
 72
     6
 73
     3
 74
     0
 42
0.0000000001
 43
0.0000000001
 40
0.0
 40
0.0
 40
0.0
 40
0.7281201558945947
 40
0.7281201558945947
 40
0.7281201558945947
 10
-702.2728898160138
 20
-259.9381000323043
 30
0.0
 10
-702.480671070891
 20
-260.2370426530138
 30
0.0
 10
-702.6884523257683
 20
-260.5359852737233
 30
0.0
  0
SPLINE
  5
59
330
1F
100
AcDbEntity
  8
Linee visibili 2D - Tangent
100
AcDbSpline
210
0.0
220
0.0
230
1.0
 70
    12
 71
     3
 72
     9
 73
     5
 74
     0
 42
0.0000000001
 43
0.0000000001
 40
-128.5401417943583
 40
-128.5401417943583
 40
-128.5401417943583
 40
-128.5401417943583
 40
-125.2442407227081
 40
-121.9483603409678
 40
-121.9483603409678
 40
-121.9483603409678
 40
-121.9483603409678
 10
-697.3872834232135
 20
-252.9999590038566
 30
0.0
 41
1524.751267186864
 10
-698.1987157848791
 20
-254.1522893481918
 30
0.0
 41
1523.352272614282
 10
-699.8212150554416
 20
-256.4674163882353
 30
0.0
 41
1520.549322503829
 10
-701.4690801618848
 20
-258.7745844290341
 30
0.0
 41
1517.766251320697
 10
-702.272889816014
 20
-259.9381000323044
 30
0.0
 41
1516.36659633357
  0
SPLINE
  5
5A
330
1F
100
AcDbEntity
  8
Linee visibili 2D - Tangent
100
AcDbSpline
210
0.0
220
0.0
230
1.0
 70
    24
 71
     2
 72
     6
 73
     3
 74
     0
 42
0.0000000001
 43
0.0000000001
 40
0.0
 40
0.0
 40
0.0
 40
44.47467919441183
 40
44.47467919441183
 40
44.47467919441183
 10
-671.7811449854734
 20
-216.6362028206303
 30
0.0
 10
-684.5842142043434
 20
-234.8180809122435
 30
0.0
 10
-697.3872834232136
 20
-252.9999590038566
 30
0.0
  0
SPLINE
  5
5B
330
1F
100
AcDbEntity
  8
Linee visibili 2D - Tangent
100
AcDbSpline
210
0.0
220
0.0
230
1.0
 70
    24
 71
     2
 72
     6
 73
     3
 74
     0
 42
0.0000000001
 43
0.0000000001
 40
0.0
 40
0.0
 40
0.0
 40
48.39881477261746
 40
48.39881477261746
 40
48.39881477261746
 10
-671.7811449854734
 20
-216.6362028206303
 30
0.0
 10
-657.8484222122206
 20
-196.8500825851667
 30
0.0
 10
-643.915699438968
 20
-177.0639623497032
 30
0.0
  0
SPLINE
  5
5C
330
1F
100
AcDbEntity
  8
Linee visibili 2D - Tangent
100
AcDbSpline
210
0.0
220
0.0
230
1.0
 70
    12
 71
     2
 72
     6
 73
     3
 74
     0
 42
0.0000000001
 43
0.0000000001
 40
0.0
 40
0.0
 40
0.0
 40
7.852557429905819
 40
7.852557429905819
 40
7.852557429905819
 10
-325.7589949227425
 20
-260.0423790039523
 30
0.0
 41
1516.241279634057
 10
-321.8859879711782
 20
-261.052497539788
 30
0.0
 41
1071.28688806415
 10
-322.2215655933491
 20
-263.8213659624666
 30
0.0
 41
1518.619088830476
  0
SPLINE
  5
5D
330
1F
100
AcDbEntity
  8
Linee visibili 2D - Tangent
100
AcDbSpline
210
0.0
220
0.0
230
1.0
 70
    24
 71
     2
 72
     6
 73
     3
 74
     0
 42
0.0000000001
 43
0.0000000001
 40
0.0
 40
0.0
 40
0.0
 40
142.72284155087
 40
142.72284155087
 40
142.72284155087
 10
-322.2215655933491
 20
-263.8213659624668
 30
0.0
 10
-348.8220316679997
 20
-330.03969861816
 30
0.0
 10
-375.4224977426503
 20
-396.2580312738532
 30
0.0
  0
SPLINE
  5
5E
330
1F
100
AcDbEntity
  8
Linee visibili 2D - Tangent
100
AcDbSpline
210
0.0
220
0.0
230
1.0
 70
    12
 71
     2
 72
     6
 73
     3
 74
     0
 42
0.0000000001
 43
0.0000000001
 40
0.0
 40
0.0
 40
0.0
 40
1.0
 40
1.0
 40
1.0
 10
-375.4224977426503
 20
-396.2580312738532
 30
0.0
 41
1374.757873671347
 10
-375.1910277174863
 20
-393.545465209048
 30
0.0
 41
969.5616472750543
 10
-379.4229187490847
 20
-392.3123699799102
 30
0.0
 41
1372.380064474929
  0
SPLINE
  5
5F
330
1F
100
AcDbEntity
  8
Linee visibili 2D - Tangent
100
AcDbSpline
210
0.0
220
0.0
230
1.0
 70
    12
 71
     2
 72
     6
 73
     3
 74
     0
 42
0.0000000001
 43
0.0000000001
 40
-5.123961130351739
 40
-5.123961130351739
 40
-5.123961130351739
 40
0.0
 40
0.0
 40
0.0
 10
-646.6227514410914
 20
-177.667978485294
 30
0.0
 41
1409.842443330373
 10
-645.8415655452897
 20
-176.5616774129967
 30
0.0
 41
1313.349584345613
 10
-643.915699438968
 20
-177.0639623497032
 30
0.0
 41
1622.970613693088
  0
SPLINE
  5
60
330
1F
100
AcDbEntity
  8
Linee visibili 2D - Tangent
100
AcDbSpline
210
0.0
220
0.0
230
1.0
 70
    12
 71
     2
 72
     6
 73
     3
 74
     0
 42
0.0000000001
 43
0.0000000001
 40
0.0
 40
0.0
 40
0.0
 40
0.6525193221264535
 40
0.6525193221264535
 40
0.6525193221264535
 10
-724.6519245497431
 20
-291.7189858793432
 30
0.0
 41
1479.109398533959
 10
-726.7272637644361
 20
-291.1142701942321
 30
0.0
 41
1196.983854054617
 10
-727.4688409302705
 20
-292.1644593695631
 30
0.0
 41
1285.088278652403
  0
SPLINE
  5
61
330
1F
100
AcDbEntity
  8
Linee visibili 2D - Tangent
100
AcDbSpline
210
0.0
220
0.0
230
1.0
 70
    24
 71
     2
 72
     6
 73
     3
 74
     0
 42
0.0000000001
 43
0.0000000001
 40
0.0
 40
0.0
 40
0.0
 40
46.63877561556318
 40
46.63877561556318
 40
46.63877561556318
 10
-384.5679490547977
 20
-444.4641654375147
 30
0.0
 10
-382.702850147451
 20
-421.2194831683262
 30
0.0
 10
-380.8377512401043
 20
-397.9748008991377
 30
0.0
  0
SPLINE
  5
62
330
1F
100
AcDbEntity
  8
Linee visibili 2D - Tangent
100
AcDbSpline
210
0.0
220
0.0
230
1.0
 70
    24
 71
     2
 72
     6
 73
     3
 74
     0
 42
0.0000000001
 43
0.0000000001
 40
0.0
 40
0.0
 40
0.0
 40
345.0621885726544
 40
345.0621885726544
 40
345.0621885726544
 10
-714.8396152899791
 20
-344.5214795381099
 30
0.0
 10
-549.7037821723884
 20
-394.4928224878123
 30
0.0
 10
-384.5679490547977
 20
-444.4641654375147
 30
0.0
  0
SPLINE
  5
63
330
1F
100
AcDbEntity
  8
Linee visibili 2D - Tangent
100
AcDbSpline
210
0.0
220
0.0
230
1.0
 70
    24
 71
     2
 72
     6
 73
     3
 74
     0
 42
0.0000000001
 43
0.0000000001
 40
0.0
 40
0.0
 40
0.0
 40
48.75028679351629
 40
48.75028679351629
 40
48.75028679351629
 10
-714.8396152899791
 20
-344.5214795381099
 30
0.0
 10
-720.3214824015498
 20
-320.7707585262416
 30
0.0
 10
-725.8033495131206
 20
-297.0200375143734
 30
0.0
  0
SPLINE
  5
64
330
1F
100
AcDbEntity
  8
Linee visibili 2D - Tangent
100
AcDbSpline
210
0.0
220
0.0
230
1.0
 70
    24
 71
     2
 72
     6
 73
     3
 74
     0
 42
0.0000000001
 43
0.0000000001
 40
0.0
 40
0.0
 40
0.0
 40
359.4344561139538
 40
359.4344561139538
 40
359.4344561139538
 10
-380.8377512401043
 20
-397.9748008991377
 30
0.0
 10
-553.3205503766125
 20
-347.4974192067556
 30
0.0
 10
-725.8033495131206
 20
-297.0200375143734
 30
0.0
  0
SPLINE
  5
65
330
1F
100
AcDbEntity
  8
Linee visibili 2D - Tangent
100
AcDbSpline
210
0.0
220
0.0
230
1.0
 70
    24
 71
     2
 72
     6
 73
     3
 74
     0
 42
0.0000000001
 43
0.0000000001
 40
0.0
 40
0.0
 40
0.0
 40
48.04103241840937
 40
48.04103241840937
 40
48.04103241840937
 10
-322.2215655933491
 20
-263.8213659624668
 30
0.0
 10
-325.1116239544295
 20
-287.6673878870187
 30
0.0
 10
-328.0016823155099
 20
-311.5134098115707
 30
0.0
  0
SPLINE
  5
66
330
1F
100
AcDbEntity
  8
Linee visibili 2D - Tangent
100
AcDbSpline
210
0.0
220
0.0
230
1.0
 70
    24
 71
     2
 72
     6
 73
     3
 74
     0
 42
0.0000000001
 43
0.0000000001
 40
0.0
 40
0.0
 40
0.0
 40
140.9581859451539
 40
140.9581859451539
 40
140.9581859451539
 10
-379.39148201242
 20
-442.7700236337322
 30
0.0
 10
-353.6965821639649
 20
-377.1417167226514
 30
0.0
 10
-328.0016823155099
 20
-311.5134098115707
 30
0.0
  0
SPLINE
  5
67
330
1F
100
AcDbEntity
  8
Linee visibili 2D - Tangent
100
AcDbSpline
210
0.0
220
0.0
230
1.0
 70
    24
 71
     2
 72
     6
 73
     3
 74
     0
 42
0.0000000001
 43
0.0000000001
 40
0.0
 40
0.0
 40
0.0
 40
46.68102686765917
 40
46.68102686765917
 40
46.68102686765917
 10
-379.39148201242
 20
-442.7700236337322
 30
0.0
 10
-377.4069898775351
 20
-419.5140274537927
 30
0.0
 10
-375.4224977426503
 20
-396.2580312738532
 30
0.0
  0
SPLINE
  5
68
330
1F
100
AcDbEntity
  8
Linee visibili 2D - Tangent
100
AcDbSpline
210
0.0
220
0.0
230
1.0
 70
    12
 71
     2
 72
     6
 73
     3
 74
     0
 42
0.0000000001
 43
0.0000000001
 40
0.0
 40
0.0
 40
0.0
 40
0.4233527130411593
 40
0.4233527130411593
 40
0.4233527130411593
 10
-384.5679490547978
 20
-444.4641654375148
 30
0.0
 41
1437.70330614458
 10
-384.6355253913749
 20
-445.3063676748629
 30
0.0
 41
1260.507088575158
 10
-384.4486250152465
 20
-445.3621030632886
 30
0.0
 41
1234.506986443717
  0
SPLINE
  5
69
330
1F
100
AcDbEntity
  8
Linee visibili 2D - Tangent
100
AcDbSpline
210
0.0
220
0.0
230
1.0
 70
    12
 71
     2
 72
     6
 73
     3
 74
     0
 42
0.0000000001
 43
0.0000000001
 40
0.5769716479162552
 40
0.5769716479162552
 40
0.5769716479162552
 40
1.0
 40
1.0
 40
1.0
 10
-714.1308423142467
 20
-345.5383398668095
 30
0.0
 41
1326.016512943872
 10
-714.6405123763498
 20
-345.3841122247503
 30
0.0
 41
1354.14819296798
 10
-714.8396152899792
 20
-344.5214795381099
 30
0.0
 41
1544.43264020361
  0
SPLINE
  5
6A
330
1F
100
AcDbEntity
  8
Linee visibili 2D - Tangent
100
AcDbSpline
210
0.0
220
0.0
230
1.0
 70
    12
 71
     2
 72
     6
 73
     3
 74
     0
 42
0.0000000001
 43
0.0000000001
 40
0.0
 40
0.0
 40
0.0
 40
0.4197681324857057
 40
0.4197681324857057
 40
0.4197681324857057
 10
-328.0016823155099
 20
-311.5134098115707
 30
0.0
 41
1.0
 10
-328.0267647119056
 20
-311.7229253498694
 30
0.0
 41
0.9920041694106921
 10
-328.1035091066792
 20
-311.9194862444248
 30
0.0
 41
1.0
  0
SPLINE
  5
6B
330
1F
100
AcDbEntity
  8
Linee visibili 2D - Tangent
100
AcDbSpline
210
0.0
220
0.0
230
1.0
 70
    12
 71
     2
 72
     6
 73
     3
 74
     0
 42
0.0000000001
 43
0.0000000001
 40
0.0
 40
0.0
 40
0.0
 40
0.4027171539443053
 40
0.4027171539443053
 40
0.4027171539443053
 10
-379.4817122207362
 20
-443.1610664128902
 30
0.0
 41
1.0
 10
-379.4081523474103
 20
-442.9721084419044
 30
0.0
 41
0.9895826221073117
 10
-379.39148201242
 20
-442.7700236337322
 30
0.0
 41
1.0
  0
SPLINE
  5
6C
330
1F
100
AcDbEntity
  8
Linee visibili 2D - Tangent
100
AcDbSpline
210
0.0
220
0.0
230
1.0
 70
    12
 71
     2
 72
     6
 73
     3
 74
     0
 42
0.0000000001
 43
0.0000000001
 40
0.0
 40
0.0
 40
0.0
 40
1.0
 40
1.0
 40
1.0
 10
-725.8033495131205
 20
-297.0200375143734
 30
0.0
 41
1479.801074519633
 10
-726.4405948929071
 20
-294.2591100924946
 30
0.0
 41
1043.838406912407
 10
-724.6519245497431
 20
-291.7189858793432
 30
0.0
 41
1479.109398533959
  0
SPLINE
  5
6D
330
1F
100
AcDbEntity
  8
Linee visibili 2D - Tangent
100
AcDbSpline
210
0.0
220
0.0
230
1.0
 70
    12
 71
     2
 72
     6
 73
     3
 74
     0
 42
0.0000000001
 43
0.0000000001
 40
0.0
 40
0.0
 40
0.0
 40
1.0
 40
1.0
 40
1.0
 10
-379.4229187490847
 20
-392.3123699799102
 30
0.0
 41
1372.380064474929
 10
-380.6201944776328
 20
-395.2633962657103
 30
0.0
 41
968.3693710477435
 10
-380.8377512401043
 20
-397.9748008991376
 30
0.0
 41
1373.071740460602
  0
SPLINE
  5
6E
330
1F
100
AcDbEntity
  8
Linee visibili 2D - Tangent
100
AcDbSpline
210
0.0
220
0.0
230
1.0
 70
    12
 71
     2
 72
     6
 73
     3
 74
     0
 42
0.0000000001
 43
0.0000000001
 40
0.3954065825637442
 40
0.3954065825637442
 40
0.3954065825637442
 40
1.0
 40
1.0
 40
1.0
 10
-728.0166635103864
 20
-295.0705309756004
 30
0.0
 41
1274.485383723475
 10
-727.6921653741396
 20
-296.467272371179
 30
0.0
 41
1218.27445952269
 10
-725.8033495131205
 20
-297.0200375143734
 30
0.0
 41
1479.801074519633
  0
SPLINE
  5
6F
330
1F
100
AcDbEntity
  8
Linee visibili 2D - Tangent
100
AcDbSpline
210
0.0
220
0.0
230
1.0
 70
    12
 71
     2
 72
     6
 73
     3
 74
     0
 42
0.0000000001
 43
0.0000000001
 40
0.0
 40
0.0
 40
0.0
 40
0.6045924861286962
 40
0.6045924861286962
 40
0.6045924861286962
 10
-714.8396152899792
 20
-344.5214795381099
 30
0.0
 41
1544.43264020361
 10
-716.6538876457656
 20
-343.9724671015998
 30
0.0
 41
1271.46140323364
 10
-716.9762077421872
 20
-342.5851214596079
 30
0.0
 41
1330.065878610526
  0
SPLINE
  5
70
330
1F
100
AcDbEntity
  8
Linee visibili 2D - Tangent
100
AcDbSpline
210
0.0
220
0.0
230
1.0
 70
    12
 71
     2
 72
     6
 73
     3
 74
     0
 42
0.0000000001
 43
0.0000000001
 40
0.0
 40
0.0
 40
0.0
 40
1.0
 40
1.0
 40
1.0
 10
-380.8377512401043
 20
-397.9748008991376
 30
0.0
 41
1373.071740460602
 10
-376.6092447062811
 20
-399.2122804586359
 30
0.0
 41
970.0507360550055
 10
-375.4224977426503
 20
-396.2580312738532
 30
0.0
 41
1374.757873671347
  0
SPLINE
  5
71
330
1F
100
AcDbEntity
  8
Linee visibili 2D - Tangent
100
AcDbSpline
210
0.0
220
0.0
230
1.0
 70
    12
 71
     2
 72
     6
 73
     3
 74
     0
 42
0.0000000001
 43
0.0000000001
 40
0.0
 40
0.0
 40
0.0
 40
1.0
 40
1.0
 40
1.0
 10
-379.3914820124199
 20
-442.7700236337322
 30
0.0
 41
1439.389439355325
 10
-380.5328438078802
 20
-445.6852185810092
 30
0.0
 41
1015.752154428833
 10
-384.5679490547978
 20
-444.4641654375148
 30
0.0
 41
1437.70330614458
  0
SPLINE
  5
72
330
1F
100
AcDbEntity
  8
Linee visibili 2D - Tangent
100
AcDbSpline
210
0.0
220
0.0
230
1.0
 70
    24
 71
     2
 72
     6
 73
     3
 74
     0
 42
0.0000000001
 43
0.0000000001
 40
0.0
 40
0.0
 40
0.0
 40
14.33874236888293
 40
14.33874236888293
 40
14.33874236888293
 10
-628.6272176423745
 20
-167.1498573156075
 30
0.0
 10
-632.7269674288303
 20
-173.0313481868709
 30
0.0
 10
-636.8267172152862
 20
-178.9128390581343
 30
0.0
  0
SPLINE
  5
73
330
1F
100
AcDbEntity
  8
Linee visibili 2D - Tangent
100
AcDbSpline
210
0.0
220
0.0
230
1.0
 70
    24
 71
     2
 72
     6
 73
     3
 74
     0
 42
0.0000000001
 43
0.0000000001
 40
0.0
 40
0.0
 40
0.0
 40
32.20903702732505
 40
32.20903702732505
 40
32.20903702732505
 10
-628.6272176423745
 20
-167.1498573156075
 30
0.0
 10
-619.4179725581411
 20
-153.9382971679405
 30
0.0
 10
-610.2087274739076
 20
-140.7267370202736
 30
0.0
  0
SPLINE
  5
74
330
1F
100
AcDbEntity
  8
Linee visibili 2D - Tangent
100
AcDbSpline
210
0.0
220
0.0
230
1.0
 70
    24
 71
     2
 72
     6
 73
     3
 74
     0
 42
0.0000000001
 43
0.0000000001
 40
0.0
 40
0.0
 40
0.0
 40
34.7472164784274
 40
34.7472164784274
 40
34.7472164784274
 10
-610.2087274739076
 20
-140.7267370202736
 30
0.0
 10
-600.2737631881614
 20
-126.4740619067862
 30
0.0
 10
-590.3387989024152
 20
-112.2213867932989
 30
0.0
  0
SPLINE
  5
75
330
1F
100
AcDbEntity
  8
Linee visibili 2D - Tangent
100
AcDbSpline
210
0.0
220
0.0
230
1.0
 70
    12
 71
     3
 72
    11
 73
     7
 74
     0
 42
0.0000000001
 43
0.0000000001
 40
0.0
 40
0.0
 40
0.0
 40
0.0
 40
3.299661081976538
 40
6.599322163953075
 40
9.898983245929614
 40
12.08659995249271
 40
12.08659995249271
 40
12.08659995249271
 40
12.08659995249271
 10
-590.3387989024152
 20
-112.2213867932989
 30
0.0
 41
1717.440247718824
 10
-589.8280814116888
 20
-111.4887127483059
 30
0.0
 41
1718.57056272984
 10
-588.8090931692436
 20
-110.0283860142903
 30
0.0
 41
1720.827889978715
 10
-587.2830323056445
 20
-107.8323126177304
 30
0.0
 41
1724.233697490975
 10
-585.9158031192098
 20
-105.8929505856519
 30
0.0
 41
1727.252610220214
 10
-585.1013580721811
 20
-104.6842162095768
 30
0.0
 41
1729.139543122759
 10
-584.7529643304983
 20
-104.2079623761182
 30
0.0
 41
1729.884146890291
  0
SPLINE
  5
76
330
1F
100
AcDbEntity
  8
Linee visibili 2D - Tangent
100
AcDbSpline
210
0.0
220
0.0
230
1.0
 70
     8
 71
     3
 72
    16
 73
    12
 74
     0
 42
0.0000000001
 43
0.0000000001
 40
0.0
 40
0.0
 40
0.0
 40
0.0
 40
4.647907620298535
 40
10.08013927570212
 40
16.0399441689309
 40
22.77906423033385
 40
29.97834136641511
 40
37.28909804621433
 40
44.95304641648325
 40
48.52289803060111
 40
52.43515988177339
 40
52.43515988177339
 40
52.43515988177339
 40
52.43515988177339
 10
-584.7529643304983
 20
-104.2079623761182
 30
0.0
 10
-583.8454552708987
 20
-102.9506588591111
 30
0.0
 10
-581.471802062618
 20
-100.5360459988715
 30
0.0
 10
-576.9391921094114
 20
-97.64904395605168
 30
0.0
 10
-571.3375124495274
 20
-95.33498121688291
 30
0.0
 10
-564.8993006178043
 20
-93.68171694318187
 30
0.0
 10
-557.8642482524365
 20
-92.76649047433256
 30
0.0
 10
-550.4657040372331
 20
-92.59035023271753
 30
0.0
 10
-544.2947411521332
 20
-93.0734201367112
 30
0.0
 10
-539.3032218462195
 20
-93.83925091668533
 30
0.0
 10
-536.8621875631541
 20
-94.35709408182788
 30
0.0
 10
-535.5904688212617
 20
-94.64465743742915
 30
0.0
  0
SPLINE
  5
77
330
1F
100
AcDbEntity
  8
Linee visibili 2D - Tangent
100
AcDbSpline
210
0.0
220
0.0
230
1.0
 70
    12
 71
     2
 72
     6
 73
     3
 74
     0
 42
0.0000000001
 43
0.0000000001
 40
0.0
 40
0.0
 40
0.0
 40
5.119721993222991
 40
5.119721993222991
 40
5.119721993222991
 10
-535.5904688212615
 20
-94.64465743742909
 30
0.0
 41
1.0
 10
-533.097550262616
 20
-95.22631588774644
 30
0.0
 41
0.9999907098318763
 10
-530.609738751353
 20
-95.82944388186752
 30
0.0
 41
1.0
  0
SPLINE
  5
78
330
1F
100
AcDbEntity
  8
Linee visibili 2D - Tangent
100
AcDbSpline
210
0.0
220
0.0
230
1.0
 70
    12
 71
     2
 72
     6
 73
     3
 74
     0
 42
0.0000000001
 43
0.0000000001
 40
0.0
 40
0.0
 40
0.0
 40
0.427301714798668
 40
0.427301714798668
 40
0.427301714798668
 10
-530.609738751353
 20
-95.82944388186758
 30
0.0
 41
1.0
 10
-530.4012292057389
 20
-95.87603352590295
 30
0.0
 41
0.9999977543441362
 10
-530.1929190047415
 20
-95.92350652563937
 30
0.0
 41
1.0
  0
SPLINE
  5
79
330
1F
100
AcDbEntity
  8
Linee visibili 2D - Tangent
100
AcDbSpline
210
0.0
220
0.0
230
1.0
 70
     8
 71
     3
 72
    10
 73
     6
 74
     0
 42
0.0000000001
 43
0.0000000001
 40
0.0
 40
0.0
 40
0.0
 40
0.0
 40
1.337394360667273
 40
5.27329374329987
 40
97.38108315209814
 40
97.38108315209814
 40
97.38108315209814
 40
97.38108315209814
 10
-530.1929190047415
 20
-95.92350652563937
 30
0.0
 10
-529.7567633941211
 20
-96.01626647763385
 30
0.0
 10
-528.0494084478751
 20
-96.434302685619
 30
0.0
 10
-496.4632242537076
 20
-103.9167900329459
 30
0.0
 10
-465.3108453088088
 20
-111.2966164657331
 30
0.0
 10
-435.4351059677614
 20
-118.3740122381229
 30
0.0
  0
SPLINE
  5
7A
330
1F
100
AcDbEntity
  8
Linee visibili 2D - Tangent
100
AcDbSpline
210
0.0
220
0.0
230
1.0
 70
     8
 71
     3
 72
    10
 73
     6
 74
     0
 42
0.0000000001
 43
0.0000000001
 40
0.0
 40
0.0
 40
0.0
 40
0.0
 40
1.447277851084489
 40
5.713006875354621
 40
101.4486792219574
 40
101.4486792219574
 40
101.4486792219574
 40
101.4486792219574
 10
-336.7180681637759
 20
-141.7572037872878
 30
0.0
 10
-337.1850294616912
 20
-141.6355885784041
 30
0.0
 10
-339.0412183200478
 20
-141.2099793859383
 30
0.0
 10
-371.946654999407
 20
-133.4145326354662
 30
0.0
 10
-404.3826888075308
 20
-125.7303740948921
 30
0.0
 10
-435.4351059677614
 20
-118.3740122381229
 30
0.0
  0
SPLINE
  5
7B
330
1F
100
AcDbEntity
  8
Linee visibili 2D - Tangent
100
AcDbSpline
210
0.0
220
0.0
230
1.0
 70
    12
 71
     2
 72
     6
 73
     3
 74
     0
 42
0.0000000001
 43
0.0000000001
 40
0.0
 40
0.0
 40
0.0
 40
0.4610895769474815
 40
0.4610895769474815
 40
0.4610895769474815
 10
-336.2705146448784
 20
-141.8681052997408
 30
0.0
 41
1.0
 10
-336.4941772719362
 20
-141.8121939514803
 30
0.0
 41
0.9999978817778326
 10
-336.7180681637759
 20
-141.7572037872878
 30
0.0
 41
1.0
  0
SPLINE
  5
7C
330
1F
100
AcDbEntity
  8
Linee visibili 2D - Tangent
100
AcDbSpline
210
0.0
220
0.0
230
1.0
 70
    12
 71
     2
 72
     6
 73
     3
 74
     0
 42
0.0000000001
 43
0.0000000001
 40
0.0
 40
0.0
 40
0.0
 40
5.573290939050375
 40
5.573290939050375
 40
5.573290939050375
 10
-330.8462029803035
 20
-143.148042174928
 30
0.0
 41
1.0
 10
-333.5557168649551
 20
-142.4968772887784
 30
0.0
 41
0.9999914788982155
 10
-336.2705146448784
 20
-141.8681052997408
 30
0.0
 41
1.0
  0
SPLINE
  5
7D
330
1F
100
AcDbEntity
  8
Linee visibili 2D - Tangent
100
AcDbSpline
210
0.0
220
0.0
230
1.0
 70
     8
 71
     3
 72
    16
 73
    12
 74
     0
 42
0.0000000001
 43
0.0000000001
 40
0.0
 40
0.0
 40
0.0
 40
0.0
 40
4.288707985796889
 40
8.725870786052305
 40
13.67123275877074
 40
19.4476971922097
 40
25.94341059603326
 40
33.12639064750918
 40
40.84737287363186
 40
44.58925038229336
 40
48.79357857881315
 40
48.79357857881315
 40
48.79357857881315
 40
48.79357857881315
 10
-298.8969171627467
 20
-173.2505844944446
 30
0.0
 10
-298.3763741923698
 20
-171.9207678414942
 30
0.0
 10
-297.8057314343758
 20
-169.0144286775483
 30
0.0
 10
-298.6147712703522
 20
-164.4602293163866
 30
0.0
 10
-301.0046723370479
 20
-159.9556246678555
 30
0.0
 10
-304.8315401782713
 20
-155.6376317558565
 30
0.0
 10
-309.9723164849649
 20
-151.6488017081631
 30
0.0
 10
-316.1936692973918
 20
-148.1286803045258
 30
0.0
 10
-321.9508679317047
 20
-145.7577027695845
 30
0.0
 10
-326.9211595090966
 20
-144.1523133366547
 30
0.0
 10
-329.4862364723911
 20
-143.4847587321556
 30
0.0
 10
-330.8462029803036
 20
-143.1480421749279
 30
0.0
  0
SPLINE
  5
7E
330
1F
100
AcDbEntity
  8
Linee visibili 2D - Tangent
100
AcDbSpline
210
0.0
220
0.0
230
1.0
 70
    12
 71
     3
 72
    11
 73
     7
 74
     0
 42
0.0000000001
 43
0.0000000001
 40
0.0
 40
0.0
 40
0.0
 40
0.0
 40
3.299661081976538
 40
6.599322163953075
 40
9.898983245929614
 40
12.0865999525005
 40
12.0865999525005
 40
12.0865999525005
 40
12.0865999525005
 10
-302.6326493682198
 20
-182.2998432583697
 30
0.0
 41
1615.793892709998
 10
-302.2909478442921
 20
-181.4721218533083
 30
0.0
 41
1616.924207721014
 10
-301.6108863900525
 20
-179.8220615510251
 30
0.0
 41
1619.182212657082
 10
-300.5829147117427
 20
-177.3441363265158
 30
0.0
 41
1622.584970576983
 10
-299.6923237340359
 20
-175.1472297363969
 30
0.0
 41
1625.613808985475
 10
-299.104567183701
 20
-173.7958362379956
 30
0.0
 41
1627.482576329112
 10
-298.8969171627466
 20
-173.2505844944446
 30
0.0
 41
1628.237791881473
  0
SPLINE
  5
7F
330
1F
100
AcDbEntity
  8
Linee visibili 2D - Tangent
100
AcDbSpline
210
0.0
220
0.0
230
1.0
 70
    24
 71
     2
 72
     6
 73
     3
 74
     0
 42
0.0000000001
 43
0.0000000001
 40
0.0
 40
0.0
 40
0.0
 40
38.98329576133868
 40
38.98329576133868
 40
38.98329576133868
 10
-302.6326493682198
 20
-182.2998432583697
 30
0.0
 10
-310.0703734427457
 20
-200.316629811338
 30
0.0
 10
-317.5080975172716
 20
-218.3334163643063
 30
0.0
  0
SPLINE
  5
80
330
1F
100
AcDbEntity
  8
Linee visibili 2D - Tangent
100
AcDbSpline
210
0.0
220
0.0
230
1.0
 70
    24
 71
     2
 72
     6
 73
     3
 74
     0
 42
0.0000000001
 43
0.0000000001
 40
0.0
 40
0.0
 40
0.0
 40
28.36231563751533
 40
28.36231563751533
 40
28.36231563751533
 10
-317.5080975172716
 20
-218.3334163643063
 30
0.0
 10
-322.9194172558059
 20
-231.4415381125912
 30
0.0
 10
-328.3307369943402
 20
-244.5496598608762
 30
0.0
  0
SPLINE
  5
81
330
1F
100
AcDbEntity
  8
Linee visibili 2D - Tangent
100
AcDbSpline
210
0.0
220
0.0
230
1.0
 70
    24
 71
     2
 72
     6
 73
     3
 74
     0
 42
0.0000000001
 43
0.0000000001
 40
0.0
 40
0.0
 40
0.0
 40
14.47664489665286
 40
14.47664489665286
 40
14.47664489665286
 10
-333.8548102243404
 20
-257.930910266327
 30
0.0
 10
-331.0927736093403
 20
-251.2402850636016
 30
0.0
 10
-328.3307369943402
 20
-244.5496598608762
 30
0.0
  0
SPLINE
  5
82
330
1F
100
AcDbEntity
  8
Linee visibili 2D - Tangent
100
AcDbSpline
210
0.0
220
0.0
230
1.0
 70
    24
 71
     2
 72
     6
 73
     3
 74
     0
 42
0.0000000001
 43
0.0000000001
 40
0.0
 40
0.0
 40
0.0
 40
53.33889483927474
 40
53.33889483927474
 40
53.33889483927474
 10
-305.7061568674179
 20
-210.6164608172141
 30
0.0
 10
-315.7325758950802
 20
-235.3294199105832
 30
0.0
 10
-325.7589949227425
 20
-260.0423790039523
 30
0.0
  0
SPLINE
  5
83
330
1F
100
AcDbEntity
  8
Linee visibili 2D - Tangent
100
AcDbSpline
210
0.0
220
0.0
230
1.0
 70
    24
 71
     2
 72
     6
 73
     3
 74
     0
 42
0.0000000001
 43
0.0000000001
 40
0.0
 40
0.0
 40
0.0
 40
29.50315754627769
 40
29.50315754627769
 40
29.50315754627769
 10
-305.7061568674179
 20
-210.6164608172141
 30
0.0
 10
-300.1602785531131
 20
-196.9470676330584
 30
0.0
 10
-294.6144002388083
 20
-183.2776744489026
 30
0.0
  0
SPLINE
  5
84
330
1F
100
AcDbEntity
  8
Linee visibili 2D - Tangent
100
AcDbSpline
210
0.0
220
0.0
230
1.0
 70
    12
 71
     3
 72
     9
 73
     5
 74
     0
 42
0.0000000001
 43
0.0000000001
 40
-128.5401417943583
 40
-128.5401417943583
 40
-128.5401417943583
 40
-128.5401417943583
 40
-125.2442407227081
 40
-121.9483603409679
 40
-121.9483603409679
 40
-121.9483603409679
 40
-121.9483603409679
 10
-294.6144002388083
 20
-183.2776744489026
 30
0.0
 41
1614.460626140282
 10
-294.1981386737343
 20
-182.2516794120112
 30
0.0
 41
1615.859620712864
 10
-293.3735710779678
 20
-180.2013873440357
 30
0.0
 41
1618.662570823317
 10
-292.5287069120702
 20
-178.1726495833942
 30
0.0
 41
1621.44564200645
 10
-292.1303358056726
 20
-177.1549917092318
 30
0.0
 41
1622.845296993577
  0
SPLINE
  5
85
330
1F
100
AcDbEntity
  8
Linee visibili 2D - Tangent
100
AcDbSpline
210
0.0
220
0.0
230
1.0
 70
    24
 71
     2
 72
     6
 73
     3
 74
     0
 42
0.0000000001
 43
0.0000000001
 40
0.0
 40
0.0
 40
0.0
 40
0.5609196858958093
 40
0.5609196858958093
 40
0.5609196858958093
 10
-291.9238318849352
 20
-176.6334679564213
 30
0.0
 10
-292.0270838453039
 20
-176.8942298328266
 30
0.0
 10
-292.1303358056726
 20
-177.1549917092318
 30
0.0
  0
SPLINE
  5
86
330
1F
100
AcDbEntity
  8
Linee visibili 2D - Tangent
100
AcDbSpline
210
0.0
220
0.0
230
1.0
 70
    24
 71
     2
 72
     6
 73
     3
 74
     0
 42
0.0000000001
 43
0.0000000001
 40
0.0
 40
0.0
 40
0.0
 40
27.99183767344738
 40
27.99183767344738
 40
27.99183767344738
 10
-281.3958911554972
 20
-150.6969022559654
 30
0.0
 10
-286.6598615202162
 20
-163.6651851061933
 30
0.0
 10
-291.9238318849352
 20
-176.6334679564213
 30
0.0
  0
SPLINE
  5
87
330
1F
100
AcDbEntity
  8
Linee visibili 2D - Tangent
100
AcDbSpline
210
0.0
220
0.0
230
1.0
 70
    24
 71
     2
 72
     6
 73
     3
 74
     0
 42
0.0000000001
 43
0.0000000001
 40
0.0
 40
0.0
 40
0.0
 40
303.0361507115281
 40
303.0361507115281
 40
303.0361507115281
 10
-281.3958911554972
 20
-150.6969022559654
 30
0.0
 10
-428.8614897460703
 20
-115.8885068341859
 30
0.0
 10
-576.3270883366434
 20
-81.0801114124065
 30
0.0
  0
SPLINE
  5
88
330
1F
100
AcDbEntity
  8
Linee visibili 2D - Tangent
100
AcDbSpline
210
0.0
220
0.0
230
1.0
 70
    24
 71
     2
 72
     6
 73
     3
 74
     0
 42
0.0000000001
 43
0.0000000001
 40
0.0
 40
0.0
 40
0.0
 40
27.96666738037307
 40
27.96666738037307
 40
27.96666738037307
 10
-592.4256070833064
 20
-103.9486963823552
 30
0.0
 10
-584.3763477099749
 20
-92.51440389738084
 30
0.0
 10
-576.3270883366434
 20
-81.0801114124065
 30
0.0
  0
SPLINE
  5
89
330
1F
100
AcDbEntity
  8
Linee visibili 2D - Tangent
100
AcDbSpline
210
0.0
220
0.0
230
1.0
 70
    24
 71
     2
 72
     6
 73
     3
 74
     0
 42
0.0000000001
 43
0.0000000001
 40
0.0
 40
0.0
 40
0.0
 40
0.5619208342956702
 40
0.5619208342956702
 40
0.5619208342956702
 10
-592.7523136244015
 20
-104.4058810934089
 30
0.0
 10
-592.588960353854
 20
-104.177288737882
 30
0.0
 10
-592.4256070833064
 20
-103.9486963823552
 30
0.0
  0
SPLINE
  5
8A
330
1F
100
AcDbEntity
  8
Linee visibili 2D - Tangent
100
AcDbSpline
210
0.0
220
0.0
230
1.0
 70
    12
 71
     3
 72
     9
 73
     5
 74
     0
 42
0.0000000001
 43
0.0000000001
 40
-128.5401417943583
 40
-128.5401417943583
 40
-128.5401417943583
 40
-128.5401417943583
 40
-125.2442407227081
 40
-121.9483603409678
 40
-121.9483603409678
 40
-121.9483603409678
 40
-121.9483603409678
 10
-596.5468050555576
 20
-109.7945093544567
 30
0.0
 41
1721.189960199313
 10
-595.9111210907565
 20
-108.8917627258854
 30
0.0
 41
1722.588954744265
 10
-594.6357734400907
 20
-107.0902989490313
 30
0.0
 41
1725.387507672133
 10
-593.3928138303461
 20
-105.2961368572194
 30
0.0
 41
1728.183770126746
 10
-592.7523136244013
 20
-104.4058810934089
 30
0.0
 41
1729.574631052607
  0
SPLINE
  5
8B
330
1F
100
AcDbEntity
  8
Linee visibili 2D - Tangent
100
AcDbSpline
210
0.0
220
0.0
230
1.0
 70
    24
 71
     2
 72
     6
 73
     3
 74
     0
 42
0.0000000001
 43
0.0000000001
 40
0.0
 40
0.0
 40
0.0
 40
36.92004959976035
 40
36.92004959976035
 40
36.92004959976035
 10
-617.803392361048
 20
-139.9813866121796
 30
0.0
 10
-607.1750987083028
 20
-124.8879479833182
 30
0.0
 10
-596.5468050555576
 20
-109.7945093544567
 30
0.0
  0
SPLINE
  5
8C
330
1F
100
AcDbEntity
  8
Linee visibili 2D - Tangent
100
AcDbSpline
210
0.0
220
0.0
230
1.0
 70
    24
 71
     2
 72
     6
 73
     3
 74
     0
 42
0.0000000001
 43
0.0000000001
 40
0.0
 40
0.0
 40
0.0
 40
45.35383119716311
 40
45.35383119716311
 40
45.35383119716311
 10
-617.803392361048
 20
-139.9813866121796
 30
0.0
 10
-630.859545900008
 20
-158.5226744809414
 30
0.0
 10
-643.915699438968
 20
-177.0639623497032
 30
0.0
  0
SPLINE
  5
8D
330
1F
100
AcDbEntity
  8
Linee visibili 2D - Tangent
100
AcDbSpline
210
0.0
220
0.0
230
1.0
 70
    24
 71
     2
 72
     6
 73
     3
 74
     0
 42
0.0000000001
 43
0.0000000001
 40
0.0
 40
0.0
 40
0.0
 40
118.0220599930992
 40
118.0220599930992
 40
118.0220599930992
 10
-322.2215655933491
 20
-263.8213659624668
 30
0.0
 10
-300.2247936065202
 20
-209.0633192166858
 30
0.0
 10
-278.2280216196912
 20
-154.3052724709048
 30
0.0
  0
SPLINE
  5
8E
330
1F
100
AcDbEntity
  8
Linee visibili 2D - Tangent
100
AcDbSpline
210
0.0
220
0.0
230
1.0
 70
    12
 71
     2
 72
     6
 73
     3
 74
     0
 42
0.0000000001
 43
0.0000000001
 40
0.0
 40
0.0
 40
0.0
 40
1.0
 40
1.0
 40
1.0
 10
-278.2280216196912
 20
-154.3052724709048
 30
0.0
 41
1662.480303989605
 10
-277.8263223690393
 20
-151.5394781719207
 30
0.0
 41
1173.012128852542
 10
-281.3958911554972
 20
-150.6969022559654
 30
0.0
 41
1660.102494793186
  0
SPLINE
  5
8F
330
1F
100
AcDbEntity
  8
Linee visibili 2D - Tangent
100
AcDbSpline
210
0.0
220
0.0
230
1.0
 70
    12
 71
     2
 72
     6
 73
     3
 74
     0
 42
0.0000000001
 43
0.0000000001
 40
0.0
 40
0.0
 40
0.0
 40
0.6525224582232195
 40
0.6525224582232195
 40
0.6525224582232195
 10
-576.3270883366433
 20
-81.08011141240647
 30
0.0
 41
1766.831828852217
 10
-578.1226641919973
 20
-80.65627619266554
 30
0.0
 41
1429.715589287491
 10
-578.9212832003825
 20
-81.78727586594434
 30
0.0
 41
1534.596435078309
  0
SPLINE
  5
90
330
1F
100
AcDbEntity
  8
Linee visibili 2D - Tangent
100
AcDbSpline
210
0.0
220
0.0
230
1.0
 70
    24
 71
     2
 72
     6
 73
     3
 74
     0
 42
0.0000000001
 43
0.0000000001
 40
0.0
 40
0.0
 40
0.0
 40
117.4757280074078
 40
117.4757280074078
 40
117.4757280074078
 10
-285.1729945662335
 20
-202.1230529397448
 30
0.0
 10
-306.5873384408717
 20
-256.8182313756578
 30
0.0
 10
-328.0016823155099
 20
-311.5134098115707
 30
0.0
  0
SPLINE
  5
91
330
1F
100
AcDbEntity
  8
Linee visibili 2D - Tangent
100
AcDbSpline
210
0.0
220
0.0
230
1.0
 70
    24
 71
     2
 72
     6
 73
     3
 74
     0
 42
0.0000000001
 43
0.0000000001
 40
0.0
 40
0.0
 40
0.0
 40
48.31948652660105
 40
48.31948652660105
 40
48.31948652660105
 10
-285.1729945662335
 20
-202.1230529397448
 30
0.0
 10
-281.7005080929623
 20
-178.2141627053248
 30
0.0
 10
-278.2280216196912
 20
-154.3052724709048
 30
0.0
  0
SPLINE
  5
92
330
1F
100
AcDbEntity
  8
Linee visibili 2D - Tangent
100
AcDbSpline
210
0.0
220
0.0
230
1.0
 70
    12
 71
     2
 72
     6
 73
     3
 74
     0
 42
0.0000000001
 43
0.0000000001
 40
0.0
 40
0.0
 40
0.0
 40
0.4258960399670562
 40
0.4258960399670562
 40
0.4258960399670562
 10
-285.2814645835916
 20
-202.5339404550656
 30
0.0
 41
1.0
 10
-285.2035750582829
 20
-202.3347412430137
 30
0.0
 41
0.9934367306716959
 10
-285.1729945662335
 20
-202.1230529397448
 30
0.0
 41
1.0
  0
SPLINE
  5
93
330
1F
100
AcDbEntity
  8
Linee visibili 2D - Tangent
100
AcDbSpline
210
0.0
220
0.0
230
1.0
 70
    12
 71
     2
 72
     6
 73
     3
 74
     0
 42
0.0000000001
 43
0.0000000001
 40
0.578467555842572
 40
0.578467555842572
 40
0.578467555842572
 40
1.0
 40
1.0
 40
1.0
 10
-575.5181585061986
 20
-80.56691593577928
 30
0.0
 41
1516.610703160475
 10
-575.9018891291839
 20
-80.47627806412791
 30
0.0
 41
1549.555804288831
 10
-576.3270883366433
 20
-81.08011141240647
 30
0.0
 41
1766.831828852217
  0
SPLINE
  5
94
330
1F
100
AcDbEntity
  8
Linee visibili 2D - Tangent
100
AcDbSpline
210
0.0
220
0.0
230
1.0
 70
    12
 71
     2
 72
     6
 73
     3
 74
     0
 42
0.0000000001
 43
0.0000000001
 40
0.0
 40
0.0
 40
0.0
 40
0.4375
 40
0.4375
 40
0.4375
 10
-281.3958911554972
 20
-150.6969022559654
 30
0.0
 41
1660.102494793186
 10
-281.1063552025265
 20
-149.9832586168869
 30
0.0
 41
1448.27248288884
 10
-280.9701696097825
 20
-150.049314290163
 30
0.0
 41
1423.035883140742
  0
SPLINE
  5
95
330
1F
100
AcDbEntity
  8
Linee visibili 2D - Tangent
100
AcDbSpline
210
0.0
220
0.0
230
1.0
 70
    12
 71
     2
 72
     6
 73
     3
 74
     0
 42
0.0000000001
 43
0.0000000001
 40
0.0
 40
0.0
 40
0.0
 40
0.2990666547817719
 40
0.2990666547817719
 40
0.2990666547817719
 10
-278.1501233680044
 20
-154.0172612244968
 30
0.0
 41
1.0
 10
-278.1718368358296
 20
-154.1659285671408
 30
0.0
 41
0.9929135092750657
 10
-278.2280216196912
 20
-154.3052724709048
 30
0.0
 41
1.0
  0
SPLINE
  5
96
330
1F
100
AcDbEntity
  8
Linee visibili 2D - Tangent
100
AcDbSpline
210
0.0
220
0.0
230
1.0
 70
    12
 71
     2
 72
     6
 73
     3
 74
     0
 42
0.0000000001
 43
0.0000000001
 40
0.0
 40
0.0
 40
0.0
 40
0.2993599230499458
 40
0.2993599230499458
 40
0.2993599230499458
 10
-285.1729945662335
 20
-202.1230529397448
 30
0.0
 41
1.0
 10
-285.1180420564249
 20
-201.9831163968626
 30
0.0
 41
0.9934308652491366
 10
-285.096345343009
 20
-201.8343505842745
 30
0.0
 41
1.0
  0
SPLINE
  5
97
330
1F
100
AcDbEntity
  8
Linee visibili 2D
100
AcDbSpline
210
0.0
220
0.0
230
1.0
 70
    24
 71
     2
 72
     6
 73
     3
 74
     0
 42
0.0000000001
 43
0.0000000001
 40
0.0
 40
0.0
 40
0.0
 40
140.0611544626298
 40
140.0611544626298
 40
140.0611544626298
 10
-727.4103814647754
 20
-292.0816674477251
 30
0.0
 10
-687.0165730395092
 20
-234.8748322944494
 30
0.0
 10
-646.6227646142431
 20
-177.6679971411737
 30
0.0
  0
SPLINE
  5
98
330
1F
100
AcDbEntity
  8
Linee visibili 2D
100
AcDbSpline
210
0.0
220
0.0
230
1.0
 70
    24
 71
     2
 72
     6
 73
     3
 74
     0
 42
0.0000000001
 43
0.0000000001
 40
0.0
 40
0.0
 40
0.0
 40
344.4172629422064
 40
344.4172629422064
 40
344.4172629422064
 10
-384.4929413862191
 20
-445.3486853647677
 30
0.0
 10
-549.3118920016266
 20
-395.4435125749046
 30
0.0
 10
-714.1308426170341
 20
-345.5383397850416
 30
0.0
  0
SPLINE
  5
99
330
1F
100
AcDbEntity
  8
Linee visibili 2D
100
AcDbSpline
210
0.0
220
0.0
230
1.0
 70
    24
 71
     2
 72
     6
 73
     3
 74
     0
 42
0.0000000001
 43
0.0000000001
 40
0.0
 40
0.0
 40
0.0
 40
140.7589465712688
 40
140.7589465712688
 40
140.7589465712688
 10
-328.1035091048182
 20
-311.9194862423753
 30
0.0
 10
-353.759617507846
 20
-377.4559979101121
 30
0.0
 10
-379.4157259108739
 20
-442.9925095778489
 30
0.0
  0
SPLINE
  5
9A
330
1F
100
AcDbEntity
  8
Linee visibili 2D
100
AcDbSpline
210
0.0
220
0.0
230
1.0
 70
    24
 71
     2
 72
     6
 73
     3
 74
     0
 42
0.0000000001
 43
0.0000000001
 40
0.0
 40
0.0
 40
0.0
 40
48.58837675663701
 40
48.58837675663701
 40
48.58837675663701
 10
-716.976207724051
 20
-342.5851215412897
 30
0.0
 10
-722.4747046883776
 20
-318.9213492280148
 30
0.0
 10
-727.9732016527043
 20
-295.2575769147398
 30
0.0
  0
SPLINE
  5
9B
330
1F
100
AcDbEntity
  8
Linee visibili 2D
100
AcDbSpline
210
0.0
220
0.0
230
1.0
 70
     8
 71
     3
 72
    11
 73
     7
 74
     0
 42
0.0000000001
 43
0.0000000001
 40
0.0
 40
0.0
 40
0.0
 40
0.0
 40
0.5065322130895886
 40
1.007555294135853
 40
1.999568773876049
 40
3.977765127945721
 40
3.977765127945721
 40
3.977765127945721
 40
3.977765127945721
 10
-714.2485829974884
 20
-345.5008306858019
 30
0.0
 10
-714.4086648301558
 20
-345.4471475639768
 30
0.0
 10
-714.7209792668581
 20
-345.3221010938298
 30
0.0
 10
-715.3070579733281
 20
-345.0020983415545
 30
0.0
 10
-716.2185800273468
 20
-344.277519124838
 30
0.0
 10
-716.7465232293179
 20
-343.4047496259365
 30
0.0
 10
-716.9282145868689
 20
-342.7699415666832
 30
0.0
  0
SPLINE
  5
9C
330
1F
100
AcDbEntity
  8
Linee visibili 2D
100
AcDbSpline
210
0.0
220
0.0
230
1.0
 70
     8
 71
     3
 72
    11
 73
     7
 74
     0
 42
0.0000000001
 43
0.0000000001
 40
0.0
 40
0.0
 40
0.0
 40
0.0
 40
0.720146786488225
 40
1.439878776025345
 40
2.916208619149127
 40
5.973995145116882
 40
5.973995145116882
 40
5.973995145116882
 40
5.973995145116882
 10
-379.4817147179681
 20
-443.1610655031486
 30
0.0
 10
-379.5687946146041
 20
-443.3844738832074
 30
0.0
 10
-379.7891761274407
 20
-443.814307109059
 30
0.0
 10
-380.3942216129258
 20
-444.5796251263603
 30
0.0
 10
-381.8661315037863
 20
-445.5952477021694
 30
0.0
 10
-383.4764309731826
 20
-445.6612897240604
 30
0.0
 10
-384.4485977348325
 20
-445.3621099984171
 30
0.0
  0
SPLINE
  5
9D
330
1F
100
AcDbEntity
  8
Linee visibili 2D
100
AcDbSpline
210
0.0
220
0.0
230
1.0
 70
    12
 71
     2
 72
     6
 73
     3
 74
     0
 42
0.0000000001
 43
0.0000000001
 40
0.0
 40
0.0
 40
0.0
 40
3.047690438289991
 40
3.047690438289991
 40
3.047690438289991
 10
-728.0166635020898
 20
-295.0705310135611
 30
0.0
 41
1.0
 10
-728.3983545461823
 20
-293.493907717658
 30
0.0
 41
0.9115132385275234
 10
-727.4688393438346
 20
-292.1644602538863
 30
0.0
 41
1.0
  0
SPLINE
  5
9E
330
1F
100
AcDbEntity
  8
Linee visibili 2D
100
AcDbSpline
210
0.0
220
0.0
230
1.0
 70
    24
 71
     2
 72
     6
 73
     3
 74
     0
 42
0.0000000001
 43
0.0000000001
 40
0.0
 40
0.0
 40
0.0
 40
117.2670314356198
 40
117.2670314356198
 40
117.2670314356198
 10
-646.5612049450012
 20
-177.580814625147
 30
0.0
 10
-612.741249507793
 20
-129.6840529427961
 30
0.0
 10
-578.9212940705847
 20
-81.78729126044533
 30
0.0
  0
SPLINE
  5
9F
330
1F
100
AcDbEntity
  8
Linee visibili 2D
100
AcDbSpline
210
0.0
220
0.0
230
1.0
 70
    24
 71
     2
 72
     6
 73
     3
 74
     0
 42
0.0000000001
 43
0.0000000001
 40
0.0
 40
0.0
 40
0.0
 40
117.2779306931728
 40
117.2779306931728
 40
117.2779306931728
 10
-285.2814645765249
 20
-202.5339404386474
 30
0.0
 10
-306.657692350604
 20
-257.1378335513996
 30
0.0
 10
-328.033920124683
 20
-311.7417266641517
 30
0.0
  0
SPLINE
  5
A0
330
1F
100
AcDbEntity
  8
Linee visibili 2D
100
AcDbSpline
210
0.0
220
0.0
230
1.0
 70
    24
 71
     2
 72
     6
 73
     3
 74
     0
 42
0.0000000001
 43
0.0000000001
 40
0.0
 40
0.0
 40
0.0
 40
302.5895111110729
 40
302.5895111110729
 40
302.5895111110729
 10
-575.5181589123708
 20
-80.56691582183197
 30
0.0
 10
-428.2648561373325
 20
-115.3026018011303
 30
0.0
 10
-281.0115533622942
 20
-150.0382877804286
 30
0.0
  0
SPLINE
  5
A1
330
1F
100
AcDbEntity
  8
Linee visibili 2D
100
AcDbSpline
210
0.0
220
0.0
230
1.0
 70
    24
 71
     2
 72
     6
 73
     3
 74
     0
 42
0.0000000001
 43
0.0000000001
 40
0.0
 40
0.0
 40
0.0
 40
48.21375394287849
 40
48.21375394287849
 40
48.21375394287849
 10
-278.1652507246272
 20
-154.1213964173889
 30
0.0
 10
-281.6307980347898
 20
-177.9778735076286
 30
0.0
 10
-285.0963453449525
 20
-201.8343505978683
 30
0.0
  0
SPLINE
  5
A2
330
1F
100
AcDbEntity
  8
Linee visibili 2D
100
AcDbSpline
210
0.0
220
0.0
230
1.0
 70
    12
 71
     2
 72
     6
 73
     3
 74
     0
 42
0.0000000001
 43
0.0000000001
 40
0.0
 40
0.0
 40
0.0
 40
0.4250987743052655
 40
0.4250987743052655
 40
0.4250987743052655
 10
-285.1132616252206
 20
-201.9385407966777
 30
0.0
 41
1.0
 10
-285.1508295646365
 20
-202.1480692277246
 30
0.0
 41
0.9977443514226342
 10
-285.2161260498205
 20
-202.3506769336778
 30
0.0
 41
1.0
  0
SPLINE
  5
A3
330
1F
100
AcDbEntity
  8
Linee visibili 2D
100
AcDbSpline
210
0.0
220
0.0
230
1.0
 70
     8
 71
     3
 72
    11
 73
     7
 74
     0
 42
0.0000000001
 43
0.0000000001
 40
0.0
 40
0.0
 40
0.0
 40
0.0
 40
0.4501994138922769
 40
0.8816698904956424
 40
1.768483242185045
 40
3.593871254332981
 40
3.593871254332981
 40
3.593871254332981
 40
3.593871254332981
 10
-578.8278433449991
 20
-81.6619058662435
 30
0.0
 10
-578.7352018525355
 20
-81.54398703485458
 30
0.0
 10
-578.5361981436394
 20
-81.32623097511322
 30
0.0
 10
-578.0793175330059
 20
-80.95207849125109
 30
0.0
 10
-577.1360107219043
 20
-80.46979682826856
 30
0.0
 10
-576.1990057004866
 20
-80.4214244994256
 30
0.0
 10
-575.6043375890644
 20
-80.54770881182446
 30
0.0
  0
SPLINE
  5
A4
330
1F
100
AcDbEntity
  8
Linee visibili 2D
100
AcDbSpline
210
0.0
220
0.0
230
1.0
 70
     8
 71
     3
 72
    12
 73
     8
 74
     0
 42
0.0000000001
 43
0.0000000001
 40
0.0
 40
0.0
 40
0.0
 40
0.0
 40
0.6935951409307748
 40
1.370012942672114
 40
2.714643804546164
 40
4.025291422513352
 40
5.342310344801712
 40
5.342310344801712
 40
5.342310344801712
 40
5.342310344801712
 10
-280.9698872904734
 20
-150.0481325500464
 30
0.0
 10
-280.7450073071046
 20
-150.101734910828
 30
0.0
 10
-280.3104117395958
 20
-150.2481403886375
 30
0.0
 10
-279.514201141048
 20
-150.6850970003837
 30
0.0
 10
-278.7026634485009
 20
-151.4698249559511
 30
0.0
 10
-278.1344837680827
 20
-152.6914319409071
 30
0.0
 10
-278.0866327883187
 20
-153.5828398840559
 30
0.0
 10
-278.1501246045364
 20
-154.0172610765418
 30
0.0
  0
SPLINE
  5
A5
330
1F
100
AcDbEntity
  8
Linee visibili 2D
100
AcDbSpline
210
0.0
220
0.0
230
1.0
 70
     8
 71
     3
 72
    15
 73
    11
 74
     0
 42
0.0000000001
 43
0.0000000001
 40
0.0
 40
0.0
 40
0.0
 40
0.0
 40
15.71086813900878
 40
31.41925121860011
 40
47.12130386026297
 40
62.82840645032758
 40
78.54002072518608
 40
94.24758698299215
 40
109.9504731652507
 40
125.6567949308752
 40
125.6567949308752
 40
125.6567949308752
 40
125.6567949308752
 10
225.0000003042499
 20
-260.5555565664415
 30
0.0
 10
219.7650674575045
 20
-260.5496995178241
 30
0.0
 10
209.2888504308125
 20
-258.4746999445408
 30
0.0
 10
195.9776296341862
 20
-249.5736229232496
 30
0.0
 10
187.0827984716173
 20
-236.2594362740199
 30
0.0
 10
183.9577204105782
 20
-220.5539686515398
 30
0.0
 10
187.0841381644384
 20
-204.8470149366961
 30
0.0
 10
195.9825171994313
 20
-191.5327384576232
 30
0.0
 10
209.2933090959552
 20
-182.6347886308365
 30
0.0
 10
219.7668244733375
 20
-180.5618411065363
 30
0.0
 10
225.0000002982545
 20
-180.5555565664415
 30
0.0
  0
SPLINE
  5
A6
330
1F
100
AcDbEntity
  8
Linee visibili 2D
100
AcDbSpline
210
0.0
220
0.0
230
1.0
 70
     8
 71
     3
 72
    15
 73
    11
 74
     0
 42
0.0000000001
 43
0.0000000001
 40
0.0
 40
0.0
 40
0.0
 40
0.0
 40
15.70632176449844
 40
31.40920794401
 40
47.11677419827385
 40
62.82838847054676
 40
78.53549107838973
 40
94.23754372136307
 40
109.945926803188
 40
125.6567949346362
 40
125.6567949346362
 40
125.6567949346362
 40
125.6567949346362
 10
225.0000002982545
 20
-180.5555565664415
 30
0.0
 10
230.2331761223808
 20
-180.5618411067456
 30
0.0
 10
240.7066914997226
 20
-182.6347886289781
 30
0.0
 10
254.0174833951911
 20
-191.5327384500086
 30
0.0
 10
262.9158624359001
 20
-204.8470149231529
 30
0.0
 10
266.0422801964698
 20
-220.5539686392571
 30
0.0
 10
262.9172021367191
 20
-236.2594362700079
 30
0.0
 10
254.0223709705523
 20
-249.5736229239522
 30
0.0
 10
240.7111501709074
 20
-258.4746999411278
 30
0.0
 10
230.2349331495412
 20
-260.5496995187363
 30
0.0
 10
225.0000003042499
 20
-260.5555565664414
 30
0.0
  0
SPLINE
  5
A7
330
1F
100
AcDbEntity
  8
Linee visibili 2D - Tangent
100
AcDbSpline
210
0.0
220
0.0
230
1.0
 70
    24
 71
     2
 72
     6
 73
     3
 74
     0
 42
0.0000000001
 43
0.0000000001
 40
0.0
 40
0.0
 40
0.0
 40
24.99999997058646
 40
24.99999997058646
 40
24.99999997058646
 10
15.47748887380556
 20
-245.5555555555566
 30
0.0
 10
15.47748887380556
 20
-233.0555555702634
 30
0.0
 10
15.47748887380556
 20
-220.5555555849701
 30
0.0
  0
SPLINE
  5
A8
330
1F
100
AcDbEntity
  8
Linee visibili 2D - Tangent
100
AcDbSpline
210
0.0
220
0.0
230
1.0
 70
    24
 71
     2
 72
     6
 73
     3
 74
     0
 42
0.0000000001
 43
0.0000000001
 40
0.0
 40
0.0
 40
0.0
 40
58.0343426563696
 40
58.0343426563696
 40
58.0343426563696
 10
15.47748887380556
 20
-245.5555555555566
 30
0.0
 10
15.47748887380556
 20
-274.5727268837414
 30
0.0
 10
15.47748887380556
 20
-303.5898982119262
 30
0.0
  0
SPLINE
  5
A9
330
1F
100
AcDbEntity
  8
Linee visibili 2D - Tangent
100
AcDbSpline
210
0.0
220
0.0
230
1.0
 70
    24
 71
     2
 72
     6
 73
     3
 74
     0
 42
0.0000000001
 43
0.0000000001
 40
0.0
 40
0.0
 40
0.0
 40
65.69471010266716
 40
65.69471010266716
 40
65.69471010266716
 10
15.47748887380556
 20
-303.5898982119262
 30
0.0
 10
15.47748887380561
 20
-336.4372532632598
 30
0.0
 10
15.47748887380567
 20
-369.2846083145934
 30
0.0
  0
SPLINE
  5
AA
330
1F
100
AcDbEntity
  8
Linee visibili 2D - Tangent
100
AcDbSpline
210
0.0
220
0.0
230
1.0
 70
    12
 71
     3
 72
    11
 73
     7
 74
     0
 42
0.0000000001
 43
0.0000000001
 40
0.0
 40
0.0
 40
0.0
 40
0.0
 40
3.299661081976538
 40
6.599322163953075
 40
9.898983245929614
 40
12.08659995249271
 40
12.08659995249271
 40
12.08659995249271
 40
12.08659995249271
 10
15.47748887380567
 20
-369.2846083145934
 30
0.0
 41
1.0
 10
15.47748887380567
 20
-371.0175093952058
 30
0.0
 41
1.0
 10
15.47888578294658
 20
-374.478767516327
 30
0.0
 41
1.0
 10
15.47259969182642
 20
-379.6979189386397
 30
0.0
 41
1.0
 10
15.49305938507257
 20
-384.3338630691262
 30
0.0
 41
1.0
 10
15.45561491869751
 20
-387.2128202410786
 30
0.0
 41
1.0
 10
15.47748887380556
 20
-388.3625167835602
 30
0.0
 41
1.0
  0
SPLINE
  5
AB
330
1F
100
AcDbEntity
  8
Linee visibili 2D - Tangent
100
AcDbSpline
210
0.0
220
0.0
230
1.0
 70
     8
 71
     3
 72
    16
 73
    12
 74
     0
 42
0.0000000001
 43
0.0000000001
 40
0.0
 40
0.0
 40
0.0
 40
0.0
 40
8.860169594004105
 40
17.66410450537153
 40
26.87178838158552
 40
36.80157303629628
 40
47.17048772120831
 40
57.66684294784862
 40
68.80012514763928
 40
74.07337956600992
 40
79.93503978184866
 40
79.93503978184866
 40
79.93503978184866
 40
79.93503978184866
 10
15.47748887380556
 20
-388.3625167835602
 30
0.0
 10
15.51725295596657
 20
-391.3157391538743
 30
0.0
 10
16.33979399901079
 20
-397.191794125118
 30
0.0
 10
19.69490891138707
 20
-405.5636020839913
 30
0.0
 10
25.03935614655222
 20
-413.2570942191297
 30
0.0
 10
32.22648823127861
 20
-420.0439466563323
 30
0.0
 10
40.93702354690083
 20
-425.5556437882691
 30
0.0
 10
50.81953370381132
 20
-429.660029398042
 30
0.0
 10
59.57823595802711
 20
-431.7195598498336
 30
0.0
 10
66.95302050586645
 20
-432.5920565370277
 30
0.0
 10
70.66719067303495
 20
-432.7166238457817
 30
0.0
 10
72.61989017532142
 20
-432.7455307676017
 30
0.0
  0
SPLINE
  5
AC
330
1F
100
AcDbEntity
  8
Linee visibili 2D - Tangent
100
AcDbSpline
210
0.0
220
0.0
230
1.0
 70
    12
 71
     3
 72
     9
 73
     5
 74
     0
 42
0.0000000001
 43
0.0000000001
 40
56.36685047933683
 40
56.36685047933683
 40
56.36685047933683
 40
56.36685047933683
 40
59.39389947557767
 40
60.2121414423332
 40
60.2121414423332
 40
60.2121414423332
 40
60.2121414423332
 10
72.61989017532153
 20
-432.7455307676017
 30
0.0
 41
1.0
 10
74.65089406157995
 20
-432.7718825868974
 30
0.0
 41
1.0
 10
77.22727522160608
 20
-432.7427235460523
 30
0.0
 41
1.0
 10
79.80693596551134
 20
-432.7365985947562
 30
0.0
 41
1.0
 10
80.35758635772686
 20
-432.7352738882456
 30
0.0
 41
1.0
  0
SPLINE
  5
AD
330
1F
100
AcDbEntity
  8
Linee visibili 2D - Tangent
100
AcDbSpline
210
0.0
220
0.0
230
1.0
 70
    12
 71
     2
 72
     6
 73
     3
 74
     0
 42
0.0000000001
 43
0.0000000001
 40
0.0
 40
0.0
 40
0.0
 40
0.64240030232623
 40
0.64240030232623
 40
0.64240030232623
 10
80.35758635772686
 20
-432.7352738882456
 30
0.0
 41
1.0
 10
80.6787329621609
 20
-432.7411935293055
 30
0.0
 41
0.9999952996400986
 10
80.99990982831866
 20
-432.7451437615541
 30
0.0
 41
1.0
  0
SPLINE
  5
AE
330
1F
100
AcDbEntity
  8
Linee visibili 2D - Tangent
100
AcDbSpline
210
0.0
220
0.0
230
1.0
 70
     8
 71
     3
 72
    13
 73
     9
 74
     0
 42
0.0000000001
 43
0.0000000001
 40
0.0
 40
0.0
 40
0.0
 40
0.0
 40
2.014540394820076
 40
7.951182733559454
 40
14.23000942494227
 40
20.52153554606893
 40
26.83634702210018
 40
144.0002026070171
 40
144.0002026070171
 40
144.0002026070171
 40
144.0002026070171
 10
80.99990982831866
 20
-432.7451437615541
 30
0.0
 10
81.67137950044355
 20
-432.7594855434608
 30
0.0
 10
84.32175423107788
 20
-432.753249036683
 30
0.0
 10
89.06503005273737
 20
-432.726172145613
 30
0.0
 10
95.2340453785547
 20
-432.7442178283055
 30
0.0
 10
101.5290942708223
 20
-432.7384296814477
 30
0.0
 10
144.7858267332964
 20
-432.7400599739771
 30
0.0
 10
185.9453812620278
 20
-432.739129737792
 30
0.0
 10
225.0000001786489
 20
-432.7397260273969
 30
0.0
  0
SPLINE
  5
AF
330
1F
100
AcDbEntity
  8
Linee visibili 2D - Tangent
100
AcDbSpline
210
0.0
220
0.0
230
1.0
 70
     8
 71
     3
 72
    13
 73
     9
 74
     0
 42
0.0000000001
 43
0.0000000001
 40
0.0
 40
0.0
 40
0.0
 40
0.0
 40
2.01454039482019
 40
7.951182733559454
 40
14.23000942494227
 40
20.5215355460687
 40
26.83634702209961
 40
144.0002026070171
 40
144.0002026070171
 40
144.0002026070171
 40
144.0002026070171
 10
369.0000905289791
 20
-432.7451437615544
 30
0.0
 10
368.3286208568519
 20
-432.7594855434611
 30
0.0
 10
365.6782461262195
 20
-432.7532490366833
 30
0.0
 10
360.9349703045592
 20
-432.7261721456132
 30
0.0
 10
354.7659549787428
 20
-432.7442178283058
 30
0.0
 10
348.470906086474
 20
-432.7384296814479
 30
0.0
 10
305.2141736240006
 20
-432.7400599739772
 30
0.0
 10
264.0546190952687
 20
-432.7391297377921
 30
0.0
 10
225.0000001786489
 20
-432.7397260273969
 30
0.0
  0
SPLINE
  5
B0
330
1F
100
AcDbEntity
  8
Linee visibili 2D - Tangent
100
AcDbSpline
210
0.0
220
0.0
230
1.0
 70
    12
 71
     2
 72
     6
 73
     3
 74
     0
 42
0.0000000001
 43
0.0000000001
 40
0.0
 40
0.0
 40
0.0
 40
0.6424003023261203
 40
0.6424003023261203
 40
0.6424003023261203
 10
369.6424139995707
 20
-432.7352738882457
 30
0.0
 41
1.0
 10
369.3212673951368
 20
-432.7411935293057
 30
0.0
 41
0.9999952996400984
 10
369.0000905289791
 20
-432.7451437615544
 30
0.0
 41
1.0
  0
SPLINE
  5
B1
330
1F
100
AcDbEntity
  8
Linee visibili 2D - Tangent
100
AcDbSpline
210
0.0
220
0.0
230
1.0
 70
    12
 71
     3
 72
     9
 73
     5
 74
     0
 42
0.0000000001
 43
0.0000000001
 40
56.36685047933687
 40
56.36685047933687
 40
56.36685047933687
 40
56.36685047933687
 40
59.39389947557767
 40
60.21214144233612
 40
60.21214144233612
 40
60.21214144233612
 40
60.21214144233612
 10
377.3801101819762
 20
-432.7455307676019
 30
0.0
 41
1.0
 10
375.3491062957177
 20
-432.7718825868976
 30
0.0
 41
1.0
 10
372.7727251356897
 20
-432.7427235460523
 30
0.0
 41
1.0
 10
370.1930643917825
 20
-432.7365985947561
 30
0.0
 41
1.0
 10
369.6424139995707
 20
-432.7352738882457
 30
0.0
 41
1.0
  0
SPLINE
  5
B2
330
1F
100
AcDbEntity
  8
Linee visibili 2D - Tangent
100
AcDbSpline
210
0.0
220
0.0
230
1.0
 70
     8
 71
     3
 72
    16
 73
    12
 74
     0
 42
0.0000000001
 43
0.0000000001
 40
0.0
 40
0.0
 40
0.0
 40
0.0
 40
8.86016959399174
 40
17.66410450535921
 40
26.8717883815733
 40
36.80157303628386
 40
47.17048772119625
 40
57.6668429478359
 40
68.80012514762699
 40
74.07337956599788
 40
79.93503978183651
 40
79.93503978183651
 40
79.93503978183651
 40
79.93503978183651
 10
434.5225114834919
 20
-388.3625167835727
 30
0.0
 10
434.4827474013308
 20
-391.3157391538827
 30
0.0
 10
433.660206358284
 20
-397.1917941251221
 30
0.0
 10
430.3050914459103
 20
-405.5636020839916
 30
0.0
 10
424.960644210746
 20
-413.2570942191301
 30
0.0
 10
417.7735121260179
 20
-420.0439466563325
 30
0.0
 10
409.0629768103969
 20
-425.5556437882693
 30
0.0
 10
399.1804666534864
 20
-429.6600293980422
 30
0.0
 10
390.421764399271
 20
-431.7195598498338
 30
0.0
 10
383.0469798514308
 20
-432.5920565370279
 30
0.0
 10
379.3328096842621
 20
-432.7166238457821
 30
0.0
 10
377.3801101819762
 20
-432.7455307676019
 30
0.0
  0
SPLINE
  5
B3
330
1F
100
AcDbEntity
  8
Linee visibili 2D - Tangent
100
AcDbSpline
210
0.0
220
0.0
230
1.0
 70
    12
 71
     3
 72
    11
 73
     7
 74
     0
 42
0.0000000001
 43
0.0000000001
 40
0.0
 40
0.0
 40
0.0
 40
0.0
 40
3.299661081976538
 40
6.599322163953075
 40
9.898983245929614
 40
12.0865999525005
 40
12.0865999525005
 40
12.0865999525005
 40
12.0865999525005
 10
434.5225114834919
 20
-369.2846083145935
 30
0.0
 41
1.0
 10
434.5225114834919
 20
-371.017509395206
 30
0.0
 41
1.0
 10
434.5211145743511
 20
-374.4787675163273
 30
0.0
 41
1.0
 10
434.5274006654712
 20
-379.69791893864
 30
0.0
 41
1.0
 10
434.5069409722252
 20
-384.3338630691306
 30
0.0
 41
1.0
 10
434.5443854386002
 20
-387.2128202410871
 30
0.0
 41
1.0
 10
434.5225114834919
 20
-388.3625167835727
 30
0.0
 41
1.0
  0
SPLINE
  5
B4
330
1F
100
AcDbEntity
  8
Linee visibili 2D - Tangent
100
AcDbSpline
210
0.0
220
0.0
230
1.0
 70
    24
 71
     2
 72
     6
 73
     3
 74
     0
 42
0.0000000001
 43
0.0000000001
 40
0.0
 40
0.0
 40
0.0
 40
73.16001806887903
 40
73.16001806887903
 40
73.16001806887903
 10
434.5225114834919
 20
-369.2846083145935
 30
0.0
 10
434.5225114834919
 20
-332.704599280154
 30
0.0
 10
434.5225114834919
 20
-296.1245902457145
 30
0.0
  0
SPLINE
  5
B5
330
1F
100
AcDbEntity
  8
Linee visibili 2D - Tangent
100
AcDbSpline
210
0.0
220
0.0
230
1.0
 70
    24
 71
     2
 72
     6
 73
     3
 74
     0
 42
0.0000000001
 43
0.0000000001
 40
0.0
 40
0.0
 40
0.0
 40
50.56903469015796
 40
50.56903469015796
 40
50.56903469015796
 10
434.5225114834919
 20
-296.1245902457145
 30
0.0
 10
434.5225114834919
 20
-270.8400729006355
 30
0.0
 10
434.5225114834919
 20
-245.5555555555565
 30
0.0
  0
SPLINE
  5
B6
330
1F
100
AcDbEntity
  8
Linee visibili 2D - Tangent
100
AcDbSpline
210
0.0
220
0.0
230
1.0
 70
    24
 71
     2
 72
     6
 73
     3
 74
     0
 42
0.0000000001
 43
0.0000000001
 40
0.0
 40
0.0
 40
0.0
 40
24.99999997110936
 40
24.99999997110936
 40
24.99999997110936
 10
434.5225114834919
 20
-220.5555555844472
 30
0.0
 10
434.5225114834919
 20
-233.0555555700018
 30
0.0
 10
434.5225114834919
 20
-245.5555555555565
 30
0.0
  0
SPLINE
  5
B7
330
1F
100
AcDbEntity
  8
Linee visibili 2D - Tangent
100
AcDbSpline
210
0.0
220
0.0
230
1.0
 70
    24
 71
     2
 72
     6
 73
     3
 74
     0
 42
0.0000000001
 43
0.0000000001
 40
0.0
 40
0.0
 40
0.0
 40
94.76744207539039
 40
94.76744207539039
 40
94.76744207539039
 10
445.0000000000026
 20
-315.3229976309462
 30
0.0
 10
445.0000000000026
 20
-267.939276593251
 30
0.0
 10
445.0000000000026
 20
-220.5555555555558
 30
0.0
  0
SPLINE
  5
B8
330
1F
100
AcDbEntity
  8
Linee visibili 2D - Tangent
100
AcDbSpline
210
0.0
220
0.0
230
1.0
 70
    24
 71
     2
 72
     6
 73
     3
 74
     0
 42
0.0000000001
 43
0.0000000001
 40
0.0
 40
0.0
 40
0.0
 40
55.81395341068355
 40
55.81395341068355
 40
55.81395341068355
 10
445.0000000000026
 20
-315.3229976309462
 30
0.0
 10
445.0000000000026
 20
-343.229974336288
 30
0.0
 10
445.0000000000026
 20
-371.1369510416297
 30
0.0
  0
SPLINE
  5
B9
330
1F
100
AcDbEntity
  8
Linee visibili 2D - Tangent
100
AcDbSpline
210
0.0
220
0.0
230
1.0
 70
    12
 71
     3
 72
     9
 73
     5
 74
     0
 42
0.0000000001
 43
0.0000000001
 40
-128.5401417943583
 40
-128.5401417943583
 40
-128.5401417943583
 40
-128.5401417943583
 40
-125.2442407227081
 40
-121.9483690210723
 40
-121.9483690210723
 40
-121.9483690210723
 40
-121.9483690210723
 10
445.0000000000026
 20
-371.1369510416297
 30
0.0
 41
1.0
 10
444.9999999430501
 20
-373.2817683350662
 30
0.0
 41
1.0
 10
444.9909360909863
 20
-377.5756323426693
 30
0.0
 41
1.0
 10
445.0181270299587
 20
-381.8525022925705
 30
0.0
 41
1.0
 10
445.0000001432219
 20
-383.9915853140061
 30
0.0
 41
1.0
  0
SPLINE
  5
BA
330
1F
100
AcDbEntity
  8
Linee visibili 2D - Tangent
100
AcDbSpline
210
0.0
220
0.0
230
1.0
 70
    24
 71
     2
 72
     6
 73
     3
 74
     0
 42
0.0000000001
 43
0.0000000001
 40
0.0
 40
0.0
 40
0.0
 40
1.09874760282582
 40
1.09874760282582
 40
1.09874760282582
 10
444.993636971289
 20
-385.0903313926581
 30
0.0
 10
444.9968184856458
 20
-384.5409668036598
 30
0.0
 10
445.0000000000026
 20
-383.9916022146616
 30
0.0
  0
SPLINE
  5
BB
330
1F
100
AcDbEntity
  8
Linee visibili 2D - Tangent
100
AcDbSpline
210
0.0
220
0.0
230
1.0
 70
    24
 71
     2
 72
     6
 73
     3
 74
     0
 42
0.0000000001
 43
0.0000000001
 40
0.0
 40
0.0
 40
0.0
 40
56.02075547004336
 40
56.02075547004336
 40
56.02075547004336
 10
445.0000000000026
 20
-441.1111111111113
 30
0.0
 10
444.9968184162158
 20
-413.1007335567812
 30
0.0
 10
444.9936368324289
 20
-385.090356002451
 30
0.0
  0
SPLINE
  5
BC
330
1F
100
AcDbEntity
  8
Linee visibili 2D - Tangent
100
AcDbSpline
210
0.0
220
0.0
230
1.0
 70
    24
 71
     2
 72
     6
 73
     3
 74
     0
 42
0.0000000001
 43
0.0000000001
 40
0.0
 40
0.0
 40
0.0
 40
440.0000000000025
 40
440.0000000000025
 40
440.0000000000025
 10
445.0000000000026
 20
-441.1111111111113
 30
0.0
 10
225.0000000000014
 20
-441.1111111111114
 30
0.0
 10
5.000000000000114
 20
-441.1111111111115
 30
0.0
  0
SPLINE
  5
BD
330
1F
100
AcDbEntity
  8
Linee visibili 2D - Tangent
100
AcDbSpline
210
0.0
220
0.0
230
1.0
 70
    24
 71
     2
 72
     6
 73
     3
 74
     0
 42
0.0000000001
 43
0.0000000001
 40
0.0
 40
0.0
 40
0.0
 40
56.02075572882627
 40
56.02075572882627
 40
56.02075572882627
 10
5.006363167603581
 20
-385.0903557436683
 30
0.0
 10
5.003181583801847
 20
-413.1007334273899
 30
0.0
 10
5.000000000000114
 20
-441.1111111111115
 30
0.0
  0
SPLINE
  5
BE
330
1F
100
AcDbEntity
  8
Linee visibili 2D - Tangent
100
AcDbSpline
210
0.0
220
0.0
230
1.0
 70
    24
 71
     2
 72
     6
 73
     3
 74
     0
 42
0.0000000001
 43
0.0000000001
 40
0.0
 40
0.0
 40
0.0
 40
1.098744047317651
 40
1.098744047317651
 40
1.098744047317651
 10
5.000000052817882
 20
-383.9916113349692
 30
0.0
 10
5.003181556879781
 20
-384.5409741462432
 30
0.0
 10
5.00636306094168
 20
-385.0903369575173
 30
0.0
  0
SPLINE
  5
BF
330
1F
100
AcDbEntity
  8
Linee visibili 2D - Tangent
100
AcDbSpline
210
0.0
220
0.0
230
1.0
 70
    12
 71
     3
 72
     9
 73
     5
 74
     0
 42
0.0000000001
 43
0.0000000001
 40
-128.5401417943583
 40
-128.5401417943583
 40
-128.5401417943583
 40
-128.5401417943583
 40
-125.2442407227081
 40
-121.9483603409678
 40
-121.9483603409678
 40
-121.9483603409678
 40
-121.9483603409678
 10
5.000000000000114
 20
-371.13695104163
 30
0.0
 41
1.0
 10
5.000000056952899
 20
-373.2817683350664
 30
0.0
 41
1.0
 10
5.009063920951689
 20
-377.5756379968659
 30
0.0
 41
1.0
 10
4.981872898432698
 20
-381.8525135562084
 30
0.0
 41
1.0
 10
4.999999999999886
 20
-383.9916022146593
 30
0.0
 41
1.0
  0
SPLINE
  5
C0
330
1F
100
AcDbEntity
  8
Linee visibili 2D - Tangent
100
AcDbSpline
210
0.0
220
0.0
230
1.0
 70
    24
 71
     2
 72
     6
 73
     3
 74
     0
 42
0.0000000001
 43
0.0000000001
 40
0.0
 40
0.0
 40
0.0
 40
69.76744179389289
 40
69.76744179389289
 40
69.76744179389289
 10
5.000000000000114
 20
-301.3695092477371
 30
0.0
 10
5.000000000000114
 20
-336.2532301446835
 30
0.0
 10
5.000000000000114
 20
-371.13695104163
 30
0.0
  0
SPLINE
  5
C1
330
1F
100
AcDbEntity
  8
Linee visibili 2D - Tangent
100
AcDbSpline
210
0.0
220
0.0
230
1.0
 70
    24
 71
     2
 72
     6
 73
     3
 74
     0
 42
0.0000000001
 43
0.0000000001
 40
0.0
 40
0.0
 40
0.0
 40
80.81395369218129
 40
80.81395369218129
 40
80.81395369218129
 10
5.000000000000114
 20
-301.3695092477371
 30
0.0
 10
5.000000000000057
 20
-260.9625324016465
 30
0.0
 10
5.0
 20
-220.5555555555558
 30
0.0
  0
SPLINE
  5
C2
330
1F
100
AcDbEntity
  8
Linee visibili 2D
100
AcDbSpline
210
0.0
220
0.0
230
1.0
 70
    24
 71
     2
 72
     6
 73
     3
 74
     0
 42
0.0000000001
 43
0.0000000001
 40
0.0
 40
0.0
 40
0.0
 40
220.5555555555555
 40
220.5555555555555
 40
220.5555555555555
 10
450.0000000000024
 20
-220.5555555555558
 30
0.0
 10
450.0000000000025
 20
-330.8333333333335
 30
0.0
 10
450.0000000000026
 20
-441.1111111111113
 30
0.0
  0
SPLINE
  5
C3
330
1F
100
AcDbEntity
  8
Linee visibili 2D - Tangent
100
AcDbSpline
210
0.0
220
0.0
230
1.0
 70
    24
 71
     2
 72
     6
 73
     3
 74
     0
 42
0.0000000001
 43
0.0000000001
 40
0.0
 40
0.0
 40
0.0
 40
5.0
 40
5.0
 40
5.0
 10
450.0000000000026
 20
-441.1111111111113
 30
0.0
 10
447.5000000000026
 20
-441.1111111111113
 30
0.0
 10
445.0000000000026
 20
-441.1111111111113
 30
0.0
  0
SPLINE
  5
C4
330
1F
100
AcDbEntity
  8
Linee visibili 2D - Tangent
100
AcDbSpline
210
0.0
220
0.0
230
1.0
 70
    24
 71
     2
 72
     6
 73
     3
 74
     0
 42
0.0000000001
 43
0.0000000001
 40
0.0
 40
0.0
 40
0.0
 40
4.995029033528454
 40
4.995029033528454
 40
4.995029033528454
 10
5.000000000000114
 20
-441.1111111111115
 30
0.0
 10
2.502485483235887
 20
-441.1111111111115
 30
0.0
 10
0.0049709664716602
 20
-441.1111111111114
 30
0.0
  0
SPLINE
  5
C5
330
1F
100
AcDbEntity
  8
Linee visibili 2D
100
AcDbSpline
210
0.0
220
0.0
230
1.0
 70
    24
 71
     2
 72
     6
 73
     3
 74
     0
 42
0.0000000001
 43
0.0000000001
 40
0.0
 40
0.0
 40
0.0
 40
220.5555555555557
 40
220.5555555555557
 40
220.5555555555557
 10
0.0
 20
-441.1111111111115
 30
0.0
 10
-0.0000000000000568
 20
-330.8333333333337
 30
0.0
 10
-0.0000000000001137
 20
-220.5555555555558
 30
0.0
  0
SPLINE
  5
C6
330
1F
100
AcDbEntity
  8
Linee visibili 2D
100
AcDbSpline
210
0.0
220
0.0
230
1.0
 70
    24
 71
     2
 72
     6
 73
     3
 74
     0
 42
0.0000000001
 43
0.0000000001
 40
0.0
 40
0.0
 40
0.0
 40
440.0000000000028
 40
440.0000000000028
 40
440.0000000000028
 10
445.0000000000026
 20
-445.5555555555558
 30
0.0
 10
225.0000000000012
 20
-445.5555555555559
 30
0.0
 10
4.999999999999773
 20
-445.555555555556
 30
0.0
  0
SPLINE
  5
C7
330
1F
100
AcDbEntity
  8
Linee visibili 2D - Tangent
100
AcDbSpline
210
0.0
220
0.0
230
1.0
 70
    24
 71
     2
 72
     6
 73
     3
 74
     0
 42
0.0000000001
 43
0.0000000001
 40
0.0
 40
0.0
 40
0.0
 40
4.444444444444457
 40
4.444444444444457
 40
4.444444444444457
 10
4.999999999999773
 20
-445.555555555556
 30
0.0
 10
4.999999999999943
 20
-443.3333333333338
 30
0.0
 10
5.000000000000114
 20
-441.1111111111115
 30
0.0
  0
SPLINE
  5
C8
330
1F
100
AcDbEntity
  8
Linee visibili 2D - Tangent
100
AcDbSpline
210
0.0
220
0.0
230
1.0
 70
    24
 71
     2
 72
     6
 73
     3
 74
     0
 42
0.0000000001
 43
0.0000000001
 40
0.0
 40
0.0
 40
0.0
 40
4.444444444444457
 40
4.444444444444457
 40
4.444444444444457
 10
445.0000000000026
 20
-441.1111111111113
 30
0.0
 10
445.0000000000026
 20
-443.3333333333335
 30
0.0
 10
445.0000000000026
 20
-445.5555555555558
 30
0.0
  0
SPLINE
  5
C9
330
1F
100
AcDbEntity
  8
Linee visibili 2D
100
AcDbSpline
210
0.0
220
0.0
230
1.0
 70
    12
 71
     2
 72
     6
 73
     3
 74
     0
 42
0.0000000001
 43
0.0000000001
 40
0.0
 40
0.0
 40
0.0
 40
1.0
 40
1.0
 40
1.0
 10
0.0
 20
-441.1111111111115
 30
0.0
 41
1.0
 10
0.0000000000008764
 20
-445.5555555555558
 30
0.0
 41
0.707106781186634
 10
4.999999999999773
 20
-445.555555555556
 30
0.0
 41
1.0
  0
SPLINE
  5
CA
330
1F
100
AcDbEntity
  8
Linee visibili 2D
100
AcDbSpline
210
0.0
220
0.0
230
1.0
 70
    12
 71
     2
 72
     6
 73
     3
 74
     0
 42
0.0000000001
 43
0.0000000001
 40
0.0
 40
0.0
 40
0.0
 40
1.0
 40
1.0
 40
1.0
 10
445.0000000000026
 20
-445.5555555555558
 30
0.0
 41
1.0
 10
450.0000000000025
 20
-445.5555555555541
 30
0.0
 41
0.7071067811865308
 10
450.0000000000026
 20
-441.1111111111113
 30
0.0
 41
1.0
  0
SPLINE
  5
CB
330
1F
100
AcDbEntity
  8
Linee visibili 2D - Tangent
100
AcDbSpline
210
0.0
220
0.0
230
1.0
 70
    24
 71
     2
 72
     6
 73
     3
 74
     0
 42
0.0000000001
 43
0.0000000001
 40
0.0
 40
0.0
 40
0.0
 40
25.00000000000085
 40
25.00000000000085
 40
25.00000000000085
 10
15.47748887380556
 20
-195.5555555555549
 30
0.0
 10
15.47748887380556
 20
-208.0555555555554
 30
0.0
 10
15.47748887380556
 20
-220.5555555555558
 30
0.0
  0
SPLINE
  5
CC
330
1F
100
AcDbEntity
  8
Linee visibili 2D - Tangent
100
AcDbSpline
210
0.0
220
0.0
230
1.0
 70
    24
 71
     2
 72
     6
 73
     3
 74
     0
 42
0.0000000001
 43
0.0000000001
 40
0.0
 40
0.0
 40
0.0
 40
58.0343426563696
 40
58.0343426563696
 40
58.0343426563696
 10
15.47748887380556
 20
-195.5555555555549
 30
0.0
 10
15.47748887380556
 20
-166.5383842273702
 30
0.0
 10
15.47748887380556
 20
-137.5212128991853
 30
0.0
  0
SPLINE
  5
CD
330
1F
100
AcDbEntity
  8
Linee visibili 2D - Tangent
100
AcDbSpline
210
0.0
220
0.0
230
1.0
 70
    24
 71
     2
 72
     6
 73
     3
 74
     0
 42
0.0000000001
 43
0.0000000001
 40
0.0
 40
0.0
 40
0.0
 40
65.69471010266716
 40
65.69471010266716
 40
65.69471010266716
 10
15.47748887380556
 20
-137.5212128991853
 30
0.0
 10
15.47748887380561
 20
-104.6738578478518
 30
0.0
 10
15.47748887380567
 20
-71.82650279651818
 30
0.0
  0
SPLINE
  5
CE
330
1F
100
AcDbEntity
  8
Linee visibili 2D - Tangent
100
AcDbSpline
210
0.0
220
0.0
230
1.0
 70
    12
 71
     3
 72
    11
 73
     7
 74
     0
 42
0.0000000001
 43
0.0000000001
 40
0.0
 40
0.0
 40
0.0
 40
0.0
 40
3.299661081976538
 40
6.599322163953075
 40
9.898983245929614
 40
12.08659995249271
 40
12.08659995249271
 40
12.08659995249271
 40
12.08659995249271
 10
15.47748887380567
 20
-71.82650279651818
 30
0.0
 41
1.0
 10
15.47748887380567
 20
-70.09360171590578
 30
0.0
 41
1.0
 10
15.47888578294658
 20
-66.63234359478452
 30
0.0
 41
1.0
 10
15.47259969182642
 20
-61.41319217247184
 30
0.0
 41
1.0
 10
15.49305938507257
 20
-56.77724804198539
 30
0.0
 41
1.0
 10
15.45561491869751
 20
-53.89829087003295
 30
0.0
 41
1.0
 10
15.47748887380556
 20
-52.74859432755136
 30
0.0
 41
1.0
  0
SPLINE
  5
CF
330
1F
100
AcDbEntity
  8
Linee visibili 2D - Tangent
100
AcDbSpline
210
0.0
220
0.0
230
1.0
 70
     8
 71
     3
 72
    16
 73
    12
 74
     0
 42
0.0000000001
 43
0.0000000001
 40
0.0
 40
0.0
 40
0.0
 40
0.0
 40
8.860169594004136
 40
17.66410450537154
 40
26.87178838158555
 40
36.80157303629631
 40
47.17048772120829
 40
57.66684294784862
 40
68.80012514763926
 40
74.07337956600989
 40
79.93503978184863
 40
79.93503978184863
 40
79.93503978184863
 40
79.93503978184863
 10
15.47748887380556
 20
-52.74859432755136
 30
0.0
 10
15.51725295596725
 20
-49.79537195723685
 30
0.0
 10
16.33979399900988
 20
-43.91931698599427
 30
0.0
 10
19.6949089113881
 20
-35.54750902711913
 30
0.0
 10
25.03935614655131
 20
-27.85401689198113
 30
0.0
 10
32.22648823127963
 20
-21.06716445477906
 30
0.0
 10
40.93702354690095
 20
-15.55546732284222
 30
0.0
 10
50.81953370381063
 20
-11.45108171306941
 30
0.0
 10
59.57823595802688
 20
-9.39155126127821
 30
0.0
 10
66.95302050586758
 20
-8.519054574083896
 30
0.0
 10
70.66719067303461
 20
-8.394487265329872
 30
0.0
 10
72.61989017532142
 20
-8.365580343509862
 30
0.0
  0
SPLINE
  5
D0
330
1F
100
AcDbEntity
  8
Linee visibili 2D - Tangent
100
AcDbSpline
210
0.0
220
0.0
230
1.0
 70
    12
 71
     3
 72
     9
 73
     5
 74
     0
 42
0.0000000001
 43
0.0000000001
 40
56.36685047933683
 40
56.36685047933683
 40
56.36685047933683
 40
56.36685047933683
 40
59.39389947557767
 40
60.2121414423332
 40
60.2121414423332
 40
60.2121414423332
 40
60.2121414423332
 10
72.61989017532153
 20
-8.365580343509862
 30
0.0
 41
1.0
 10
74.65089406157995
 20
-8.33922852421415
 30
0.0
 41
1.0
 10
77.22727522160608
 20
-8.368387565059265
 30
0.0
 41
1.0
 10
79.80693596551134
 20
-8.374512516355367
 30
0.0
 41
1.0
 10
80.35758635772686
 20
-8.375837222865925
 30
0.0
 41
1.0
  0
SPLINE
  5
D1
330
1F
100
AcDbEntity
  8
Linee visibili 2D - Tangent
100
AcDbSpline
210
0.0
220
0.0
230
1.0
 70
    12
 71
     2
 72
     6
 73
     3
 74
     0
 42
0.0000000001
 43
0.0000000001
 40
0.0
 40
0.0
 40
0.0
 40
0.6424003023262305
 40
0.6424003023262305
 40
0.6424003023262305
 10
80.35758635772686
 20
-8.375837222865925
 30
0.0
 41
1.0
 10
80.67873296216095
 20
-8.369917581805957
 30
0.0
 41
0.9999952996400977
 10
80.99990982831866
 20
-8.36596734955748
 30
0.0
 41
1.0
  0
SPLINE
  5
D2
330
1F
100
AcDbEntity
  8
Linee visibili 2D - Tangent
100
AcDbSpline
210
0.0
220
0.0
230
1.0
 70
     8
 71
     3
 72
    13
 73
     9
 74
     0
 42
0.0000000001
 43
0.0000000001
 40
0.0
 40
0.0
 40
0.0
 40
0.0
 40
2.014540394820076
 40
7.951182733559454
 40
14.23000942494227
 40
20.52153554606893
 40
26.83634702210018
 40
144.0002026070171
 40
144.0002026070171
 40
144.0002026070171
 40
144.0002026070171
 10
80.99990982831866
 20
-8.36596734955748
 30
0.0
 10
81.67137950044332
 20
-8.35162556765107
 30
0.0
 10
84.32175423107924
 20
-8.357862074428283
 30
0.0
 10
89.06503005273862
 20
-8.38493896549926
 30
0.0
 10
95.23404537855595
 20
-8.366893282806188
 30
0.0
 10
101.5290942708236
 20
-8.37268142966434
 30
0.0
 10
144.7858267332967
 20
-8.371051137134145
 30
0.0
 10
185.9453812620283
 20
-8.371981373319954
 30
0.0
 10
225.0000001786489
 20
-8.371385083714642
 30
0.0
  0
SPLINE
  5
D3
330
1F
100
AcDbEntity
  8
Linee visibili 2D - Tangent
100
AcDbSpline
210
0.0
220
0.0
230
1.0
 70
     8
 71
     3
 72
    13
 73
     9
 74
     0
 42
0.0000000001
 43
0.0000000001
 40
0.0
 40
0.0
 40
0.0
 40
0.0
 40
2.01454039482019
 40
7.951182733559454
 40
14.23000942494227
 40
20.5215355460687
 40
26.83634702209961
 40
144.0002026070171
 40
144.0002026070171
 40
144.0002026070171
 40
144.0002026070171
 10
369.0000905289791
 20
-8.365967349557138
 30
0.0
 10
368.3286208568537
 20
-8.351625567650615
 30
0.0
 10
365.6782461262213
 20
-8.3578620744276
 30
0.0
 10
360.9349703045608
 20
-8.384938965497554
 30
0.0
 10
354.7659549787451
 20
-8.36689328280454
 30
0.0
 10
348.4709060864731
 20
-8.37268142966434
 30
0.0
 10
305.2141736240004
 20
-8.371051137135282
 30
0.0
 10
264.0546190952709
 20
-8.371981373319784
 30
0.0
 10
225.0000001786489
 20
-8.371385083714642
 30
0.0
  0
SPLINE
  5
D4
330
1F
100
AcDbEntity
  8
Linee visibili 2D - Tangent
100
AcDbSpline
210
0.0
220
0.0
230
1.0
 70
    12
 71
     2
 72
     6
 73
     3
 74
     0
 42
0.0000000001
 43
0.0000000001
 40
0.0
 40
0.0
 40
0.0
 40
0.6424003023261203
 40
0.6424003023261203
 40
0.6424003023261203
 10
369.6424139995707
 20
-8.375837222865812
 30
0.0
 41
1.0
 10
369.3212673951368
 20
-8.369917581805787
 30
0.0
 41
0.9999952996400977
 10
369.0000905289791
 20
-8.365967349557138
 30
0.0
 41
1.0
  0
SPLINE
  5
D5
330
1F
100
AcDbEntity
  8
Linee visibili 2D - Tangent
100
AcDbSpline
210
0.0
220
0.0
230
1.0
 70
    12
 71
     3
 72
     9
 73
     5
 74
     0
 42
0.0000000001
 43
0.0000000001
 40
56.36685047933687
 40
56.36685047933687
 40
56.36685047933687
 40
56.36685047933687
 40
59.39389947557767
 40
60.21214144233612
 40
60.21214144233612
 40
60.21214144233612
 40
60.21214144233612
 10
377.3801101819762
 20
-8.365580343509635
 30
0.0
 41
1.0
 10
375.3491062957177
 20
-8.33922852421398
 30
0.0
 41
1.0
 10
372.7727251356897
 20
-8.368387565059209
 30
0.0
 41
1.0
 10
370.1930643917825
 20
-8.374512516355423
 30
0.0
 41
1.0
 10
369.6424139995707
 20
-8.375837222865812
 30
0.0
 41
1.0
  0
SPLINE
  5
D6
330
1F
100
AcDbEntity
  8
Linee visibili 2D - Tangent
100
AcDbSpline
210
0.0
220
0.0
230
1.0
 70
     8
 71
     3
 72
    16
 73
    12
 74
     0
 42
0.0000000001
 43
0.0000000001
 40
0.0
 40
0.0
 40
0.0
 40
0.0
 40
8.86016959399182
 40
17.66410450535921
 40
26.87178838157329
 40
36.80157303628389
 40
47.17048772119622
 40
57.66684294783591
 40
68.80012514762697
 40
74.07337956599784
 40
79.9350397818365
 40
79.9350397818365
 40
79.9350397818365
 40
79.9350397818365
 10
434.5225114834919
 20
-52.7485943275388
 30
0.0
 10
434.4827474013283
 20
-49.79537195722918
 30
0.0
 10
433.6602063582815
 20
-43.91931698599035
 30
0.0
 10
430.3050914459092
 20
-35.54750902712044
 30
0.0
 10
424.9606442107455
 20
-27.85401689198198
 30
0.0
 10
417.7735121260165
 20
-21.06716445477986
 30
0.0
 10
409.062976810396
 20
-15.55546732284273
 30
0.0
 10
399.1804666534871
 20
-11.45108171306924
 30
0.0
 10
390.4217643992689
 20
-9.391551261277641
 30
0.0
 10
383.0469798514315
 20
-8.519054574083668
 30
0.0
 10
379.332809684263
 20
-8.394487265329303
 30
0.0
 10
377.3801101819762
 20
-8.365580343509635
 30
0.0
  0
SPLINE
  5
D7
330
1F
100
AcDbEntity
  8
Linee visibili 2D - Tangent
100
AcDbSpline
210
0.0
220
0.0
230
1.0
 70
    12
 71
     3
 72
    11
 73
     7
 74
     0
 42
0.0000000001
 43
0.0000000001
 40
0.0
 40
0.0
 40
0.0
 40
0.0
 40
3.299661081976538
 40
6.599322163953075
 40
9.898983245929614
 40
12.0865999525005
 40
12.0865999525005
 40
12.0865999525005
 40
12.0865999525005
 10
434.5225114834919
 20
-71.82650279651807
 30
0.0
 41
1.0
 10
434.5225114834919
 20
-70.0936017159056
 30
0.0
 41
1.0
 10
434.5211145743511
 20
-66.63234359478434
 30
0.0
 41
1.0
 10
434.5274006654712
 20
-61.41319217247155
 30
0.0
 41
1.0
 10
434.5069409722252
 20
-56.77724804198095
 30
0.0
 41
1.0
 10
434.5443854386002
 20
-53.89829087002443
 30
0.0
 41
1.0
 10
434.5225114834919
 20
-52.7485943275388
 30
0.0
 41
1.0
  0
SPLINE
  5
D8
330
1F
100
AcDbEntity
  8
Linee visibili 2D - Tangent
100
AcDbSpline
210
0.0
220
0.0
230
1.0
 70
    24
 71
     2
 72
     6
 73
     3
 74
     0
 42
0.0000000001
 43
0.0000000001
 40
0.0
 40
0.0
 40
0.0
 40
73.16001806887897
 40
73.16001806887897
 40
73.16001806887897
 10
434.5225114834919
 20
-71.82650279651807
 30
0.0
 10
434.5225114834919
 20
-108.4065118309576
 30
0.0
 10
434.5225114834919
 20
-144.986520865397
 30
0.0
  0
SPLINE
  5
D9
330
1F
100
AcDbEntity
  8
Linee visibili 2D - Tangent
100
AcDbSpline
210
0.0
220
0.0
230
1.0
 70
    24
 71
     2
 72
     6
 73
     3
 74
     0
 42
0.0000000001
 43
0.0000000001
 40
0.0
 40
0.0
 40
0.0
 40
50.56903469015791
 40
50.56903469015791
 40
50.56903469015791
 10
434.5225114834919
 20
-144.986520865397
 30
0.0
 10
434.5225114834919
 20
-170.271038210476
 30
0.0
 10
434.5225114834919
 20
-195.5555555555549
 30
0.0
  0
SPLINE
  5
DA
330
1F
100
AcDbEntity
  8
Linee visibili 2D - Tangent
100
AcDbSpline
210
0.0
220
0.0
230
1.0
 70
    24
 71
     2
 72
     6
 73
     3
 74
     0
 42
0.0000000001
 43
0.0000000001
 40
0.0
 40
0.0
 40
0.0
 40
25.00000000000085
 40
25.00000000000085
 40
25.00000000000085
 10
434.5225114834919
 20
-220.5555555555558
 30
0.0
 10
434.5225114834919
 20
-208.0555555555554
 30
0.0
 10
434.5225114834919
 20
-195.5555555555549
 30
0.0
  0
SPLINE
  5
DB
330
1F
100
AcDbEntity
  8
Linee visibili 2D - Tangent
100
AcDbSpline
210
0.0
220
0.0
230
1.0
 70
    24
 71
     2
 72
     6
 73
     3
 74
     0
 42
0.0000000001
 43
0.0000000001
 40
0.0
 40
0.0
 40
0.0
 40
55.81395341068355
 40
55.81395341068355
 40
55.81395341068355
 10
445.0000000000026
 20
-125.7881134801654
 30
0.0
 10
445.0000000000026
 20
-97.88113677482357
 30
0.0
 10
445.0000000000026
 20
-69.9741600694818
 30
0.0
  0
SPLINE
  5
DC
330
1F
100
AcDbEntity
  8
Linee visibili 2D - Tangent
100
AcDbSpline
210
0.0
220
0.0
230
1.0
 70
    12
 71
     3
 72
     9
 73
     5
 74
     0
 42
0.0000000001
 43
0.0000000001
 40
-128.5401417943583
 40
-128.5401417943583
 40
-128.5401417943583
 40
-128.5401417943583
 40
-125.2442407227081
 40
-121.9483690210723
 40
-121.9483690210723
 40
-121.9483690210723
 40
-121.9483690210723
 10
445.0000000000026
 20
-69.9741600694818
 30
0.0
 41
1.0
 10
444.9999999430501
 20
-67.82934277604534
 30
0.0
 41
1.0
 10
444.9909360909863
 20
-63.5354787684422
 30
0.0
 41
1.0
 10
445.0181270299587
 20
-59.25860881854106
 30
0.0
 41
1.0
 10
445.0000001432219
 20
-57.1195257971055
 30
0.0
 41
1.0
  0
SPLINE
  5
DD
330
1F
100
AcDbEntity
  8
Linee visibili 2D - Tangent
100
AcDbSpline
210
0.0
220
0.0
230
1.0
 70
    24
 71
     2
 72
     6
 73
     3
 74
     0
 42
0.0000000001
 43
0.0000000001
 40
0.0
 40
0.0
 40
0.0
 40
1.098747602825798
 40
1.098747602825798
 40
1.098747602825798
 10
444.993636971289
 20
-56.02077971845341
 30
0.0
 10
444.9968184856458
 20
-56.5701443074517
 30
0.0
 10
445.0000000000026
 20
-57.11950889644999
 30
0.0
  0
SPLINE
  5
DE
330
1F
100
AcDbEntity
  8
Linee visibili 2D - Tangent
100
AcDbSpline
210
0.0
220
0.0
230
1.0
 70
    24
 71
     2
 72
     6
 73
     3
 74
     0
 42
0.0000000001
 43
0.0000000001
 40
0.0
 40
0.0
 40
0.0
 40
56.02075547004345
 40
56.02075547004345
 40
56.02075547004345
 10
445.0000000000026
 20
-0.0000000000002274
 30
0.0
 10
444.9968184162158
 20
-28.01037755433043
 30
0.0
 10
444.9936368324289
 20
-56.02075510866064
 30
0.0
  0
SPLINE
  5
DF
330
1F
100
AcDbEntity
  8
Linee visibili 2D - Tangent
100
AcDbSpline
210
0.0
220
0.0
230
1.0
 70
    24
 71
     2
 72
     6
 73
     3
 74
     0
 42
0.0000000001
 43
0.0000000001
 40
0.0
 40
0.0
 40
0.0
 40
440.0000000000025
 40
440.0000000000025
 40
440.0000000000025
 10
445.0000000000026
 20
-0.0000000000002274
 30
0.0
 10
225.0000000000014
 20
-0.0000000000001137
 30
0.0
 10
5.000000000000114
 20
0.0
 30
0.0
  0
SPLINE
  5
E0
330
1F
100
AcDbEntity
  8
Linee visibili 2D - Tangent
100
AcDbSpline
210
0.0
220
0.0
230
1.0
 70
    24
 71
     2
 72
     6
 73
     3
 74
     0
 42
0.0000000001
 43
0.0000000001
 40
0.0
 40
0.0
 40
0.0
 40
56.02075572882618
 40
56.02075572882618
 40
56.02075572882618
 10
5.006363167603581
 20
-56.02075536744314
 30
0.0
 10
5.003181583801847
 20
-28.01037768372157
 30
0.0
 10
5.000000000000114
 20
0.0
 30
0.0
  0
SPLINE
  5
E1
330
1F
100
AcDbEntity
  8
Linee visibili 2D - Tangent
100
AcDbSpline
210
0.0
220
0.0
230
1.0
 70
    24
 71
     2
 72
     6
 73
     3
 74
     0
 42
0.0000000001
 43
0.0000000001
 40
0.0
 40
0.0
 40
0.0
 40
1.098744047317481
 40
1.098744047317481
 40
1.098744047317481
 10
5.000000052817882
 20
-57.11949977614228
 30
0.0
 10
5.003181556879781
 20
-56.57013696486834
 30
0.0
 10
5.00636306094168
 20
-56.0207741535944
 30
0.0
  0
SPLINE
  5
E2
330
1F
100
AcDbEntity
  8
Linee visibili 2D - Tangent
100
AcDbSpline
210
0.0
220
0.0
230
1.0
 70
    12
 71
     3
 72
     9
 73
     5
 74
     0
 42
0.0000000001
 43
0.0000000001
 40
-128.5401417943583
 40
-128.5401417943583
 40
-128.5401417943583
 40
-128.5401417943583
 40
-125.2442407227081
 40
-121.9483603409678
 40
-121.9483603409678
 40
-121.9483603409678
 40
-121.9483603409678
 10
5.000000000000114
 20
-69.97416006948157
 30
0.0
 41
1.0
 10
5.000000056952899
 20
-67.82934277604511
 30
0.0
 41
1.0
 10
5.009063920951689
 20
-63.53547311424563
 30
0.0
 41
1.0
 10
4.981872898432698
 20
-59.25859755490319
 30
0.0
 41
1.0
 10
4.999999999999886
 20
-57.1195088964522
 30
0.0
 41
1.0
  0
SPLINE
  5
E3
330
1F
100
AcDbEntity
  8
Linee visibili 2D - Tangent
100
AcDbSpline
210
0.0
220
0.0
230
1.0
 70
    24
 71
     2
 72
     6
 73
     3
 74
     0
 42
0.0000000001
 43
0.0000000001
 40
0.0
 40
0.0
 40
0.0
 40
69.76744179389289
 40
69.76744179389289
 40
69.76744179389289
 10
5.000000000000114
 20
-139.7416018633745
 30
0.0
 10
5.000000000000114
 20
-104.857880966428
 30
0.0
 10
5.000000000000114
 20
-69.97416006948157
 30
0.0
  0
SPLINE
  5
E4
330
1F
100
AcDbEntity
  8
Linee visibili 2D - Tangent
100
AcDbSpline
210
0.0
220
0.0
230
1.0
 70
    24
 71
     2
 72
     6
 73
     3
 74
     0
 42
0.0000000001
 43
0.0000000001
 40
0.0
 40
0.0
 40
0.0
 40
80.81395369218134
 40
80.81395369218134
 40
80.81395369218134
 10
5.000000000000114
 20
-139.7416018633745
 30
0.0
 10
5.000000000000057
 20
-180.1485787094651
 30
0.0
 10
5.0
 20
-220.5555555555558
 30
0.0
  0
SPLINE
  5
E5
330
1F
100
AcDbEntity
  8
Linee visibili 2D
100
AcDbSpline
210
0.0
220
0.0
230
1.0
 70
    24
 71
     2
 72
     6
 73
     3
 74
     0
 42
0.0000000001
 43
0.0000000001
 40
0.0
 40
0.0
 40
0.0
 40
220.5555555555556
 40
220.5555555555556
 40
220.5555555555556
 10
450.0000000000024
 20
-220.5555555555558
 30
0.0
 10
450.0000000000025
 20
-110.277777777778
 30
0.0
 10
450.0000000000026
 20
-0.0000000000002274
 30
0.0
  0
SPLINE
  5
E6
330
1F
100
AcDbEntity
  8
Linee visibili 2D - Tangent
100
AcDbSpline
210
0.0
220
0.0
230
1.0
 70
    24
 71
     2
 72
     6
 73
     3
 74
     0
 42
0.0000000001
 43
0.0000000001
 40
0.0
 40
0.0
 40
0.0
 40
5.0
 40
5.0
 40
5.0
 10
450.0000000000026
 20
-0.0000000000002274
 30
0.0
 10
447.5000000000026
 20
-0.0000000000002274
 30
0.0
 10
445.0000000000026
 20
-0.0000000000002274
 30
0.0
  0
SPLINE
  5
E7
330
1F
100
AcDbEntity
  8
Linee visibili 2D - Tangent
100
AcDbSpline
210
0.0
220
0.0
230
1.0
 70
    24
 71
     2
 72
     6
 73
     3
 74
     0
 42
0.0000000001
 43
0.0000000001
 40
0.0
 40
0.0
 40
0.0
 40
4.995029033528454
 40
4.995029033528454
 40
4.995029033528454
 10
5.000000000000114
 20
0.0
 30
0.0
 10
2.502485483235887
 20
-0.0000000000000568
 30
0.0
 10
0.0049709664716602
 20
-0.0000000000001137
 30
0.0
  0
SPLINE
  5
E8
330
1F
100
AcDbEntity
  8
Linee visibili 2D
100
AcDbSpline
210
0.0
220
0.0
230
1.0
 70
    24
 71
     2
 72
     6
 73
     3
 74
     0
 42
0.0000000001
 43
0.0000000001
 40
0.0
 40
0.0
 40
0.0
 40
220.5555555555558
 40
220.5555555555558
 40
220.5555555555558
 10
0.0
 20
0.0
 30
0.0
 10
-0.0000000000000568
 20
-110.2777777777779
 30
0.0
 10
-0.0000000000001137
 20
-220.5555555555558
 30
0.0
  0
SPLINE
  5
E9
330
1F
100
AcDbEntity
  8
Linee visibili 2D
100
AcDbSpline
210
0.0
220
0.0
230
1.0
 70
    24
 71
     2
 72
     6
 73
     3
 74
     0
 42
0.0000000001
 43
0.0000000001
 40
0.0
 40
0.0
 40
0.0
 40
440.0000000000028
 40
440.0000000000028
 40
440.0000000000028
 10
445.0000000000026
 20
4.44444444444423
 30
0.0
 10
225.0000000000012
 20
4.444444444444343
 30
0.0
 10
4.999999999999773
 20
4.444444444444457
 30
0.0
  0
SPLINE
  5
EA
330
1F
100
AcDbEntity
  8
Linee visibili 2D - Tangent
100
AcDbSpline
210
0.0
220
0.0
230
1.0
 70
    24
 71
     2
 72
     6
 73
     3
 74
     0
 42
0.0000000001
 43
0.0000000001
 40
0.0
 40
0.0
 40
0.0
 40
4.444444444444457
 40
4.444444444444457
 40
4.444444444444457
 10
4.999999999999773
 20
4.444444444444457
 30
0.0
 10
4.999999999999943
 20
2.222222222222229
 30
0.0
 10
5.000000000000114
 20
0.0
 30
0.0
  0
SPLINE
  5
EB
330
1F
100
AcDbEntity
  8
Linee visibili 2D - Tangent
100
AcDbSpline
210
0.0
220
0.0
230
1.0
 70
    24
 71
     2
 72
     6
 73
     3
 74
     0
 42
0.0000000001
 43
0.0000000001
 40
0.0
 40
0.0
 40
0.0
 40
4.444444444444457
 40
4.444444444444457
 40
4.444444444444457
 10
445.0000000000026
 20
-0.0000000000002274
 30
0.0
 10
445.0000000000026
 20
2.222222222222001
 30
0.0
 10
445.0000000000026
 20
4.44444444444423
 30
0.0
  0
SPLINE
  5
EC
330
1F
100
AcDbEntity
  8
Linee visibili 2D
100
AcDbSpline
210
0.0
220
0.0
230
1.0
 70
    12
 71
     2
 72
     6
 73
     3
 74
     0
 42
0.0000000001
 43
0.0000000001
 40
0.0
 40
0.0
 40
0.0
 40
1.0
 40
1.0
 40
1.0
 10
0.0
 20
0.0
 30
0.0
 41
1.0
 10
0.0000000000008764
 20
4.444444444444344
 30
0.0
 41
0.707106781186634
 10
4.999999999999773
 20
4.444444444444457
 30
0.0
 41
1.0
  0
SPLINE
  5
ED
330
1F
100
AcDbEntity
  8
Linee visibili 2D
100
AcDbSpline
210
0.0
220
0.0
230
1.0
 70
    12
 71
     2
 72
     6
 73
     3
 74
     0
 42
0.0000000001
 43
0.0000000001
 40
0.0
 40
0.0
 40
0.0
 40
1.0
 40
1.0
 40
1.0
 10
445.0000000000026
 20
4.44444444444423
 30
0.0
 41
1.0
 10
450.0000000000025
 20
4.444444444442536
 30
0.0
 41
0.7071067811865308
 10
450.0000000000026
 20
-0.0000000000002274
 30
0.0
 41
1.0
  0
SPLINE
  5
EE
330
1F
100
AcDbEntity
  8
Linee visibili 2D
100
AcDbSpline
210
0.0
220
0.0
230
1.0
 70
    24
 71
     2
 72
     6
 73
     3
 74
     0
 42
0.0000000001
 43
0.0000000001
 40
0.0
 40
0.0
 40
0.0
 40
440.0000000000025
 40
440.0000000000025
 40
440.0000000000025
 10
4.999999999999886
 20
282.5597393818989
 30
0.0
 10
225.0000000000011
 20
282.5597393818989
 30
0.0
 10
445.0000000000024
 20
282.559739381899
 30
0.0
  0
SPLINE
  5
EF
330
1F
100
AcDbEntity
  8
Linee visibili 2D
100
AcDbSpline
210
0.0
220
0.0
230
1.0
 70
    24
 71
     2
 72
     6
 73
     3
 74
     0
 42
0.0000000001
 43
0.0000000001
 40
0.0
 40
0.0
 40
0.0
 40
440.0000000000025
 40
440.0000000000025
 40
440.0000000000025
 10
445.0000000000024
 20
382.559739381899
 30
0.0
 10
225.0000000000011
 20
382.5597393818989
 30
0.0
 10
4.999999999999886
 20
382.5597393818989
 30
0.0
  0
SPLINE
  5
F0
330
1F
100
AcDbEntity
  8
Linee visibili 2D
100
AcDbSpline
210
0.0
220
0.0
230
1.0
 70
    12
 71
     2
 72
     6
 73
     3
 74
     0
 42
0.0000000001
 43
0.0000000001
 40
0.0
 40
0.0
 40
0.0
 40
7.853981633974678
 40
7.853981633974678
 40
7.853981633974678
 10
450.0000000000024
 20
377.559739381899
 30
0.0
 41
1.0
 10
450.000000000003
 20
382.5597393818995
 30
0.0
 41
0.7071067811864833
 10
445.0000000000024
 20
382.559739381899
 30
0.0
 41
1.0
  0
SPLINE
  5
F1
330
1F
100
AcDbEntity
  8
Linee visibili 2D
100
AcDbSpline
210
0.0
220
0.0
230
1.0
 70
    12
 71
     2
 72
     6
 73
     3
 74
     0
 42
0.0000000001
 43
0.0000000001
 40
0.0
 40
0.0
 40
0.0
 40
7.85398163397476
 40
7.85398163397476
 40
7.85398163397476
 10
4.999999999999886
 20
382.5597393818989
 30
0.0
 41
1.0
 10
-0.0000000000008282
 20
382.5597393818997
 30
0.0
 41
0.707106781186427
 10
0.0
 20
377.5597393818989
 30
0.0
 41
1.0
  0
SPLINE
  5
F2
330
1F
100
AcDbEntity
  8
Linee visibili 2D
100
AcDbSpline
210
0.0
220
0.0
230
1.0
 70
    24
 71
     2
 72
     6
 73
     3
 74
     0
 42
0.0000000001
 43
0.0000000001
 40
0.0
 40
0.0
 40
0.0
 40
90.0
 40
90.0
 40
90.0
 10
-0.0000000000003411
 20
287.5597393818989
 30
0.0
 10
-0.0000000000002274
 20
332.5597393818989
 30
0.0
 10
-0.0000000000001137
 20
377.5597393818989
 30
0.0
  0
SPLINE
  5
F3
330
1F
100
AcDbEntity
  8
Linee visibili 2D - Tangent
100
AcDbSpline
210
0.0
220
0.0
230
1.0
 70
    24
 71
     2
 72
     6
 73
     3
 74
     0
 42
0.0000000001
 43
0.0000000001
 40
0.0
 40
0.0
 40
0.0
 40
90.0
 40
90.0
 40
90.0
 10
445.0000000000024
 20
287.559739381899
 30
0.0
 10
445.0000000000024
 20
332.559739381899
 30
0.0
 10
445.0000000000024
 20
377.559739381899
 30
0.0
  0
SPLINE
  5
F4
330
1F
100
AcDbEntity
  8
Linee visibili 2D - Tangent
100
AcDbSpline
210
0.0
220
0.0
230
1.0
 70
    24
 71
     2
 72
     6
 73
     3
 74
     0
 42
0.0000000001
 43
0.0000000001
 40
0.0
 40
0.0
 40
0.0
 40
440.0000000000025
 40
440.0000000000025
 40
440.0000000000025
 10
4.999999999999886
 20
287.5597393818989
 30
0.0
 10
225.0000000000011
 20
287.5597393818989
 30
0.0
 10
445.0000000000024
 20
287.559739381899
 30
0.0
  0
SPLINE
  5
F5
330
1F
100
AcDbEntity
  8
Linee visibili 2D - Tangent
100
AcDbSpline
210
0.0
220
0.0
230
1.0
 70
    24
 71
     2
 72
     6
 73
     3
 74
     0
 42
0.0000000001
 43
0.0000000001
 40
0.0
 40
0.0
 40
0.0
 40
90.0
 40
90.0
 40
90.0
 10
4.999999999999886
 20
287.5597393818989
 30
0.0
 10
4.999999999999773
 20
332.5597393818989
 30
0.0
 10
4.999999999999659
 20
377.5597393818989
 30
0.0
  0
SPLINE
  5
F6
330
1F
100
AcDbEntity
  8
Linee visibili 2D - Tangent
100
AcDbSpline
210
0.0
220
0.0
230
1.0
 70
    24
 71
     2
 72
     6
 73
     3
 74
     0
 42
0.0000000001
 43
0.0000000001
 40
0.0
 40
0.0
 40
0.0
 40
440.0000000000027
 40
440.0000000000027
 40
440.0000000000027
 10
445.0000000000024
 20
377.559739381899
 30
0.0
 10
225.000000000001
 20
377.5597393818989
 30
0.0
 10
4.999999999999659
 20
377.5597393818989
 30
0.0
  0
SPLINE
  5
F7
330
1F
100
AcDbEntity
  8
Linee visibili 2D
100
AcDbSpline
210
0.0
220
0.0
230
1.0
 70
    24
 71
     2
 72
     6
 73
     3
 74
     0
 42
0.0000000001
 43
0.0000000001
 40
0.0
 40
0.0
 40
0.0
 40
90.0
 40
90.0
 40
90.0
 10
450.0000000000024
 20
287.559739381899
 30
0.0
 10
450.0000000000024
 20
332.559739381899
 30
0.0
 10
450.0000000000024
 20
377.559739381899
 30
0.0
  0
SPLINE
  5
F8
330
1F
100
AcDbEntity
  8
Linee visibili 2D
100
AcDbSpline
210
0.0
220
0.0
230
1.0
 70
    12
 71
     2
 72
     6
 73
     3
 74
     0
 42
0.0000000001
 43
0.0000000001
 40
0.0
 40
0.0
 40
0.0
 40
7.85398163397471
 40
7.85398163397471
 40
7.85398163397471
 10
-0.0000000000003411
 20
287.5597393818989
 30
0.0
 41
1.0
 10
-0.0000000000003617
 20
282.5597393818987
 30
0.0
 41
0.7071067811865315
 10
4.999999999999886
 20
282.5597393818989
 30
0.0
 41
1.0
  0
SPLINE
  5
F9
330
1F
100
AcDbEntity
  8
Linee visibili 2D - Tangent
100
AcDbSpline
210
0.0
220
0.0
230
1.0
 70
    24
 71
     2
 72
     6
 73
     3
 74
     0
 42
0.0000000001
 43
0.0000000001
 40
0.0
 40
0.0
 40
0.0
 40
5.0
 40
5.0
 40
5.0
 10
445.0000000000024
 20
287.559739381899
 30
0.0
 10
445.0000000000024
 20
285.059739381899
 30
0.0
 10
445.0000000000024
 20
282.559739381899
 30
0.0
  0
SPLINE
  5
FA
330
1F
100
AcDbEntity
  8
Linee visibili 2D - Tangent
100
AcDbSpline
210
0.0
220
0.0
230
1.0
 70
    24
 71
     2
 72
     6
 73
     3
 74
     0
 42
0.0000000001
 43
0.0000000001
 40
0.0
 40
0.0
 40
0.0
 40
5.0
 40
5.0
 40
5.0
 10
4.999999999999886
 20
282.5597393818989
 30
0.0
 10
4.999999999999886
 20
285.0597393818989
 30
0.0
 10
4.999999999999886
 20
287.5597393818989
 30
0.0
  0
SPLINE
  5
FB
330
1F
100
AcDbEntity
  8
Linee visibili 2D
100
AcDbSpline
210
0.0
220
0.0
230
1.0
 70
    12
 71
     2
 72
     6
 73
     3
 74
     0
 42
0.0000000001
 43
0.0000000001
 40
0.0
 40
0.0
 40
0.0
 40
7.853981633974677
 40
7.853981633974677
 40
7.853981633974677
 10
445.0000000000024
 20
282.559739381899
 30
0.0
 41
1.0
 10
450.0000000000025
 20
282.5597393818989
 30
0.0
 41
0.7071067811865717
 10
450.0000000000026
 20
287.559739381899
 30
0.0
 41
1.0
  0
SPLINE
  5
FC
330
1F
100
AcDbEntity
  8
Linee visibili 2D - Tangent
100
AcDbSpline
210
0.0
220
0.0
230
1.0
 70
    24
 71
     2
 72
     6
 73
     3
 74
     0
 42
0.0000000001
 43
0.0000000001
 40
0.0
 40
0.0
 40
0.0
 40
5.0
 40
5.0
 40
5.0
 10
4.999999999999659
 20
377.5597393818989
 30
0.0
 10
4.999999999999773
 20
380.0597393818989
 30
0.0
 10
4.999999999999886
 20
382.5597393818989
 30
0.0
  0
SPLINE
  5
FD
330
1F
100
AcDbEntity
  8
Linee visibili 2D - Tangent
100
AcDbSpline
210
0.0
220
0.0
230
1.0
 70
    24
 71
     2
 72
     6
 73
     3
 74
     0
 42
0.0000000001
 43
0.0000000001
 40
0.0
 40
0.0
 40
0.0
 40
5.0
 40
5.0
 40
5.0
 10
445.0000000000024
 20
382.559739381899
 30
0.0
 10
445.0000000000024
 20
380.059739381899
 30
0.0
 10
445.0000000000024
 20
377.559739381899
 30
0.0
  0
SPLINE
  5
FE
330
1F
100
AcDbEntity
  8
Linee visibili 2D - Tangent
100
AcDbSpline
210
0.0
220
0.0
230
1.0
 70
    24
 71
     2
 72
     6
 73
     3
 74
     0
 42
0.0000000001
 43
0.0000000001
 40
0.0
 40
0.0
 40
0.0
 40
4.999999999999773
 40
4.999999999999773
 40
4.999999999999773
 10
-0.0000000000001137
 20
377.5597393818989
 30
0.0
 10
2.499999999999773
 20
377.5597393818989
 30
0.0
 10
4.999999999999659
 20
377.5597393818989
 30
0.0
  0
SPLINE
  5
FF
330
1F
100
AcDbEntity
  8
Linee visibili 2D - Tangent
100
AcDbSpline
210
0.0
220
0.0
230
1.0
 70
    24
 71
     2
 72
     6
 73
     3
 74
     0
 42
0.0000000001
 43
0.0000000001
 40
0.0
 40
0.0
 40
0.0
 40
5.000000000000227
 40
5.000000000000227
 40
5.000000000000227
 10
4.999999999999886
 20
287.5597393818989
 30
0.0
 10
2.499999999999773
 20
287.5597393818989
 30
0.0
 10
-0.0000000000003411
 20
287.5597393818989
 30
0.0
  0
SPLINE
  5
100
330
1F
100
AcDbEntity
  8
Linee visibili 2D - Tangent
100
AcDbSpline
210
0.0
220
0.0
230
1.0
 70
    24
 71
     2
 72
     6
 73
     3
 74
     0
 42
0.0000000001
 43
0.0000000001
 40
0.0
 40
0.0
 40
0.0
 40
5.0
 40
5.0
 40
5.0
 10
445.0000000000024
 20
377.559739381899
 30
0.0
 10
447.5000000000024
 20
377.559739381899
 30
0.0
 10
450.0000000000024
 20
377.559739381899
 30
0.0
  0
SPLINE
  5
101
330
1F
100
AcDbEntity
  8
Linee visibili 2D - Tangent
100
AcDbSpline
210
0.0
220
0.0
230
1.0
 70
    24
 71
     2
 72
     6
 73
     3
 74
     0
 42
0.0000000001
 43
0.0000000001
 40
0.0
 40
0.0
 40
0.0
 40
4.999999999999773
 40
4.999999999999773
 40
4.999999999999773
 10
450.0000000000022
 20
287.559739381899
 30
0.0
 10
447.5000000000023
 20
287.559739381899
 30
0.0
 10
445.0000000000024
 20
287.559739381899
 30
0.0
  0
SPLINE
  5
102
330
1F
100
AcDbEntity
  8
Linee visibili 2D
100
AcDbSpline
210
0.0
220
0.0
230
1.0
 70
    24
 71
     2
 72
     6
 73
     3
 74
     0
 42
0.0000000001
 43
0.0000000001
 40
0.0
 40
0.0
 40
0.0
 40
220.5555555555563
 40
220.5555555555563
 40
220.5555555555563
 10
-723.6708504930133
 20
282.5597393818989
 30
0.0
 10
-613.3930727152351
 20
282.5597393818989
 30
0.0
 10
-503.1152949374571
 20
282.5597393818989
 30
0.0
  0
SPLINE
  5
103
330
1F
100
AcDbEntity
  8
Linee visibili 2D
100
AcDbSpline
210
0.0
220
0.0
230
1.0
 70
    24
 71
     2
 72
     6
 73
     3
 74
     0
 42
0.0000000001
 43
0.0000000001
 40
0.0
 40
0.0
 40
0.0
 40
94.76744207539039
 40
94.76744207539039
 40
94.76744207539039
 10
-597.8827370128473
 20
382.5597393818989
 30
0.0
 10
-550.4990159751521
 20
382.5597393818989
 30
0.0
 10
-503.115294937457
 20
382.5597393818989
 30
0.0
  0
SPLINE
  5
104
330
1F
100
AcDbEntity
  8
Linee visibili 2D
100
AcDbSpline
210
0.0
220
0.0
230
1.0
 70
    24
 71
     2
 72
     6
 73
     3
 74
     0
 42
0.0000000001
 43
0.0000000001
 40
0.0
 40
0.0
 40
0.0
 40
55.81395341068355
 40
55.81395341068355
 40
55.81395341068355
 10
-597.8827370128473
 20
382.5597393818989
 30
0.0
 10
-625.7897137181891
 20
382.5597393818989
 30
0.0
 10
-653.6966904235309
 20
382.5597393818989
 30
0.0
  0
SPLINE
  5
105
330
1F
100
AcDbEntity
  8
Linee visibili 2D
100
AcDbSpline
210
0.0
220
0.0
230
1.0
 70
    24
 71
     2
 72
     6
 73
     3
 74
     0
 42
0.0000000001
 43
0.0000000001
 40
0.0
 40
0.0
 40
0.0
 40
12.85465117303181
 40
12.85465117303181
 40
12.85465117303181
 10
-653.6966904235309
 20
382.5597393818989
 30
0.0
 10
-660.1240160100467
 20
382.5597393818989
 30
0.0
 10
-666.5513415965627
 20
382.5597393818989
 30
0.0
  0
SPLINE
  5
106
330
1F
100
AcDbEntity
  8
Linee visibili 2D
100
AcDbSpline
210
0.0
220
0.0
230
1.0
 70
    24
 71
     2
 72
     6
 73
     3
 74
     0
 42
0.0000000001
 43
0.0000000001
 40
0.0
 40
0.0
 40
0.0
 40
1.098753167623499
 40
1.098753167623499
 40
1.098753167623499
 10
-667.6500947641862
 20
382.5597393818989
 30
0.0
 10
-667.1007181803744
 20
382.5597393818989
 30
0.0
 10
-666.5513415965627
 20
382.5597393818989
 30
0.0
  0
SPLINE
  5
107
330
1F
100
AcDbEntity
  8
Linee visibili 2D
100
AcDbSpline
210
0.0
220
0.0
230
1.0
 70
    24
 71
     2
 72
     6
 73
     3
 74
     0
 42
0.0000000001
 43
0.0000000001
 40
0.0
 40
0.0
 40
0.0
 40
56.02075572882626
 40
56.02075572882626
 40
56.02075572882626
 10
-723.6708504930125
 20
382.5597393818989
 30
0.0
 10
-695.6604726285993
 20
382.5597393818989
 30
0.0
 10
-667.6500947641862
 20
382.5597393818989
 30
0.0
  0
SPLINE
  5
108
330
1F
100
AcDbEntity
  8
Linee visibili 2D - Tangent
100
AcDbSpline
210
0.0
220
0.0
230
1.0
 70
    24
 71
     2
 72
     6
 73
     3
 74
     0
 42
0.0000000001
 43
0.0000000001
 40
0.0
 40
0.0
 40
0.0
 40
220.5555555555555
 40
220.5555555555555
 40
220.5555555555555
 10
-503.115294937457
 20
377.5597393818989
 30
0.0
 10
-613.3930727152347
 20
377.5597393818989
 30
0.0
 10
-723.6708504930125
 20
377.5597393818989
 30
0.0
  0
SPLINE
  5
109
330
1F
100
AcDbEntity
  8
Linee visibili 2D - Tangent
100
AcDbSpline
210
0.0
220
0.0
230
1.0
 70
    24
 71
     2
 72
     6
 73
     3
 74
     0
 42
0.0000000001
 43
0.0000000001
 40
0.0
 40
0.0
 40
0.0
 40
5.0
 40
5.0
 40
5.0
 10
-723.6708504930125
 20
377.5597393818989
 30
0.0
 10
-723.6708504930125
 20
380.0597393818989
 30
0.0
 10
-723.6708504930125
 20
382.5597393818989
 30
0.0
  0
SPLINE
  5
10A
330
1F
100
AcDbEntity
  8
Linee visibili 2D
100
AcDbSpline
210
0.0
220
0.0
230
1.0
 70
    24
 71
     2
 72
     6
 73
     3
 74
     0
 42
0.0000000001
 43
0.0000000001
 40
0.0
 40
0.0
 40
0.0
 40
90.0
 40
90.0
 40
90.0
 10
-728.115294937457
 20
287.5597393818989
 30
0.0
 10
-728.115294937457
 20
332.5597393818989
 30
0.0
 10
-728.115294937457
 20
377.5597393818989
 30
0.0
  0
SPLINE
  5
10B
330
1F
100
AcDbEntity
  8
Linee visibili 2D - Tangent
100
AcDbSpline
210
0.0
220
0.0
230
1.0
 70
    24
 71
     2
 72
     6
 73
     3
 74
     0
 42
0.0000000001
 43
0.0000000001
 40
0.0
 40
0.0
 40
0.0
 40
220.5555555555547
 40
220.5555555555547
 40
220.5555555555547
 10
-723.6708504930117
 20
287.5597393818989
 30
0.0
 10
-613.3930727152343
 20
287.5597393818988
 30
0.0
 10
-503.115294937457
 20
287.5597393818987
 30
0.0
  0
SPLINE
  5
10C
330
1F
100
AcDbEntity
  8
Linee visibili 2D - Tangent
100
AcDbSpline
210
0.0
220
0.0
230
1.0
 70
    24
 71
     2
 72
     6
 73
     3
 74
     0
 42
0.0000000001
 43
0.0000000001
 40
0.0
 40
0.0
 40
0.0
 40
90.0
 40
90.0
 40
90.0
 10
-723.6708504930117
 20
287.5597393818989
 30
0.0
 10
-723.670850493012
 20
332.5597393818989
 30
0.0
 10
-723.6708504930125
 20
377.5597393818989
 30
0.0
  0
SPLINE
  5
10D
330
1F
100
AcDbEntity
  8
Linee visibili 2D
100
AcDbSpline
210
0.0
220
0.0
230
1.0
 70
    12
 71
     2
 72
     6
 73
     3
 74
     0
 42
0.0000000001
 43
0.0000000001
 40
0.0
 40
0.0
 40
0.0
 40
1.0
 40
1.0
 40
1.0
 10
-728.115294937457
 20
287.5597393818989
 30
0.0
 41
1.0
 10
-728.1152949374557
 20
282.5597393819003
 30
0.0
 41
0.7071067811866428
 10
-723.6708504930133
 20
282.5597393818989
 30
0.0
 41
1.0
  0
SPLINE
  5
10E
330
1F
100
AcDbEntity
  8
Linee visibili 2D - Tangent
100
AcDbSpline
210
0.0
220
0.0
230
1.0
 70
    24
 71
     2
 72
     6
 73
     3
 74
     0
 42
0.0000000001
 43
0.0000000001
 40
0.0
 40
0.0
 40
0.0
 40
5.0
 40
5.0
 40
5.0
 10
-723.6708504930133
 20
282.5597393818989
 30
0.0
 10
-723.6708504930125
 20
285.0597393818989
 30
0.0
 10
-723.6708504930117
 20
287.5597393818989
 30
0.0
  0
SPLINE
  5
10F
330
1F
100
AcDbEntity
  8
Linee visibili 2D
100
AcDbSpline
210
0.0
220
0.0
230
1.0
 70
    12
 71
     2
 72
     6
 73
     3
 74
     0
 42
0.0000000001
 43
0.0000000001
 40
0.0
 40
0.0
 40
0.0
 40
1.0
 40
1.0
 40
1.0
 10
-723.6708504930125
 20
382.5597393818989
 30
0.0
 41
1.0
 10
-728.1152949374582
 20
382.5597393818993
 30
0.0
 41
0.7071067811864548
 10
-728.115294937457
 20
377.5597393818989
 30
0.0
 41
1.0
  0
SPLINE
  5
110
330
1F
100
AcDbEntity
  8
Linee visibili 2D - Tangent
100
AcDbSpline
210
0.0
220
0.0
230
1.0
 70
    24
 71
     2
 72
     6
 73
     3
 74
     0
 42
0.0000000001
 43
0.0000000001
 40
0.0
 40
0.0
 40
0.0
 40
4.444444444444457
 40
4.444444444444457
 40
4.444444444444457
 10
-728.115294937457
 20
377.5597393818989
 30
0.0
 10
-725.8930727152347
 20
377.5597393818989
 30
0.0
 10
-723.6708504930125
 20
377.5597393818989
 30
0.0
  0
SPLINE
  5
111
330
1F
100
AcDbEntity
  8
Linee visibili 2D - Tangent
100
AcDbSpline
210
0.0
220
0.0
230
1.0
 70
    24
 71
     2
 72
     6
 73
     3
 74
     0
 42
0.0000000001
 43
0.0000000001
 40
0.0
 40
0.0
 40
0.0
 40
4.444444444445253
 40
4.444444444445253
 40
4.444444444445253
 10
-723.6708504930117
 20
287.5597393818989
 30
0.0
 10
-725.8930727152343
 20
287.5597393818989
 30
0.0
 10
-728.115294937457
 20
287.5597393818989
 30
0.0
  0
SPLINE
  5
112
330
1F
100
AcDbEntity
  8
Linee visibili 2D
100
AcDbSpline
210
0.0
220
0.0
230
1.0
 70
    24
 71
     2
 72
     6
 73
     3
 74
     0
 42
0.0000000001
 43
0.0000000001
 40
0.0
 40
0.0
 40
0.0
 40
220.5555555555566
 40
220.5555555555566
 40
220.5555555555566
 10
-282.5597393819005
 20
282.5597393818989
 30
0.0
 10
-392.8375171596788
 20
282.5597393818989
 30
0.0
 10
-503.1152949374571
 20
282.5597393818989
 30
0.0
  0
SPLINE
  5
113
330
1F
100
AcDbEntity
  8
Linee visibili 2D
100
AcDbSpline
210
0.0
220
0.0
230
1.0
 70
    24
 71
     2
 72
     6
 73
     3
 74
     0
 42
0.0000000001
 43
0.0000000001
 40
0.0
 40
0.0
 40
0.0
 40
94.76744207539048
 40
94.76744207539048
 40
94.76744207539048
 10
-408.3478528620665
 20
382.5597393818989
 30
0.0
 10
-455.7315738997617
 20
382.5597393818989
 30
0.0
 10
-503.115294937457
 20
382.5597393818989
 30
0.0
  0
SPLINE
  5
114
330
1F
100
AcDbEntity
  8
Linee visibili 2D
100
AcDbSpline
210
0.0
220
0.0
230
1.0
 70
    24
 71
     2
 72
     6
 73
     3
 74
     0
 42
0.0000000001
 43
0.0000000001
 40
0.0
 40
0.0
 40
0.0
 40
55.81395341068355
 40
55.81395341068355
 40
55.81395341068355
 10
-408.3478528620665
 20
382.5597393818989
 30
0.0
 10
-380.4408761567247
 20
382.5597393818989
 30
0.0
 10
-352.5338994513829
 20
382.5597393818989
 30
0.0
  0
SPLINE
  5
115
330
1F
100
AcDbEntity
  8
Linee visibili 2D
100
AcDbSpline
210
0.0
220
0.0
230
1.0
 70
    24
 71
     2
 72
     6
 73
     3
 74
     0
 42
0.0000000001
 43
0.0000000001
 40
0.0
 40
0.0
 40
0.0
 40
12.85465117303181
 40
12.85465117303181
 40
12.85465117303181
 10
-352.5338994513829
 20
382.5597393818989
 30
0.0
 10
-346.106573864867
 20
382.5597393818989
 30
0.0
 10
-339.6792482783511
 20
382.5597393818989
 30
0.0
  0
SPLINE
  5
116
330
1F
100
AcDbEntity
  8
Linee visibili 2D
100
AcDbSpline
210
0.0
220
0.0
230
1.0
 70
    24
 71
     2
 72
     6
 73
     3
 74
     0
 42
0.0000000001
 43
0.0000000001
 40
0.0
 40
0.0
 40
0.0
 40
1.098753167623499
 40
1.098753167623499
 40
1.098753167623499
 10
-338.5804951107276
 20
382.5597393818989
 30
0.0
 10
-339.1298716945394
 20
382.5597393818989
 30
0.0
 10
-339.6792482783511
 20
382.5597393818989
 30
0.0
  0
SPLINE
  5
117
330
1F
100
AcDbEntity
  8
Linee visibili 2D
100
AcDbSpline
210
0.0
220
0.0
230
1.0
 70
    24
 71
     2
 72
     6
 73
     3
 74
     0
 42
0.0000000001
 43
0.0000000001
 40
0.0
 40
0.0
 40
0.0
 40
56.0207557288262
 40
56.0207557288262
 40
56.0207557288262
 10
-282.5597393819014
 20
382.5597393818989
 30
0.0
 10
-310.5701172463145
 20
382.5597393818989
 30
0.0
 10
-338.5804951107276
 20
382.5597393818989
 30
0.0
  0
SPLINE
  5
118
330
1F
100
AcDbEntity
  8
Linee visibili 2D - Tangent
100
AcDbSpline
210
0.0
220
0.0
230
1.0
 70
    24
 71
     2
 72
     6
 73
     3
 74
     0
 42
0.0000000001
 43
0.0000000001
 40
0.0
 40
0.0
 40
0.0
 40
220.5555555555555
 40
220.5555555555555
 40
220.5555555555555
 10
-503.115294937457
 20
377.5597393818989
 30
0.0
 10
-392.8375171596792
 20
377.5597393818989
 30
0.0
 10
-282.5597393819014
 20
377.5597393818989
 30
0.0
  0
SPLINE
  5
119
330
1F
100
AcDbEntity
  8
Linee visibili 2D - Tangent
100
AcDbSpline
210
0.0
220
0.0
230
1.0
 70
    24
 71
     2
 72
     6
 73
     3
 74
     0
 42
0.0000000001
 43
0.0000000001
 40
0.0
 40
0.0
 40
0.0
 40
5.0
 40
5.0
 40
5.0
 10
-282.5597393819014
 20
377.5597393818989
 30
0.0
 10
-282.5597393819014
 20
380.0597393818989
 30
0.0
 10
-282.5597393819014
 20
382.5597393818989
 30
0.0
  0
SPLINE
  5
11A
330
1F
100
AcDbEntity
  8
Linee visibili 2D
100
AcDbSpline
210
0.0
220
0.0
230
1.0
 70
    24
 71
     2
 72
     6
 73
     3
 74
     0
 42
0.0000000001
 43
0.0000000001
 40
0.0
 40
0.0
 40
0.0
 40
90.0
 40
90.0
 40
90.0
 10
-278.115294937457
 20
287.5597393818989
 30
0.0
 10
-278.115294937457
 20
332.5597393818989
 30
0.0
 10
-278.115294937457
 20
377.5597393818989
 30
0.0
  0
SPLINE
  5
11B
330
1F
100
AcDbEntity
  8
Linee visibili 2D - Tangent
100
AcDbSpline
210
0.0
220
0.0
230
1.0
 70
    24
 71
     2
 72
     6
 73
     3
 74
     0
 42
0.0000000001
 43
0.0000000001
 40
0.0
 40
0.0
 40
0.0
 40
220.5555555555547
 40
220.5555555555547
 40
220.5555555555547
 10
-282.5597393819022
 20
287.5597393818989
 30
0.0
 10
-392.8375171596796
 20
287.5597393818988
 30
0.0
 10
-503.115294937457
 20
287.5597393818987
 30
0.0
  0
SPLINE
  5
11C
330
1F
100
AcDbEntity
  8
Linee visibili 2D - Tangent
100
AcDbSpline
210
0.0
220
0.0
230
1.0
 70
    24
 71
     2
 72
     6
 73
     3
 74
     0
 42
0.0000000001
 43
0.0000000001
 40
0.0
 40
0.0
 40
0.0
 40
90.0
 40
90.0
 40
90.0
 10
-282.5597393819022
 20
287.5597393818989
 30
0.0
 10
-282.5597393819018
 20
332.5597393818989
 30
0.0
 10
-282.5597393819014
 20
377.5597393818989
 30
0.0
  0
SPLINE
  5
11D
330
1F
100
AcDbEntity
  8
Linee visibili 2D
100
AcDbSpline
210
0.0
220
0.0
230
1.0
 70
    12
 71
     2
 72
     6
 73
     3
 74
     0
 42
0.0000000001
 43
0.0000000001
 40
0.0
 40
0.0
 40
0.0
 40
1.0
 40
1.0
 40
1.0
 10
-278.115294937457
 20
287.5597393818989
 30
0.0
 41
1.0
 10
-278.115294937458
 20
282.5597393819003
 30
0.0
 41
0.7071067811866428
 10
-282.5597393819005
 20
282.5597393818989
 30
0.0
 41
1.0
  0
SPLINE
  5
11E
330
1F
100
AcDbEntity
  8
Linee visibili 2D - Tangent
100
AcDbSpline
210
0.0
220
0.0
230
1.0
 70
    24
 71
     2
 72
     6
 73
     3
 74
     0
 42
0.0000000001
 43
0.0000000001
 40
0.0
 40
0.0
 40
0.0
 40
5.0
 40
5.0
 40
5.0
 10
-282.5597393819005
 20
282.5597393818989
 30
0.0
 10
-282.5597393819014
 20
285.0597393818989
 30
0.0
 10
-282.5597393819022
 20
287.5597393818989
 30
0.0
  0
SPLINE
  5
11F
330
1F
100
AcDbEntity
  8
Linee visibili 2D
100
AcDbSpline
210
0.0
220
0.0
230
1.0
 70
    12
 71
     2
 72
     6
 73
     3
 74
     0
 42
0.0000000001
 43
0.0000000001
 40
0.0
 40
0.0
 40
0.0
 40
1.0
 40
1.0
 40
1.0
 10
-282.5597393819014
 20
382.5597393818989
 30
0.0
 41
1.0
 10
-278.1152949374556
 20
382.5597393818993
 30
0.0
 41
0.7071067811864548
 10
-278.115294937457
 20
377.5597393818989
 30
0.0
 41
1.0
  0
SPLINE
  5
120
330
1F
100
AcDbEntity
  8
Linee visibili 2D - Tangent
100
AcDbSpline
210
0.0
220
0.0
230
1.0
 70
    24
 71
     2
 72
     6
 73
     3
 74
     0
 42
0.0000000001
 43
0.0000000001
 40
0.0
 40
0.0
 40
0.0
 40
4.444444444444457
 40
4.444444444444457
 40
4.444444444444457
 10
-278.115294937457
 20
377.5597393818989
 30
0.0
 10
-280.3375171596792
 20
377.5597393818989
 30
0.0
 10
-282.5597393819014
 20
377.5597393818989
 30
0.0
  0
SPLINE
  5
121
330
1F
100
AcDbEntity
  8
Linee visibili 2D - Tangent
100
AcDbSpline
210
0.0
220
0.0
230
1.0
 70
    24
 71
     2
 72
     6
 73
     3
 74
     0
 42
0.0000000001
 43
0.0000000001
 40
0.0
 40
0.0
 40
0.0
 40
4.444444444445253
 40
4.444444444445253
 40
4.444444444445253
 10
-282.5597393819022
 20
287.5597393818989
 30
0.0
 10
-280.3375171596796
 20
287.5597393818989
 30
0.0
 10
-278.115294937457
 20
287.5597393818989
 30
0.0
  0
SPLINE
  5
122
330
1F
100
AcDbEntity
  8
Linee visibili 2D - Tangent
100
AcDbSpline
210
0.0
220
0.0
230
1.0
 70
    24
 71
     2
 72
     6
 73
     3
 74
     0
 42
0.0000000001
 43
0.0000000001
 40
0.0
 40
0.0
 40
0.0
 40
94.76744207539045
 40
94.76744207539045
 40
94.76744207539045
 10
445.0000000000026
 20
-125.7881134801654
 30
0.0
 10
445.0000000000026
 20
-173.1718345178606
 30
0.0
 10
445.0000000000026
 20
-220.5555555555558
 30
0.0
  0
VIEWPORT
  5
12C
330
128
100
AcDbEntity
 67
     1
  8
0
100
AcDbViewport
 10
6.0
 20
4.5
 30
0.0
 40
12.696
 41
9.522
 68
     1
 69
     1
 12
6.0
 22
4.5
 13
0.0
 23
0.0
 14
0.5
 24
0.5
 15
0.5
 25
0.5
 16
0.0
 26
0.0
 36
1.0
 17
0.0
 27
0.0
 37
0.0
 42
50.0
 43
0.0
 44
0.0
 45
9.522
 50
0.0
 51
0.0
 72
   100
 90
   557152
  1

281
     0
 71
     1
 74
     0
110
0.0
120
0.0
130
0.0
111
1.0
121
0.0
131
0.0
112
0.0
122
1.0
132
0.0
 79
     0
146
0.0
170
     0
  0
ENDSEC
  0
SECTION
  2
OBJECTS
  0
DICTIONARY
  5
C
330
0
100
AcDbDictionary
281
     1
  3
ACAD_GROUP
350
D
  3
ACAD_LAYOUT
350
1A
  3
ACAD_MLEADERSTYLE
350
152
  3
ACAD_MLINESTYLE
350
17
  3
ACAD_PLOTSETTINGS
350
19
  3
ACAD_PLOTSTYLENAME
350
E
  3
ACAD_SCALELIST
350
12D
  3
ACAD_TABLESTYLE
350
151
  3
ACAD_VISUALSTYLE
350
2A
  3
AcDbVariableDictionary
350
14F
  0
DICTIONARY
  5
D
102
{ACAD_REACTORS
330
C
102
}
330
C
100
AcDbDictionary
281
     1
  0
DICTIONARY
  5
1A
102
{ACAD_REACTORS
330
C
102
}
330
C
100
AcDbDictionary
281
     1
  3
Layout1
350
124
  3
Layout2
350
129
  3
Model
350
22
  0
DICTIONARY
  5
152
102
{ACAD_REACTORS
330
C
102
}
330
C
100
AcDbDictionary
281
     1
  0
DICTIONARY
  5
17
102
{ACAD_REACTORS
330
C
102
}
330
C
100
AcDbDictionary
281
     1
  3
Standard
350
18
  0
DICTIONARY
  5
19
102
{ACAD_REACTORS
330
C
102
}
330
C
100
AcDbDictionary
281
     1
  0
ACDBDICTIONARYWDFLT
  5
E
102
{ACAD_REACTORS
330
C
102
}
330
C
100
AcDbDictionary
281
     1
  3
Normal
350
F
100
AcDbDictionaryWithDefault
340
F
  0
DICTIONARY
  5
12D
102
{ACAD_REACTORS
330
C
102
}
330
C
100
AcDbDictionary
281
     1
  3
A0
350
12E
  3
A1
350
12F
  3
A2
350
130
  3
A3
350
131
  3
A4
350
132
  3
A5
350
133
  3
A6
350
134
  3
A7
350
135
  3
A8
350
136
  3
A9
350
137
  3
B0
350
138
  3
B1
350
139
  3
B2
350
13A
  3
B3
350
13B
  3
B4
350
13C
  3
B5
350
13D
  3
B6
350
13E
  3
B7
350
13F
  3
B8
350
140
  3
B9
350
141
  3
C0
350
142
  3
C1
350
143
  3
C2
350
144
  3
C3
350
145
  3
C4
350
146
  3
C5
350
147
  3
C6
350
148
  3
C7
350
149
  3
C8
350
14A
  3
C9
350
14B
  3
D0
350
14C
  3
D1
350
14D
  3
D2
350
14E
  0
DICTIONARY
  5
151
102
{ACAD_REACTORS
330
C
102
}
330
C
100
AcDbDictionary
281
     1
  0
DICTIONARY
  5
2A
102
{ACAD_REACTORS
330
C
102
}
330
C
100
AcDbDictionary
281
     1
  3
2dWireframe
350
2F
  3
3D Hidden
350
31
  3
3dWireframe
350
30
  3
Basic
350
32
  3
Brighten
350
36
  3
ColorChange
350
3A
  3
Conceptual
350
34
  3
Dim
350
35
  3
Facepattern
350
39
  3
Flat
350
2B
  3
FlatWithEdges
350
2C
  3
Gouraud
350
2D
  3
GouraudWithEdges
350
2E
  3
Linepattern
350
38
  3
Realistic
350
33
  3
Thicken
350
37
  0
DICTIONARY
  5
14F
102
{ACAD_REACTORS
330
C
102
}
330
C
100
AcDbDictionary
281
     1
  3
CANNOSCALE
350
150
  0
LAYOUT
  5
124
102
{ACAD_REACTORS
330
1A
102
}
330
1A
100
AcDbPlotSettings
  1

  2
none_device
  4
Letter_(8.50_x_11.00_Inches)
  6

 40
6.35
 41
6.35
 42
6.35000508
 43
6.35000508
 44
215.9
 45
279.4
 46
0.0
 47
0.0
 48
0.0
 49
0.0
140
0.0
141
0.0
142
1.0
143
1.0
 70
   688
 72
     0
 73
     1
 74
     5
  7

 75
    16
 76
     0
 77
     2
 78
   300
147
1.0
148
0.0
149
0.0
100
AcDbLayout
  1
Layout1
 70
     1
 71
     1
 10
0.0
 20
0.0
 11
0.0
 21
0.0
 12
0.0
 22
0.0
 32
0.0
 14
0.0
 24
0.0
 34
0.0
 15
0.0
 25
0.0
 35
0.0
146
0.0
 13
0.0
 23
0.0
 33
0.0
 16
1.0
 26
0.0
 36
0.0
 17
0.0
 27
1.0
 37
0.0
 76
     0
330
123
331
127
  0
LAYOUT
  5
129
102
{ACAD_REACTORS
330
1A
102
}
330
1A
100
AcDbPlotSettings
  1

  2
none_device
  4
Letter_(8.50_x_11.00_Inches)
  6

 40
6.35
 41
6.35
 42
6.35000508
 43
6.35000508
 44
215.9
 45
279.4
 46
0.0
 47
0.0
 48
0.0
 49
0.0
140
0.0
141
0.0
142
1.0
143
1.0
 70
   688
 72
     0
 73
     1
 74
     5
  7

 75
    16
 76
     0
 77
     2
 78
   300
147
1.0
148
0.0
149
0.0
100
AcDbLayout
  1
Layout2
 70
     1
 71
     2
 10
0.0
 20
0.0
 11
0.0
 21
0.0
 12
0.0
 22
0.0
 32
0.0
 14
0.0
 24
0.0
 34
0.0
 15
0.0
 25
0.0
 35
0.0
146
0.0
 13
0.0
 23
0.0
 33
0.0
 16
1.0
 26
0.0
 36
0.0
 17
0.0
 27
1.0
 37
0.0
 76
     0
330
128
331
12C
  0
LAYOUT
  5
22
102
{ACAD_REACTORS
330
1A
102
}
330
1A
100
AcDbPlotSettings
  1

  2
none_device
  4

  6

 40
0.0
 41
0.0
 42
0.0
 43
0.0
 44
0.0
 45
0.0
 46
0.0
 47
0.0
 48
0.0
 49
0.0
140
0.0
141
0.0
142
1.0
143
1.0
 70
  1712
 72
     0
 73
     0
 74
     0
  7

 75
     0
 76
     0
 77
     2
 78
   300
147
1.0
148
0.0
149
0.0
100
AcDbLayout
  1
Model
 70
     1
 71
     0
 10
0.0
 20
0.0
 11
12.0
 21
9.0
 12
0.0
 22
0.0
 32
0.0
 14
-728.1161958942333
 24
-445.5555555555561
 34
0.0
 15
450.0000000000027
 25
382.559739381899
 35
0.0
146
0.0
 13
0.0
 23
0.0
 33
0.0
 16
1.0
 26
0.0
 36
0.0
 17
0.0
 27
1.0
 37
0.0
 76
     0
330
1F
331
29
  0
MLINESTYLE
  5
18
102
{ACAD_REACTORS
330
17
102
}
330
17
100
AcDbMlineStyle
  2
Standard
 70
     0
  3

 62
   256
 51
90.0
 52
90.0
 71
     2
 49
0.5
 62
   256
  6
BYLAYER
 49
-0.5
 62
   256
  6
BYLAYER
  0
ACDBPLACEHOLDER
  5
F
102
{ACAD_REACTORS
330
E
102
}
330
E
  0
SCALE
  5
12E
102
{ACAD_REACTORS
330
12D
102
}
330
12D
100
AcDbScale
 70
     0
300
1:1
140
1.0
141
1.0
290
     1
  0
SCALE
  5
12F
102
{ACAD_REACTORS
330
12D
102
}
330
12D
100
AcDbScale
 70
     0
300
1:2
140
1.0
141
2.0
290
     0
  0
SCALE
  5
130
102
{ACAD_REACTORS
330
12D
102
}
330
12D
100
AcDbScale
 70
     0
300
1:4
140
1.0
141
4.0
290
     0
  0
SCALE
  5
131
102
{ACAD_REACTORS
330
12D
102
}
330
12D
100
AcDbScale
 70
     0
300
1:5
140
1.0
141
5.0
290
     0
  0
SCALE
  5
132
102
{ACAD_REACTORS
330
12D
102
}
330
12D
100
AcDbScale
 70
     0
300
1:8
140
1.0
141
8.0
290
     0
  0
SCALE
  5
133
102
{ACAD_REACTORS
330
12D
102
}
330
12D
100
AcDbScale
 70
     0
300
1:10
140
1.0
141
10.0
290
     0
  0
SCALE
  5
134
102
{ACAD_REACTORS
330
12D
102
}
330
12D
100
AcDbScale
 70
     0
300
1:16
140
1.0
141
16.0
290
     0
  0
SCALE
  5
135
102
{ACAD_REACTORS
330
12D
102
}
330
12D
100
AcDbScale
 70
     0
300
1:20
140
1.0
141
20.0
290
     0
  0
SCALE
  5
136
102
{ACAD_REACTORS
330
12D
102
}
330
12D
100
AcDbScale
 70
     0
300
1:30
140
1.0
141
30.0
290
     0
  0
SCALE
  5
137
102
{ACAD_REACTORS
330
12D
102
}
330
12D
100
AcDbScale
 70
     0
300
1:40
140
1.0
141
40.0
290
     0
  0
SCALE
  5
138
102
{ACAD_REACTORS
330
12D
102
}
330
12D
100
AcDbScale
 70
     0
300
1:50
140
1.0
141
50.0
290
     0
  0
SCALE
  5
139
102
{ACAD_REACTORS
330
12D
102
}
330
12D
100
AcDbScale
 70
     0
300
1:100
140
1.0
141
100.0
290
     0
  0
SCALE
  5
13A
102
{ACAD_REACTORS
330
12D
102
}
330
12D
100
AcDbScale
 70
     0
300
2:1
140
2.0
141
1.0
290
     0
  0
SCALE
  5
13B
102
{ACAD_REACTORS
330
12D
102
}
330
12D
100
AcDbScale
 70
     0
300
4:1
140
4.0
141
1.0
290
     0
  0
SCALE
  5
13C
102
{ACAD_REACTORS
330
12D
102
}
330
12D
100
AcDbScale
 70
     0
300
8:1
140
8.0
141
1.0
290
     0
  0
SCALE
  5
13D
102
{ACAD_REACTORS
330
12D
102
}
330
12D
100
AcDbScale
 70
     0
300
10:1
140
10.0
141
1.0
290
     0
  0
SCALE
  5
13E
102
{ACAD_REACTORS
330
12D
102
}
330
12D
100
AcDbScale
 70
     0
300
100:1
140
100.0
141
1.0
290
     0
  0
SCALE
  5
13F
102
{ACAD_REACTORS
330
12D
102
}
330
12D
100
AcDbScale
 70
     0
300
1/128" = 1'-0"
140
0.0078125
141
12.0
290
     0
  0
SCALE
  5
140
102
{ACAD_REACTORS
330
12D
102
}
330
12D
100
AcDbScale
 70
     0
300
1/64" = 1'-0"
140
0.015625
141
12.0
290
     0
  0
SCALE
  5
141
102
{ACAD_REACTORS
330
12D
102
}
330
12D
100
AcDbScale
 70
     0
300
1/32" = 1'-0"
140
0.03125
141
12.0
290
     0
  0
SCALE
  5
142
102
{ACAD_REACTORS
330
12D
102
}
330
12D
100
AcDbScale
 70
     0
300
1/16" = 1'-0"
140
0.0625
141
12.0
290
     0
  0
SCALE
  5
143
102
{ACAD_REACTORS
330
12D
102
}
330
12D
100
AcDbScale
 70
     0
300
3/32" = 1'-0"
140
0.09375
141
12.0
290
     0
  0
SCALE
  5
144
102
{ACAD_REACTORS
330
12D
102
}
330
12D
100
AcDbScale
 70
     0
300
1/8" = 1'-0"
140
0.125
141
12.0
290
     0
  0
SCALE
  5
145
102
{ACAD_REACTORS
330
12D
102
}
330
12D
100
AcDbScale
 70
     0
300
3/16" = 1'-0"
140
0.1875
141
12.0
290
     0
  0
SCALE
  5
146
102
{ACAD_REACTORS
330
12D
102
}
330
12D
100
AcDbScale
 70
     0
300
1/4" = 1'-0"
140
0.25
141
12.0
290
     0
  0
SCALE
  5
147
102
{ACAD_REACTORS
330
12D
102
}
330
12D
100
AcDbScale
 70
     0
300
3/8" = 1'-0"
140
0.375
141
12.0
290
     0
  0
SCALE
  5
148
102
{ACAD_REACTORS
330
12D
102
}
330
12D
100
AcDbScale
 70
     0
300
1/2" = 1'-0"
140
0.5
141
12.0
290
     0
  0
SCALE
  5
149
102
{ACAD_REACTORS
330
12D
102
}
330
12D
100
AcDbScale
 70
     0
300
3/4" = 1'-0"
140
0.75
141
12.0
290
     0
  0
SCALE
  5
14A
102
{ACAD_REACTORS
330
12D
102
}
330
12D
100
AcDbScale
 70
     0
300
1" = 1'-0"
140
1.0
141
12.0
290
     0
  0
SCALE
  5
14B
102
{ACAD_REACTORS
330
12D
102
}
330
12D
100
AcDbScale
 70
     0
300
1-1/2" = 1'-0"
140
1.5
141
12.0
290
     0
  0
SCALE
  5
14C
102
{ACAD_REACTORS
330
12D
102
}
330
12D
100
AcDbScale
 70
     0
300
3" = 1'-0"
140
3.0
141
12.0
290
     0
  0
SCALE
  5
14D
102
{ACAD_REACTORS
330
12D
102
}
330
12D
100
AcDbScale
 70
     0
300
6" = 1'-0"
140
6.0
141
12.0
290
     0
  0
SCALE
  5
14E
102
{ACAD_REACTORS
330
12D
102
}
330
12D
100
AcDbScale
 70
     0
300
1'-0" = 1'-0"
140
12.0
141
12.0
290
     0
  0
VISUALSTYLE
  5
2F
102
{ACAD_REACTORS
330
2A
102
}
330
2A
100
AcDbVisualStyle
  2
2dWireframe
 70
     4
 71
     0
 72
     2
 73
     0
 90
        0
 40
-0.6
 41
-30.0
 62
     5
 63
     7
421
 16777215
 74
     1
 91
        4
 64
     7
 65
   257
 75
     1
175
     1
 42
1.0
 92
        0
 66
   257
 43
1.0
 76
     1
 77
     6
 78
     2
 67
     7
 79
     5
170
     0
171
     0
290
     0
174
     0
 93
        1
 44
0.0
173
     0
291
     0
 45
0.0
1001
ACAD
1000
AcDbSavedByObjectVersion
1070
     0
  0
VISUALSTYLE
  5
31
102
{ACAD_REACTORS
330
2A
102
}
330
2A
100
AcDbVisualStyle
  2
3D Hidden
 70
     6
 71
     1
 72
     2
 73
     2
 90
        0
 40
-0.6
 41
-30.0
 62
     5
 63
     7
421
 16777215
 74
     2
 91
        2
 64
     7
 65
   257
 75
     2
175
     1
 42
40.0
 92
        0
 66
   257
 43
1.0
 76
     1
 77
     6
 78
     2
 67
     7
 79
     3
170
     0
171
     0
290
     0
174
     0
 93
        1
 44
0.0
173
     0
291
     0
 45
0.0
1001
ACAD
1000
AcDbSavedByObjectVersion
1070
     0
  0
VISUALSTYLE
  5
30
102
{ACAD_REACTORS
330
2A
102
}
330
2A
100
AcDbVisualStyle
  2
3dWireframe
 70
     5
 71
     0
 72
     2
 73
     0
 90
        0
 40
-0.6
 41
-30.0
 62
     5
 63
     7
421
 16777215
 74
     1
 91
        4
 64
     7
 65
   257
 75
     1
175
     1
 42
1.0
 92
        0
 66
   257
 43
1.0
 76
     1
 77
     6
 78
     2
 67
     7
 79
     5
170
     0
171
     0
290
     0
174
     0
 93
        1
 44
0.0
173
     0
291
     0
 45
0.0
1001
ACAD
1000
AcDbSavedByObjectVersion
1070
     0
  0
VISUALSTYLE
  5
32
102
{ACAD_REACTORS
330
2A
102
}
330
2A
100
AcDbVisualStyle
  2
Basic
 70
     7
 71
     1
 72
     0
 73
     1
 90
        0
 40
-0.6
 41
-30.0
 62
     5
 63
     7
421
 16777215
 74
     0
 91
        4
 64
     7
 65
   257
 75
     1
175
     1
 42
1.0
 92
        8
 66
     7
 43
1.0
 76
     1
 77
     6
 78
     2
 67
     7
 79
     5
170
     0
171
     0
290
     0
174
     0
 93
        1
 44
0.0
173
     0
291
     1
 45
0.0
1001
ACAD
1000
AcDbSavedByObjectVersion
1070
     0
  0
VISUALSTYLE
  5
36
102
{ACAD_REACTORS
330
2A
102
}
330
2A
100
AcDbVisualStyle
  2
Brighten
 70
    12
 71
     2
 72
     2
 73
     0
 90
        0
 40
-0.6
 41
-30.0
 62
     5
 63
     7
421
 16777215
 74
     1
 91
        4
 64
     7
 65
   257
 75
     1
175
     1
 42
1.0
 92
        8
 66
     7
 43
1.0
 76
     1
 77
     6
 78
     2
 67
     7
 79
     5
170
     0
171
     0
290
     0
174
     0
 93
        1
 44
50.0
173
     0
291
     1
 45
0.0
1001
ACAD
1000
AcDbSavedByObjectVersion
1070
     0
  0
VISUALSTYLE
  5
3A
102
{ACAD_REACTORS
330
2A
102
}
330
2A
100
AcDbVisualStyle
  2
ColorChange
 70
    16
 71
     2
 72
     2
 73
     3
 90
        0
 40
-0.6
 41
-30.0
 62
     5
 63
     8
421
  8421504
 74
     1
 91
        4
 64
     7
 65
   257
 75
     1
175
     1
 42
1.0
 92
        8
 66
     8
424
  8421504
 43
1.0
 76
     1
 77
     6
 78
     2
 67
     7
 79
     5
170
     0
171
     0
290
     0
174
     0
 93
        1
 44
0.0
173
     0
291
     1
 45
0.0
1001
ACAD
1000
AcDbSavedByObjectVersion
1070
     0
  0
VISUALSTYLE
  5
34
102
{ACAD_REACTORS
330
2A
102
}
330
2A
100
AcDbVisualStyle
  2
Conceptual
 70
     9
 71
     3
 72
     2
 73
     0
 90
        0
 40
-0.6
 41
-30.0
 62
     5
 63
     7
421
 16777215
 74
     2
 91
        2
 64
     7
 65
   257
 75
     1
175
     1
 42
40.0
 92
        8
 66
     7
 43
1.0
 76
     1
 77
     6
 78
     2
 67
     7
 79
     3
170
     0
171
     0
290
     0
174
     0
 93
        1
 44
0.0
173
     0
291
     0
 45
0.0
1001
ACAD
1000
AcDbSavedByObjectVersion
1070
     0
  0
VISUALSTYLE
  5
35
102
{ACAD_REACTORS
330
2A
102
}
330
2A
100
AcDbVisualStyle
  2
Dim
 70
    11
 71
     2
 72
     2
 73
     0
 90
        0
 40
-0.6
 41
-30.0
 62
     5
 63
     7
421
 16777215
 74
     1
 91
        4
 64
     7
 65
   257
 75
     1
175
     1
 42
1.0
 92
        8
 66
     7
 43
1.0
 76
     1
 77
     6
 78
     2
 67
     7
 79
     5
170
     0
171
     0
290
     0
174
     0
 93
        1
 44
-50.0
173
     0
291
     1
 45
0.0
1001
ACAD
1000
AcDbSavedByObjectVersion
1070
     0
  0
VISUALSTYLE
  5
39
102
{ACAD_REACTORS
330
2A
102
}
330
2A
100
AcDbVisualStyle
  2
Facepattern
 70
    15
 71
     2
 72
     2
 73
     0
 90
        0
 40
-0.6
 41
-30.0
 62
     5
 63
     7
421
 16777215
 74
     1
 91
        4
 64
     7
 65
   257
 75
     1
175
     1
 42
1.0
 92
        8
 66
     7
 43
1.0
 76
     1
 77
     6
 78
     2
 67
     7
 79
     5
170
     0
171
     0
290
     0
174
     0
 93
        1
 44
0.0
173
     0
291
     1
 45
0.0
1001
ACAD
1000
AcDbSavedByObjectVersion
1070
     0
  0
VISUALSTYLE
  5
2B
102
{ACAD_REACTORS
330
2A
102
}
330
2A
100
AcDbVisualStyle
  2
Flat
 70
     0
 71
     2
 72
     1
 73
     1
 90
        2
 40
-0.6
 41
30.0
 62
     5
 63
     7
421
 16777215
 74
     0
 91
        4
 64
     7
 65
   257
 75
     1
175
     1
 42
1.0
 92
        8
 66
     7
 43
1.0
 76
     1
 77
     6
 78
     2
 67
     7
 79
     5
170
     0
171
     0
290
     0
174
     0
 93
       13
 44
0.0
173
     0
291
     1
 45
0.0
1001
ACAD
1000
AcDbSavedByObjectVersion
1070
     0
  0
VISUALSTYLE
  5
2C
102
{ACAD_REACTORS
330
2A
102
}
330
2A
100
AcDbVisualStyle
  2
FlatWithEdges
 70
     1
 71
     2
 72
     1
 73
     1
 90
        2
 40
-0.6
 41
30.0
 62
     5
 63
     7
421
 16777215
 74
     1
 91
        4
 64
     7
 65
   257
 75
     1
175
     1
 42
1.0
 92
        0
 66
   257
 43
1.0
 76
     1
 77
     6
 78
     2
 67
     7
 79
     5
170
     0
171
     0
290
     0
174
     0
 93
       13
 44
0.0
173
     0
291
     1
 45
0.0
1001
ACAD
1000
AcDbSavedByObjectVersion
1070
     0
  0
VISUALSTYLE
  5
2D
102
{ACAD_REACTORS
330
2A
102
}
330
2A
100
AcDbVisualStyle
  2
Gouraud
 70
     2
 71
     2
 72
     2
 73
     1
 90
        2
 40
-0.6
 41
30.0
 62
     5
 63
     7
421
 16777215
 74
     0
 91
        4
 64
     7
 65
   257
 75
     1
175
     1
 42
1.0
 92
        0
 66
     7
 43
1.0
 76
     1
 77
     6
 78
     2
 67
     7
 79
     5
170
     0
171
     0
290
     0
174
     0
 93
       13
 44
0.0
173
     0
291
     1
 45
0.0
1001
ACAD
1000
AcDbSavedByObjectVersion
1070
     0
  0
VISUALSTYLE
  5
2E
102
{ACAD_REACTORS
330
2A
102
}
330
2A
100
AcDbVisualStyle
  2
GouraudWithEdges
 70
     3
 71
     2
 72
     2
 73
     1
 90
        2
 40
-0.6
 41
30.0
 62
     5
 63
     7
421
 16777215
 74
     1
 91
        4
 64
     7
 65
   257
 75
     1
175
     1
 42
1.0
 92
        0
 66
   257
 43
1.0
 76
     1
 77
     6
 78
     2
 67
     7
 79
     5
170
     0
171
     0
290
     0
174
     0
 93
       13
 44
0.0
173
     0
291
     1
 45
0.0
1001
ACAD
1000
AcDbSavedByObjectVersion
1070
     0
  0
VISUALSTYLE
  5
38
102
{ACAD_REACTORS
330
2A
102
}
330
2A
100
AcDbVisualStyle
  2
Linepattern
 70
    14
 71
     2
 72
     2
 73
     0
 90
        0
 40
-0.6
 41
-30.0
 62
     5
 63
     7
421
 16777215
 74
     1
 91
        4
 64
     7
 65
   257
 75
     7
175
     7
 42
1.0
 92
        8
 66
     7
 43
1.0
 76
     1
 77
     6
 78
     2
 67
     7
 79
     5
170
     0
171
     0
290
     0
174
     0
 93
        1
 44
0.0
173
     0
291
     1
 45
0.0
1001
ACAD
1000
AcDbSavedByObjectVersion
1070
     0
  0
VISUALSTYLE
  5
33
102
{ACAD_REACTORS
330
2A
102
}
330
2A
100
AcDbVisualStyle
  2
Realistic
 70
     8
 71
     2
 72
     2
 73
     0
 90
        0
 40
-0.6
 41
-30.0
 62
     5
 63
     7
421
 16777215
 74
     1
 91
        0
 64
     7
 65
   257
 75
     1
175
     1
 42
1.0
 92
        8
 66
     8
424
  7895160
 43
1.0
 76
     1
 77
     6
 78
     2
 67
     7
 79
     5
170
     0
171
     0
290
     0
174
     0
 93
       13
 44
0.0
173
     0
291
     0
 45
0.0
1001
ACAD
1000
AcDbSavedByObjectVersion
1070
     0
  0
VISUALSTYLE
  5
37
102
{ACAD_REACTORS
330
2A
102
}
330
2A
100
AcDbVisualStyle
  2
Thicken
 70
    13
 71
     2
 72
     2
 73
     0
 90
        0
 40
-0.6
 41
-30.0
 62
     5
 63
     7
421
 16777215
 74
     1
 91
        4
 64
     7
 65
   257
 75
     1
175
     1
 42
1.0
 92
       12
 66
     7
 43
1.0
 76
     1
 77
     6
 78
     2
 67
     7
 79
     5
170
     0
171
     0
290
     0
174
     0
 93
        1
 44
0.0
173
     0
291
     1
 45
0.0
1001
ACAD
1000
AcDbSavedByObjectVersion
1070
     0
  0
DICTIONARYVAR
  5
150
102
{ACAD_REACTORS
330
14F
102
}
330
14F
100
DictionaryVariables
280
     0
  1
1:1
  0
ENDSEC
  0
EOF
