  0
SECTION
  2
HEADER
  9
$ACADVER
  1
AC1015
  9
$ACADMAINTVER
 70
     6
  9
$DWGCODEPAGE
  3
ANSI_1252
  9
$INSBASE
 10
0.0
 20
0.0
 30
0.0
  9
$EXTMIN
 10
0.0
 20
0.0
 30
0.0
  9
$EXTMAX
 10
1300.0
 20
1000.0
 30
0.0
  9
$LIMMIN
 10
0.0
 20
0.0
  9
$LIMMAX
 10
1300.0
 20
1000.0
  9
$ORTHOMODE
 70
     0
  9
$REGENMODE
 70
     1
  9
$FILLMODE
 70
     1
  9
$QTEXTMODE
 70
     0
  9
$MIRRTEXT
 70
     1
  9
$LTSCALE
 40
1.0
  9
$ATTMODE
 70
     1
  9
$TEXTSIZE
 40
3.5
  9
$TRACEWID
 40
1.0
  9
$TEXTSTYLE
  7
Standard
  9
$CLAYER
  8
0
  9
$CELTYPE
  6
ByLayer
  9
$CECOLOR
 62
   256
  9
$CELTSCALE
 40
1.0
  9
$DISPSILH
 70
     0
  9
$DIMSCALE
 40
1.0
  9
$DIMASZ
 40
6.0
  9
$DIMEXO
 40
1.0
  9
$DIMDLI
 40
3.75
  9
$DIMRND
 40
0.0
  9
$DIMDLE
 40
0.0
  9
$DIMEXE
 40
1.0
  9
$DIMTP
 40
0.0
  9
$DIMTM
 40
0.0
  9
$DIMTXT
 40
3.5
  9
$DIMCEN
 40
2.5
  9
$DIMTSZ
 40
0.0
  9
$DIMTOL
 70
     0
  9
$DIMLIM
 70
     0
  9
$DIMTIH
 70
     1
  9
$DIMTOH
 70
     1
  9
$DIMSE1
 70
     0
  9
$DIMSE2
 70
     0
  9
$DIMTAD
 70
     1
  9
$DIMZIN
 70
     0
  9
$DIMBLK
  1

  9
$DIMASO
 70
     1
  9
$DIMSHO
 70
     1
  9
$DIMPOST
  1

  9
$DIMAPOST
  1

  9
$DIMALT
 70
     0
  9
$DIMALTD
 70
     3
  9
$DIMALTF
 40
0.0393700787
  9
$DIMLFAC
 40
1.0
  9
$DIMTOFL
 70
     1
  9
$DIMTVP
 40
0.0
  9
$DIMTIX
 70
     0
  9
$DIMSOXD
 70
     0
  9
$DIMSAH
 70
     0
  9
$DIMBLK1
  1

  9
$DIMBLK2
  1

  9
$DIMSTYLE
  2
ISO-25
  9
$DIMCLRD
 70
     0
  9
$DIMCLRE
 70
     0
  9
$DIMCLRT
 70
     0
  9
$DIMTFAC
 40
1.0
  9
$DIMGAP
 40
1.524
  9
$DIMJUST
 70
     0
  9
$DIMSD1
 70
     0
  9
$DIMSD2
 70
     0
  9
$DIMTOLJ
 70
     0
  9
$DIMTZIN
 70
     0
  9
$DIMALTZ
 70
     0
  9
$DIMALTTZ
 70
     0
  9
$DIMUPT
 70
     0
  9
$DIMDEC
 70
     3
  9
$DIMTDEC
 70
     3
  9
$DIMALTU
 70
     2
  9
$DIMALTTD
 70
     3
  9
$DIMTXSTY
  7
Standard
  9
$DIMAUNIT
 70
     0
  9
$DIMADEC
 70
     2
  9
$DIMALTRND
 40
0.0
  9
$DIMAZIN
 70
     0
  9
$DIMDSEP
 70
    44
  9
$DIMATFIT
 70
     3
  9
$DIMFRAC
 70
     0
  9
$DIMLDRBLK
  1

  9
$DIMLUNIT
 70
     2
  9
$DIMLWD
 70
    -2
  9
$DIMLWE
 70
    -2
  9
$DIMTMOVE
 70
     0
  9
$LUNITS
 70
     2
  9
$LUPREC
 70
     2
  9
$SKETCHINC
 40
1.0
  9
$FILLETRAD
 40
10.0
  9
$AUNITS
 70
     0
  9
$AUPREC
 70
     2
  9
$MENU
  1
.
  9
$ELEVATION
 40
0.0
  9
$PELEVATION
 40
0.0
  9
$THICKNESS
 40
0.0
  9
$LIMCHECK
 70
     0
  9
$CHAMFERA
 40
10.0
  9
$CHAMFERB
 40
10.0
  9
$CHAMFERC
 40
20.0
  9
$CHAMFERD
 40
0.0
  9
$SKPOLY
 70
     0
  9
$TDCREATE
 40
2457211.582247778
  9
$TDUCREATE
 40
2457211.498914444
  9
$TDUPDATE
 40
2457211.582248148
  9
$TDUUPDATE
 40
2457211.498914815
  9
$TDINDWG
 40
0.0000000116
  9
$TDUSRTIMER
 40
0.0000000116
  9
$USRTIMER
 70
     1
  9
$ANGBASE
 50
0.0
  9
$ANGDIR
 70
     0
  9
$PDMODE
 70
     0
  9
$PDSIZE
 40
-1.0
  9
$PLINEWID
 40
0.0
  9
$SPLFRAME
 70
     0
  9
$SPLINETYPE
 70
     6
  9
$SPLINESEGS
 70
     8
  9
$HANDSEED
  5
24A
  9
$SURFTAB1
 70
     6
  9
$SURFTAB2
 70
     6
  9
$SURFTYPE
 70
     6
  9
$SURFU
 70
     6
  9
$SURFV
 70
     6
  9
$UCSBASE
  2

  9
$UCSNAME
  2

  9
$UCSORG
 10
0.0
 20
0.0
 30
0.0
  9
$UCSXDIR
 10
1.0
 20
0.0
 30
0.0
  9
$UCSYDIR
 10
0.0
 20
1.0
 30
0.0
  9
$UCSORTHOREF
  2

  9
$UCSORTHOVIEW
 70
     0
  9
$UCSORGTOP
 10
0.0
 20
0.0
 30
0.0
  9
$UCSORGBOTTOM
 10
0.0
 20
0.0
 30
0.0
  9
$UCSORGLEFT
 10
0.0
 20
0.0
 30
0.0
  9
$UCSORGRIGHT
 10
0.0
 20
0.0
 30
0.0
  9
$UCSORGFRONT
 10
0.0
 20
0.0
 30
0.0
  9
$UCSORGBACK
 10
0.0
 20
0.0
 30
0.0
  9
$PUCSBASE
  2

  9
$PUCSNAME
  2

  9
$PUCSORG
 10
0.0
 20
0.0
 30
0.0
  9
$PUCSXDIR
 10
1.0
 20
0.0
 30
0.0
  9
$PUCSYDIR
 10
0.0
 20
1.0
 30
0.0
  9
$PUCSORTHOREF
  2

  9
$PUCSORTHOVIEW
 70
     0
  9
$PUCSORGTOP
 10
0.0
 20
0.0
 30
0.0
  9
$PUCSORGBOTTOM
 10
0.0
 20
0.0
 30
0.0
  9
$PUCSORGLEFT
 10
0.0
 20
0.0
 30
0.0
  9
$PUCSORGRIGHT
 10
0.0
 20
0.0
 30
0.0
  9
$PUCSORGFRONT
 10
0.0
 20
0.0
 30
0.0
  9
$PUCSORGBACK
 10
0.0
 20
0.0
 30
0.0
  9
$USERI1
 70
     0
  9
$USERI2
 70
     0
  9
$USERI3
 70
     0
  9
$USERI4
 70
     0
  9
$USERI5
 70
     0
  9
$USERR1
 40
0.0
  9
$USERR2
 40
0.0
  9
$USERR3
 40
0.0
  9
$USERR4
 40
0.0
  9
$USERR5
 40
0.0
  9
$WORLDVIEW
 70
     1
  9
$SHADEDGE
 70
     3
  9
$SHADEDIF
 70
    70
  9
$TILEMODE
 70
     1
  9
$MAXACTVP
 70
    64
  9
$PINSBASE
 10
0.0
 20
0.0
 30
0.0
  9
$PLIMCHECK
 70
     0
  9
$PEXTMIN
 10
1.0000000000E+20
 20
1.0000000000E+20
 30
1.0000000000E+20
  9
$PEXTMAX
 10
-1.0000000000E+20
 20
-1.0000000000E+20
 30
-1.0000000000E+20
  9
$PLIMMIN
 10
0.0
 20
0.0
  9
$PLIMMAX
 10
420.0
 20
297.0
  9
$UNITMODE
 70
     0
  9
$VISRETAIN
 70
     1
  9
$PLINEGEN
 70
     0
  9
$PSLTSCALE
 70
     1
  9
$TREEDEPTH
 70
  3020
  9
$CMLSTYLE
  2
Standard
  9
$CMLJUST
 70
     0
  9
$CMLSCALE
 40
20.0
  9
$PROXYGRAPHICS
 70
     1
  9
$MEASUREMENT
 70
     1
  9
$CELWEIGHT
370
    -1
  9
$ENDCAPS
280
     0
  9
$JOINSTYLE
280
     0
  9
$LWDISPLAY
290
     1
  9
$INSUNITS
 70
     4
  9
$HYPERLINKBASE
  1

  9
$STYLESHEET
  1

  9
$XEDIT
290
     1
  9
$CEPSNTYPE
380
     0
  9
$PSTYLEMODE
290
     1
  9
$FINGERPRINTGUID
  2
{3412171D-1324-4C54-ACAC-FDACD2A20A5B}
  9
$VERSIONGUID
  2
{FAEB1C32-E019-11D5-929B-00C0DF256EC4}
  9
$EXTNAMES
290
     1
  9
$PSVPSCALE
 40
0.0
  9
$OLESTARTUP
290
     0
  0
ENDSEC
  0
SECTION
  2
CLASSES
  0
CLASS
  1
ACDBDICTIONARYWDFLT
  2
AcDbDictionaryWithDefault
  3
ObjectDBX Classes
 90
        0
280
     0
281
     0
  0
CLASS
  1
VISUALSTYLE
  2
AcDbVisualStyle
  3
ObjectDBX Classes
 90
     4095
280
     0
281
     0
  0
CLASS
  1
MATERIAL
  2
AcDbMaterial
  3
ObjectDBX Classes
 90
     1153
280
     0
281
     0
  0
CLASS
  1
ACDBPLACEHOLDER
  2
AcDbPlaceHolder
  3
ObjectDBX Classes
 90
        0
280
     0
281
     0
  0
CLASS
  1
LAYOUT
  2
AcDbLayout
  3
ObjectDBX Classes
 90
        0
280
     0
281
     0
  0
ENDSEC
  0
SECTION
  2
TABLES
  0
TABLE
  2
VPORT
  5
8
330
0
100
AcDbSymbolTable
 70
     1
  0
VPORT
  5
29
330
8
100
AcDbSymbolTableRecord
100
AcDbViewportTableRecord
  2
*Active
 70
     0
 10
0.0
 20
0.0
 11
1.0
 21
1.0
 12
650.0
 22
500.0
 13
0.0
 23
0.0
 14
10.0
 24
10.0
 15
10.0
 25
10.0
 16
0.0
 26
0.0
 36
1.0
 17
0.0
 27
0.0
 37
0.0
 40
1000.0
 41
1.3
 42
50.0
 43
0.0
 44
0.0
 50
0.0
 51
0.0
 71
     0
 72
  2000
 73
     1
 74
     3
 75
     0
 76
     0
 77
     0
 78
     0
281
     0
 65
     1
110
0.0
120
0.0
130
0.0
111
1.0
121
0.0
131
0.0
112
0.0
122
1.0
132
0.0
 79
     0
146
0.0
  0
ENDTAB
  0
TABLE
  2
LTYPE
  5
5
330
0
100
AcDbSymbolTable
 70
     6
  0
LTYPE
  5
14
330
5
100
AcDbSymbolTableRecord
100
AcDbLinetypeTableRecord
  2
ByBlock
 70
     0
  3

 72
    65
 73
     0
 40
0.0
  0
LTYPE
  5
15
330
5
100
AcDbSymbolTableRecord
100
AcDbLinetypeTableRecord
  2
ByLayer
 70
     0
  3

 72
    65
 73
     0
 40
0.0
  0
LTYPE
  5
16
330
5
100
AcDbSymbolTableRecord
100
AcDbLinetypeTableRecord
  2
Continuous
 70
     0
  3
Solid line
 72
    65
 73
     0
 40
0.0
  0
LTYPE
  5
3F
330
5
100
AcDbSymbolTableRecord
100
AcDbLinetypeTableRecord
  2
HIDDEN
 70
     0
  3
Hidden __ __ __ __ __ __ __ __ __ __ __ __ __ __
 72
    65
 73
     2
 40
1.905
 49
1.27
 74
     0
 49
-0.635
 74
     0
  0
LTYPE
  5
40
330
5
100
AcDbSymbolTableRecord
100
AcDbLinetypeTableRecord
  2
PHANTOM
 70
     0
  3
Phantom ______  __  __  ______  __  __  ______
 72
    65
 73
     6
 40
12.7
 49
6.35
 74
     0
 49
-1.27
 74
     0
 49
1.27
 74
     0
 49
-1.27
 74
     0
 49
1.27
 74
     0
 49
-1.27
 74
     0
  0
LTYPE
  5
41
330
5
100
AcDbSymbolTableRecord
100
AcDbLinetypeTableRecord
  2
CENTER
 70
     0
  3
Center ____ _ ____ _ ____ _ ____ _ ____ _ ____
 72
    65
 73
     4
 40
10.16
 49
6.35
 74
     0
 49
-1.27
 74
     0
 49
1.27
 74
     0
 49
-1.27
 74
     0
  0
LTYPE
  5
42
330
5
100
AcDbSymbolTableRecord
100
AcDbLinetypeTableRecord
  2
CENTERX2
 70
     0
  3
Center (2x) ________  __  ________  __  _____
 72
    65
 73
     4
 40
20.32
 49
12.7
 74
     0
 49
-2.54
 74
     0
 49
2.54
 74
     0
 49
-2.54
 74
     0
  0
LTYPE
  5
43
330
5
100
AcDbSymbolTableRecord
100
AcDbLinetypeTableRecord
  2
DOT2
 70
     0
  3
Dot (.5x) ........................................
 72
    65
 73
     2
 40
0.635
 49
0.0
 74
     0
 49
-0.635
 74
     0
  0
ENDTAB
  0
TABLE
  2
LAYER
  5
2
330
0
100
AcDbSymbolTable
 70
     1
  0
LAYER
  5
10
330
2
100
AcDbSymbolTableRecord
100
AcDbLayerTableRecord
  2
0
 70
     0
 62
     7
  6
Continuous
370
    -3
390
F
  0
ENDTAB
  0
TABLE
  2
STYLE
  5
3
330
0
100
AcDbSymbolTable
 70
     1
  0
STYLE
  5
11
330
3
100
AcDbSymbolTableRecord
100
AcDbTextStyleTableRecord
  2
Standard
 70
     0
 40
0.0
 41
1.0
 50
0.0
 71
     0
 42
3.5
  3
txt
  4

  0
ENDTAB
  0
TABLE
  2
VIEW
  5
6
330
0
100
AcDbSymbolTable
 70
     0
  0
ENDTAB
  0
TABLE
  2
UCS
  5
7
330
0
100
AcDbSymbolTable
 70
     0
  0
ENDTAB
  0
TABLE
  2
APPID
  5
9
330
0
100
AcDbSymbolTable
 70
     1
  0
APPID
  5
12
330
9
100
AcDbSymbolTableRecord
100
AcDbRegAppTableRecord
  2
ACAD
 70
     0
  0
ENDTAB
  0
TABLE
  2
DIMSTYLE
  5
A
330
0
100
AcDbSymbolTable
 70
     1
100
AcDbDimStyleTable
  0
DIMSTYLE
105
27
330
A
100
AcDbSymbolTableRecord
100
AcDbDimStyleTableRecord
  2
ISO-25
 70
     0
 41
2.5
 42
0.625
 43
3.75
 44
1.25
 73
     0
 74
     0
 77
     1
 78
     8
140
2.5
141
2.5
143
0.0393700787
147
0.625
171
     3
172
     1
178
     0
271
     2
272
     2
274
     3
278
    44
283
     0
284
     8
340
11
  0
ENDTAB
  0
TABLE
  2
BLOCK_RECORD
  5
1
330
0
100
AcDbSymbolTable
 70
     1
  0
BLOCK_RECORD
  5
1F
330
1
100
AcDbSymbolTableRecord
100
AcDbBlockTableRecord
  2
*Model_Space
340
22
  0
BLOCK_RECORD
  5
1B
330
1
100
AcDbSymbolTableRecord
100
AcDbBlockTableRecord
  2
*Paper_Space
340
1E
  0
BLOCK_RECORD
  5
23
330
1
100
AcDbSymbolTableRecord
100
AcDbBlockTableRecord
  2
*Paper_Space0
340
26
  0
ENDTAB
  0
ENDSEC
  0
SECTION
  2
BLOCKS
  0
BLOCK
  5
20
330
1F
100
AcDbEntity
  8
0
100
AcDbBlockBegin
  2
*Model_Space
 70
     0
 10
0.0
 20
0.0
 30
0.0
  3
*Model_Space
  1

  0
ENDBLK
  5
21
330
1F
100
AcDbEntity
  8
0
100
AcDbBlockEnd
  0
BLOCK
  5
1C
330
1B
100
AcDbEntity
 67
     1
  8
0
100
AcDbBlockBegin
  2
*Paper_Space
 70
     0
 10
0.0
 20
0.0
 30
0.0
  3
*Paper_Space
  1

  0
ENDBLK
  5
1D
330
1B
100
AcDbEntity
 67
     1
  8
0
100
AcDbBlockEnd
  0
BLOCK
  5
24
330
23
100
AcDbEntity
  8
0
100
AcDbBlockBegin
  2
*Paper_Space0
 70
     0
 10
0.0
 20
0.0
 30
0.0
  3
*Paper_Space0
  1

  0
ENDBLK
  5
25
330
23
100
AcDbEntity
  8
0
100
AcDbBlockEnd
  0
ENDSEC
  0
SECTION
  2
ENTITIES
  0
ARC
  5
44
330
1F
100
AcDbEntity
  8
0
  6
Continuous
 62
     7
370
    15
100
AcDbCircle
 10
384.0184757506
 20
731.8179212902
 30
0.0
 40
5.0
100
AcDbArc
 50
180.0
 51
256.2997665116
  0
ARC
  5
45
330
1F
100
AcDbEntity
  8
0
  6
Continuous
 62
     7
370
    15
100
AcDbCircle
 10
444.0184757506
 20
731.8179212902
 30
0.0
 40
5.0
100
AcDbArc
 50
283.7002334884
 51
0.0
  0
LINE
  5
46
330
1F
100
AcDbEntity
  8
0
  6
Continuous
 62
     7
370
    15
100
AcDbLine
 10
449.0184757506
 20
731.8179212902
 30
0.0
 11
449.0184757506
 21
735.8179212902
 31
0.0
  0
LINE
  5
47
330
1F
100
AcDbEntity
  8
0
  6
Continuous
 62
     7
370
    15
100
AcDbLine
 10
379.0184757506
 20
735.8179212902
 30
0.0
 11
379.0184757506
 21
731.8179212902
 31
0.0
  0
LINE
  5
48
330
1F
100
AcDbEntity
  8
0
  6
Continuous
 62
     7
370
    15
100
AcDbLine
 10
381.8684757506
 20
704.3190325385
 30
0.0
 11
381.8684757506
 21
702.8179212902
 31
0.0
  0
LINE
  5
49
330
1F
100
AcDbEntity
  8
0
  6
Continuous
 62
     7
370
    15
100
AcDbLine
 10
446.1684757506
 20
702.8179212902
 30
0.0
 11
446.1684757506
 21
704.3190325385
 31
0.0
  0
ARC
  5
4A
330
1F
100
AcDbEntity
  8
0
  6
Continuous
 62
     7
370
    15
100
AcDbCircle
 10
383.3684757506
 20
704.3190325385
 30
0.0
 40
1.500000000077458
100
AcDbArc
 50
91.2733442282
 51
180.0
  0
ARC
  5
4B
330
1F
100
AcDbEntity
  8
0
  6
Continuous
 62
     7
370
    15
100
AcDbCircle
 10
444.6684757506
 20
704.3190325385
 30
0.0
 40
1.500000000077458
100
AcDbArc
 50
0.0
 51
88.7266557718
  0
ARC
  5
4C
330
1F
100
AcDbEntity
  8
0
  6
Continuous
 62
     7
370
    15
100
AcDbCircle
 10
381.7684757506
 20
722.5882138192
 30
0.0
 40
4.500000000000031
100
AcDbArc
 50
0.0
 51
76.2997665116
  0
ARC
  5
4D
330
1F
100
AcDbEntity
  8
0
  6
Continuous
 62
     7
370
    15
100
AcDbCircle
 10
446.2684757506
 20
722.5882138192
 30
0.0
 40
4.500000000000031
100
AcDbArc
 50
103.7002334884
 51
180.0
  0
ARC
  5
4E
330
1F
100
AcDbEntity
  8
0
  6
Continuous
 62
     7
370
    15
100
AcDbCircle
 10
444.7684757506
 20
708.8179212902
 30
0.0
 40
3.0
100
AcDbArc
 50
180.0
 51
268.726655572
  0
ARC
  5
4F
330
1F
100
AcDbEntity
  8
0
  6
Continuous
 62
     7
370
    15
100
AcDbCircle
 10
383.2684757506
 20
708.8179212902
 30
0.0
 40
3.0
100
AcDbArc
 50
271.273344428
 51
0.0
  0
LINE
  5
50
330
1F
100
AcDbEntity
  8
0
  6
Continuous
 62
     7
370
    15
100
AcDbLine
 10
441.7684757506
 20
708.8179212902
 30
0.0
 11
441.7684757506
 21
722.5882138192
 31
0.0
  0
LINE
  5
51
330
1F
100
AcDbEntity
  8
0
  6
Continuous
 62
     7
370
    15
100
AcDbLine
 10
386.2684757506
 20
722.5882138192
 30
0.0
 11
386.2684757506
 21
708.8179212902
 31
0.0
  0
ARC
  5
52
330
1F
100
AcDbEntity
  8
0
  6
Continuous
 62
     7
370
    15
100
AcDbCircle
 10
379.1302791495
 20
738.6179212902
 30
0.0
 40
0.1500000000000209
100
AcDbArc
 50
138.1896851042
 51
221.8103148958
  0
ARC
  5
53
330
1F
100
AcDbEntity
  8
0
  6
Continuous
 62
     7
370
    15
100
AcDbCircle
 10
448.9066723517
 20
738.6179212902
 30
0.0
 40
0.1499999999999785
100
AcDbArc
 50
318.1896851042
 51
41.8103148958
  0
ARC
  5
54
330
1F
100
AcDbEntity
  8
0
  6
Continuous
 62
     7
370
    15
100
AcDbCircle
 10
379.1302791495
 20
740.4179212902
 30
0.0
 40
0.1500000000000209
100
AcDbArc
 50
138.1896851042
 51
221.8103148958
  0
ARC
  5
55
330
1F
100
AcDbEntity
  8
0
  6
Continuous
 62
     7
370
    15
100
AcDbCircle
 10
448.9066723517
 20
740.4179212902
 30
0.0
 40
0.1499999999999785
100
AcDbArc
 50
318.1896851042
 51
41.8103148958
  0
ARC
  5
56
330
1F
100
AcDbEntity
  8
0
  6
Continuous
 62
     7
370
    15
100
AcDbCircle
 10
379.1302791495
 20
742.2179212902
 30
0.0
 40
0.1500000000000209
100
AcDbArc
 50
138.1896851042
 51
221.8103148958
  0
ARC
  5
57
330
1F
100
AcDbEntity
  8
0
  6
Continuous
 62
     7
370
    15
100
AcDbCircle
 10
448.9066723517
 20
742.2179212902
 30
0.0
 40
0.1499999999999785
100
AcDbArc
 50
318.1896851042
 51
41.8103148958
  0
ARC
  5
58
330
1F
100
AcDbEntity
  8
0
  6
Continuous
 62
     7
370
    15
100
AcDbCircle
 10
379.1302791495
 20
744.0179212902
 30
0.0
 40
0.1500000000000967
100
AcDbArc
 50
138.1896851042
 51
221.8103148958
  0
ARC
  5
59
330
1F
100
AcDbEntity
  8
0
  6
Continuous
 62
     7
370
    15
100
AcDbCircle
 10
448.9066723517
 20
744.0179212902
 30
0.0
 40
0.1500000000000543
100
AcDbArc
 50
318.1896851042
 51
41.8103148958
  0
LINE
  5
5A
330
1F
100
AcDbEntity
  8
0
  6
Continuous
 62
     7
370
    15
100
AcDbLine
 10
379.0184757506
 20
738.5179212902
 30
0.0
 11
379.0184757506
 21
735.8179212902
 31
0.0
  0
LINE
  5
5B
330
1F
100
AcDbEntity
  8
0
  6
Continuous
 62
     7
370
    15
100
AcDbLine
 10
449.0184757506
 20
735.8179212902
 30
0.0
 11
449.0184757506
 21
738.5179212902
 31
0.0
  0
LINE
  5
5C
330
1F
100
AcDbEntity
  8
0
  6
Continuous
 62
     7
370
    15
100
AcDbLine
 10
379.0184757506
 20
740.3179212902
 30
0.0
 11
379.0184757506
 21
738.7179212902
 31
0.0
  0
LINE
  5
5D
330
1F
100
AcDbEntity
  8
0
  6
Continuous
 62
     7
370
    15
100
AcDbLine
 10
449.0184757506
 20
738.7179212902
 30
0.0
 11
449.0184757506
 21
740.3179212902
 31
0.0
  0
LINE
  5
5E
330
1F
100
AcDbEntity
  8
0
  6
Continuous
 62
     7
370
    15
100
AcDbLine
 10
379.0184757506
 20
742.1179212902
 30
0.0
 11
379.0184757506
 21
740.5179212902
 31
0.0
  0
LINE
  5
5F
330
1F
100
AcDbEntity
  8
0
  6
Continuous
 62
     7
370
    15
100
AcDbLine
 10
449.0184757506
 20
740.5179212902
 30
0.0
 11
449.0184757506
 21
742.1179212902
 31
0.0
  0
LINE
  5
60
330
1F
100
AcDbEntity
  8
0
  6
Continuous
 62
     7
370
    15
100
AcDbLine
 10
379.0184757506
 20
743.9179212902
 30
0.0
 11
379.0184757506
 21
742.3179212902
 31
0.0
  0
LINE
  5
61
330
1F
100
AcDbEntity
  8
0
  6
Continuous
 62
     7
370
    15
100
AcDbLine
 10
449.0184757506
 20
742.3179212902
 30
0.0
 11
449.0184757506
 21
743.9179212902
 31
0.0
  0
LINE
  5
62
330
1F
100
AcDbEntity
  8
0
  6
Continuous
 62
     7
370
    15
100
AcDbLine
 10
379.0184757506
 20
748.8179212902
 30
0.0
 11
379.0184757506
 21
744.1179212902
 31
0.0
  0
LINE
  5
63
330
1F
100
AcDbEntity
  8
0
  6
Continuous
 62
     7
370
    15
100
AcDbLine
 10
449.0184757506
 20
744.1179212902
 30
0.0
 11
449.0184757506
 21
748.8179212902
 31
0.0
  0
ARC
  5
64
330
1F
100
AcDbEntity
  8
0
  6
Continuous
 62
     7
370
    15
100
AcDbCircle
 10
373.1312879584
 20
743.7432762125
 30
0.0
 40
8.910000000000093
100
AcDbArc
 50
52.1480946784
 51
83.3152054855
  0
ARC
  5
65
330
1F
100
AcDbEntity
  8
0
  6
Continuous
 62
     7
370
    15
100
AcDbCircle
 10
454.9056635428
 20
743.7432762125
 30
0.0
 40
8.910000000000128
100
AcDbArc
 50
96.6847945145
 51
127.8519053216
  0
LINE
  5
66
330
1F
100
AcDbEntity
  8
0
  6
Continuous
 62
     7
370
    15
100
AcDbLine
 10
378.5986654874
 20
750.7786072604
 30
0.0
 11
381.1216437907
 21
748.8179212902
 31
0.0
  0
LINE
  5
67
330
1F
100
AcDbEntity
  8
0
  6
Continuous
 62
     7
370
    15
100
AcDbLine
 10
446.9153077105
 20
748.8179212902
 30
0.0
 11
449.4382860137
 21
750.7786072604
 31
0.0
  0
LINE
  5
68
330
1F
100
AcDbEntity
  8
0
  6
Continuous
 62
     7
370
    15
100
AcDbLine
 10
47.0206386002
 20
754.592689044
 30
0.0
 11
374.1684757506
 21
752.5927022664
 31
0.0
  0
LINE
  5
69
330
1F
100
AcDbEntity
  8
0
  6
Continuous
 62
     7
370
    15
100
AcDbLine
 10
453.8684757506
 20
752.5927022664
 30
0.0
 11
781.016312901
 21
754.592689044
 31
0.0
  0
LINE
  5
6A
330
1F
100
AcDbEntity
  8
0
  6
Continuous
 62
     7
370
    15
100
AcDbLine
 10
729.0184757506
 20
752.0927022664
 30
0.0
 11
729.0184757506
 21
753.5927022664
 31
0.0
  0
LINE
  5
6B
330
1F
100
AcDbEntity
  8
0
  6
Continuous
 62
     7
370
    15
100
AcDbLine
 10
649.0184757506
 20
753.5927022664
 30
0.0
 11
649.0184757506
 21
752.0927022664
 31
0.0
  0
ARC
  5
6C
330
1F
100
AcDbEntity
  8
0
  6
Continuous
 62
     7
370
    15
100
AcDbCircle
 10
414.0184757506
 20
719.2179212902
 30
0.0
 40
18.80000000000009
100
AcDbArc
 50
270.0
 51
299.2682383253
  0
ARC
  5
6D
330
1F
100
AcDbEntity
  8
0
  6
Continuous
 62
     7
370
    15
100
AcDbCircle
 10
414.0184757506
 20
719.2179212902
 30
0.0
 40
18.80000000000009
100
AcDbArc
 50
240.7317616747
 51
270.0
  0
ARC
  5
6E
330
1F
100
AcDbEntity
  8
0
  6
Continuous
 62
     7
370
    15
100
AcDbCircle
 10
414.0184757506
 20
719.2179212902
 30
0.0
 40
20.00000000000009
100
AcDbArc
 50
270.0
 51
304.9152062474
  0
ARC
  5
6F
330
1F
100
AcDbEntity
  8
0
  6
Continuous
 62
     7
370
    15
100
AcDbCircle
 10
414.0184757506
 20
719.2179212902
 30
0.0
 40
20.00000000000009
100
AcDbArc
 50
235.0847937526
 51
270.0
  0
ARC
  5
70
330
1F
100
AcDbEntity
  8
0
  6
Continuous
 62
     7
370
    15
100
AcDbCircle
 10
414.0184757506
 20
719.2179212902
 30
0.0
 40
17.60000000000008
100
AcDbArc
 50
270.0
 51
291.2799664684
  0
ARC
  5
71
330
1F
100
AcDbEntity
  8
0
  6
Continuous
 62
     7
370
    15
100
AcDbCircle
 10
414.0184757506
 20
719.2179212902
 30
0.0
 40
17.60000000000008
100
AcDbArc
 50
248.7200335316
 51
270.0
  0
LWPOLYLINE
  5
72
330
1F
100
AcDbEntity
  8
0
  6
Continuous
 62
     7
370
    15
100
AcDbPolyline
 90
        3
 70
   128
 43
0.0
 10
414.0184757506
 20
702.4179212902
 10
416.4645753685
 20
702.5969527066
 10
417.6626491822
 20
702.8179212902
  0
LWPOLYLINE
  5
73
330
1F
100
AcDbEntity
  8
0
  6
Continuous
 62
     7
370
    15
100
AcDbPolyline
 90
        3
 70
   128
 43
0.0
 10
410.3743023189
 20
702.8179212902
 10
411.5723761326
 20
702.5969527066
 10
414.0184757506
 20
702.4179212902
  0
LINE
  5
74
330
1F
100
AcDbEntity
  8
0
  6
Continuous
 62
     7
370
    15
100
AcDbLine
 10
414.0184757506
 20
702.4179212902
 30
0.0
 11
414.0184757506
 21
702.5876332188
 31
0.0
  0
LINE
  5
75
330
1F
100
AcDbEntity
  8
0
  6
Continuous
 62
     7
370
    15
100
AcDbLine
 10
379.0184757506
 20
735.8179212902
 30
0.0
 11
449.0184757506
 21
735.8179212902
 31
0.0
  0
LINE
  5
76
330
1F
100
AcDbEntity
  8
0
  6
Continuous
 62
     7
370
    15
100
AcDbLine
 10
446.1684757506
 20
702.8179212902
 30
0.0
 11
381.8684757506
 21
702.8179212902
 31
0.0
  0
LINE
  5
77
330
1F
100
AcDbEntity
  8
0
  6
Continuous
 62
     7
370
    15
100
AcDbLine
 10
416.3009242481
 20
702.8179212902
 30
0.0
 11
418.0129137823
 21
703.0429501475
 31
0.0
  0
LINE
  5
78
330
1F
100
AcDbEntity
  8
0
  6
Continuous
 62
     7
370
    15
100
AcDbLine
 10
379.0184757506
 20
738.5179212902
 30
0.0
 11
449.0184757506
 21
738.5179212902
 31
0.0
  0
LINE
  5
79
330
1F
100
AcDbEntity
  8
0
  6
Continuous
 62
     7
370
    15
100
AcDbLine
 10
379.0184757506
 20
738.7179212902
 30
0.0
 11
449.0184757506
 21
738.7179212902
 31
0.0
  0
LINE
  5
7A
330
1F
100
AcDbEntity
  8
0
  6
Continuous
 62
     7
370
    15
100
AcDbLine
 10
379.0184757506
 20
740.3179212902
 30
0.0
 11
449.0184757506
 21
740.3179212902
 31
0.0
  0
LINE
  5
7B
330
1F
100
AcDbEntity
  8
0
  6
Continuous
 62
     7
370
    15
100
AcDbLine
 10
379.0184757506
 20
740.5179212902
 30
0.0
 11
449.0184757506
 21
740.5179212902
 31
0.0
  0
LINE
  5
7C
330
1F
100
AcDbEntity
  8
0
  6
Continuous
 62
     7
370
    15
100
AcDbLine
 10
379.0184757506
 20
742.1179212902
 30
0.0
 11
449.0184757506
 21
742.1179212902
 31
0.0
  0
LINE
  5
7D
330
1F
100
AcDbEntity
  8
0
  6
Continuous
 62
     7
370
    15
100
AcDbLine
 10
379.0184757506
 20
742.3179212902
 30
0.0
 11
449.0184757506
 21
742.3179212902
 31
0.0
  0
LINE
  5
7E
330
1F
100
AcDbEntity
  8
0
  6
Continuous
 62
     7
370
    15
100
AcDbLine
 10
379.0184757506
 20
743.9179212902
 30
0.0
 11
449.0184757506
 21
743.9179212902
 31
0.0
  0
LINE
  5
7F
330
1F
100
AcDbEntity
  8
0
  6
Continuous
 62
     7
370
    15
100
AcDbLine
 10
379.0184757506
 20
744.1179212902
 30
0.0
 11
449.0184757506
 21
744.1179212902
 31
0.0
  0
LINE
  5
80
330
1F
100
AcDbEntity
  8
0
  6
Continuous
 62
     7
370
    15
100
AcDbLine
 10
379.0184757506
 20
748.8179212902
 30
0.0
 11
449.0184757506
 21
748.8179212902
 31
0.0
  0
LINE
  5
81
330
1F
100
AcDbEntity
  8
0
  6
Continuous
 62
     7
370
    15
100
AcDbLine
 10
374.1684757506
 20
752.5927022664
 30
0.0
 11
453.8684757506
 21
752.5927022664
 31
0.0
  0
LINE
  5
82
330
1F
100
AcDbEntity
  8
0
  6
Continuous
 62
     7
370
    15
100
AcDbLine
 10
811.0184757506
 20
853.0927022664
 30
0.0
 11
806.1893143282
 21
853.0927022664
 31
0.0
  0
ARC
  5
83
330
1F
100
AcDbEntity
  8
0
  6
Continuous
 62
     7
370
    15
100
AcDbCircle
 10
809.5184757506
 20
853.0927022664
 30
0.0
 40
1.5
100
AcDbArc
 50
270.0
 51
0.0
  0
LINE
  5
84
330
1F
100
AcDbEntity
  8
0
  6
Continuous
 62
     7
370
    15
100
AcDbLine
 10
809.5184757506
 20
851.5927022664
 30
0.0
 11
806.1893143282
 21
851.5927022664
 31
0.0
  0
LINE
  5
85
330
1F
100
AcDbEntity
  8
0
  6
Continuous
 62
     7
370
    15
100
AcDbLine
 10
806.1893143282
 20
853.0927022664
 30
0.0
 11
806.1893143282
 21
851.5927022664
 31
0.0
  0
LINE
  5
86
330
1F
100
AcDbEntity
  8
0
  6
Continuous
 62
     7
370
    15
100
AcDbLine
 10
806.1893143282
 20
853.0927022664
 30
0.0
 11
21.847637173
 21
853.0927022664
 31
0.0
  0
LINE
  5
87
330
1F
100
AcDbEntity
  8
0
  6
Continuous
 62
     7
370
    15
100
AcDbLine
 10
806.1893143282
 20
851.5927022664
 30
0.0
 11
21.847637173
 21
851.5927022664
 31
0.0
  0
LINE
  5
88
330
1F
100
AcDbEntity
  8
0
  6
Continuous
 62
     7
370
    15
100
AcDbLine
 10
21.847637173
 20
853.0927022664
 30
0.0
 11
21.847637173
 21
851.5927022664
 31
0.0
  0
ARC
  5
89
330
1F
100
AcDbEntity
  8
0
  6
Continuous
 62
     7
370
    15
100
AcDbCircle
 10
809.5184757506
 20
853.0927022664
 30
0.0
 40
1.5
100
AcDbArc
 50
0.0
 51
90.0
  0
LINE
  5
8A
330
1F
100
AcDbEntity
  8
0
  6
Continuous
 62
     7
370
    15
100
AcDbLine
 10
806.1893143282
 20
854.5927022664
 30
0.0
 11
806.1893143282
 21
853.0927022664
 31
0.0
  0
LINE
  5
8B
330
1F
100
AcDbEntity
  8
0
  6
Continuous
 62
     7
370
    15
100
AcDbLine
 10
806.1893143282
 20
854.5927022664
 30
0.0
 11
809.5184757506
 21
854.5927022664
 31
0.0
  0
LINE
  5
8C
330
1F
100
AcDbEntity
  8
0
  6
Continuous
 62
     7
370
    15
100
AcDbLine
 10
21.847637173
 20
854.5927022664
 30
0.0
 11
21.847637173
 21
853.0927022664
 31
0.0
  0
LINE
  5
8D
330
1F
100
AcDbEntity
  8
0
  6
Continuous
 62
     7
370
    15
100
AcDbLine
 10
21.847637173
 20
854.5927022664
 30
0.0
 11
806.1893143282
 21
854.5927022664
 31
0.0
  0
LINE
  5
8E
330
1F
100
AcDbEntity
  8
0
  6
Continuous
 62
     7
370
    15
100
AcDbLine
 10
21.847637173
 20
853.0927022664
 30
0.0
 11
17.0184757506
 21
853.0927022664
 31
0.0
  0
LINE
  5
8F
330
1F
100
AcDbEntity
  8
0
  6
Continuous
 62
     7
370
    15
100
AcDbLine
 10
21.847637173
 20
851.5927022664
 30
0.0
 11
18.5184757506
 21
851.5927022664
 31
0.0
  0
ARC
  5
90
330
1F
100
AcDbEntity
  8
0
  6
Continuous
 62
     7
370
    15
100
AcDbCircle
 10
18.5184757506
 20
853.0927022664
 30
0.0
 40
1.5
100
AcDbArc
 50
180.0
 51
270.0
  0
ARC
  5
91
330
1F
100
AcDbEntity
  8
0
  6
Continuous
 62
     7
370
    15
100
AcDbCircle
 10
18.5184757506
 20
853.0927022664
 30
0.0
 40
1.500000000000114
100
AcDbArc
 50
90.0
 51
180.0
  0
LINE
  5
92
330
1F
100
AcDbEntity
  8
0
  6
Continuous
 62
     7
370
    15
100
AcDbLine
 10
18.5184757506
 20
854.5927022664
 30
0.0
 11
21.847637173
 21
854.5927022664
 31
0.0
  0
LINE
  5
93
330
1F
100
AcDbEntity
  8
0
  6
Continuous
 62
     7
370
    15
100
AcDbLine
 10
784.0184757506
 20
851.5927022664
 30
0.0
 11
784.0184757506
 21
849.5927022664
 31
0.0
  0
LINE
  5
94
330
1F
100
AcDbEntity
  8
0
  6
Continuous
 62
     7
370
    15
100
AcDbLine
 10
784.0184757506
 20
849.5927022664
 30
0.0
 11
44.0184757506
 21
849.5927022664
 31
0.0
  0
LINE
  5
95
330
1F
100
AcDbEntity
  8
0
  6
Continuous
 62
     7
370
    15
100
AcDbLine
 10
44.0184757506
 20
851.5927022664
 30
0.0
 11
44.0184757506
 21
849.5927022664
 31
0.0
  0
ARC
  5
96
330
1F
100
AcDbEntity
  8
0
  6
Continuous
 62
     7
370
    15
100
AcDbCircle
 10
791.0184757506
 20
849.5927022664
 30
0.0
 40
2.0
100
AcDbArc
 50
90.0
 51
180.0
  0
LINE
  5
97
330
1F
100
AcDbEntity
  8
0
  6
Continuous
 62
     7
370
    15
100
AcDbLine
 10
789.0184757506
 20
849.5927022664
 30
0.0
 11
784.0184757506
 21
849.5927022664
 31
0.0
  0
LINE
  5
98
330
1F
100
AcDbEntity
  8
0
  6
Continuous
 62
     7
370
    15
100
AcDbLine
 10
44.0184757506
 20
849.5927022664
 30
0.0
 11
39.0184757506
 21
849.5927022664
 31
0.0
  0
ARC
  5
99
330
1F
100
AcDbEntity
  8
0
  6
Continuous
 62
     7
370
    15
100
AcDbCircle
 10
37.0184757506
 20
849.5927022664
 30
0.0
 40
2.000000000000007
100
AcDbArc
 50
0.0
 51
90.0
  0
ARC
  5
9A
330
1F
100
AcDbEntity
  8
0
  6
Continuous
 62
     7
370
    15
100
AcDbCircle
 10
784.0184757506
 20
759.5927022664
 30
0.0
 40
5.0
100
AcDbArc
 50
270.0
 51
0.0
  0
LINE
  5
9B
330
1F
100
AcDbEntity
  8
0
  6
Continuous
 62
     7
370
    15
100
AcDbLine
 10
784.0184757506
 20
759.5927022664
 30
0.0
 11
784.0184757506
 21
754.5927022664
 31
0.0
  0
LINE
  5
9C
330
1F
100
AcDbEntity
  8
0
  6
Continuous
 62
     7
370
    15
100
AcDbLine
 10
784.0184757506
 20
759.5927022664
 30
0.0
 11
789.0184757506
 21
759.5927022664
 31
0.0
  0
LINE
  5
9D
330
1F
100
AcDbEntity
  8
0
  6
Continuous
 62
     7
370
    15
100
AcDbLine
 10
784.0184757506
 20
849.5927022664
 30
0.0
 11
784.0184757506
 21
759.5927022664
 31
0.0
  0
LINE
  5
9E
330
1F
100
AcDbEntity
  8
0
  6
Continuous
 62
     7
370
    15
100
AcDbLine
 10
789.0184757506
 20
849.5927022664
 30
0.0
 11
789.0184757506
 21
759.5927022664
 31
0.0
  0
LINE
  5
9F
330
1F
100
AcDbEntity
  8
0
  6
Continuous
 62
     7
370
    15
100
AcDbLine
 10
44.0184757506
 20
759.5927022664
 30
0.0
 11
784.0184757506
 21
759.5927022664
 31
0.0
  0
LINE
  5
A0
330
1F
100
AcDbEntity
  8
0
  6
Continuous
 62
     7
370
    15
100
AcDbLine
 10
784.0184757506
 20
754.5927022664
 30
0.0
 11
44.0184757506
 21
754.5927022664
 31
0.0
  0
LINE
  5
A1
330
1F
100
AcDbEntity
  8
0
  6
Continuous
 62
     7
370
    15
100
AcDbLine
 10
44.0184757506
 20
759.5927022664
 30
0.0
 11
44.0184757506
 21
754.5927022664
 31
0.0
  0
LINE
  5
A2
330
1F
100
AcDbEntity
  8
0
  6
Continuous
 62
     7
370
    15
100
AcDbLine
 10
44.0184757506
 20
849.5927022664
 30
0.0
 11
44.0184757506
 21
759.5927022664
 31
0.0
  0
LINE
  5
A3
330
1F
100
AcDbEntity
  8
0
  6
Continuous
 62
     7
370
    15
100
AcDbLine
 10
39.0184757506
 20
759.5927022664
 30
0.0
 11
44.0184757506
 21
759.5927022664
 31
0.0
  0
ARC
  5
A4
330
1F
100
AcDbEntity
  8
0
  6
Continuous
 62
     7
370
    15
100
AcDbCircle
 10
44.0184757506
 20
759.5927022664
 30
0.0
 40
5.0
100
AcDbArc
 50
180.0
 51
270.0
  0
LINE
  5
A5
330
1F
100
AcDbEntity
  8
0
  6
Continuous
 62
     7
370
    15
100
AcDbLine
 10
39.0184757506
 20
849.5927022664
 30
0.0
 11
39.0184757506
 21
759.5927022664
 31
0.0
  0
LINE
  5
A6
330
1F
100
AcDbEntity
  8
0
  6
Continuous
 62
     7
370
    15
100
AcDbLine
 10
449.816098517
 20
752.5927022664
 30
0.0
 11
781.0184757506
 21
754.5927022664
 31
0.0
  0
LINE
  5
A7
330
1F
100
AcDbEntity
  8
0
  6
Continuous
 62
     7
370
    15
100
AcDbLine
 10
378.2208529842
 20
752.5927022664
 30
0.0
 11
449.816098517
 21
752.5927022664
 31
0.0
  0
LINE
  5
A8
330
1F
100
AcDbEntity
  8
0
  6
Continuous
 62
     7
370
    15
100
AcDbLine
 10
47.0184757506
 20
754.5927022664
 30
0.0
 11
378.2208529842
 21
752.5927022664
 31
0.0
  0
LINE
  5
A9
330
1F
100
AcDbEntity
  8
0
  6
Continuous
 62
     7
370
    15
100
AcDbLine
 10
374.168475759
 20
752.5927022664
 30
0.0
 11
378.2208529842
 21
752.5927022664
 31
0.0
  0
LINE
  5
AA
330
1F
100
AcDbEntity
  8
0
  6
Continuous
 62
     7
370
    15
100
AcDbLine
 10
449.816098517
 20
752.5927022664
 30
0.0
 11
453.8684757506
 21
752.5927022664
 31
0.0
  0
LINE
  5
AB
330
1F
100
AcDbEntity
  8
0
  6
Continuous
 62
     7
370
    15
100
AcDbLine
 10
720.0184757506
 20
752.0927022664
 30
0.0
 11
729.0184757506
 21
752.0927022664
 31
0.0
  0
LINE
  5
AC
330
1F
100
AcDbEntity
  8
0
  6
Continuous
 62
     7
370
    15
100
AcDbLine
 10
720.0184757506
 20
752.0927022664
 30
0.0
 11
720.0184757506
 21
753.5927022664
 31
0.0
  0
LINE
  5
AD
330
1F
100
AcDbEntity
  8
0
  6
Continuous
 62
     7
370
    15
100
AcDbLine
 10
720.0184757506
 20
753.5927022664
 30
0.0
 11
729.0184757506
 21
753.5927022664
 31
0.0
  0
LINE
  5
AE
330
1F
100
AcDbEntity
  8
0
  6
Continuous
 62
     7
370
    15
100
AcDbLine
 10
658.0184757506
 20
752.0927022664
 30
0.0
 11
658.0184757506
 21
753.5927022664
 31
0.0
  0
LINE
  5
AF
330
1F
100
AcDbEntity
  8
0
  6
Continuous
 62
     7
370
    15
100
AcDbLine
 10
658.0184757506
 20
753.5927022664
 30
0.0
 11
720.0184757506
 21
753.5927022664
 31
0.0
  0
LINE
  5
B0
330
1F
100
AcDbEntity
  8
0
  6
Continuous
 62
     7
370
    15
100
AcDbLine
 10
658.0184757506
 20
752.0927022664
 30
0.0
 11
720.0184757506
 21
752.0927022664
 31
0.0
  0
LINE
  5
B1
330
1F
100
AcDbEntity
  8
0
  6
Continuous
 62
     7
370
    15
100
AcDbLine
 10
649.0184757506
 20
753.5927022664
 30
0.0
 11
658.0184757506
 21
753.5927022664
 31
0.0
  0
LINE
  5
B2
330
1F
100
AcDbEntity
  8
0
  6
Continuous
 62
     7
370
    15
100
AcDbLine
 10
649.0184757506
 20
752.0927022664
 30
0.0
 11
658.0184757506
 21
752.0927022664
 31
0.0
  0
LINE
  5
B3
330
1F
100
AcDbEntity
  8
0
  6
Continuous
 62
     8
370
    15
100
AcDbLine
 10
379.0184757506
 20
731.8179212902
 30
0.0
 11
449.0184757506
 21
731.8179212902
 31
0.0
  0
LINE
  5
B4
330
1F
100
AcDbEntity
  8
0
  6
Continuous
 62
     8
370
    15
100
AcDbLine
 10
382.8342652243
 20
726.960180516
 30
0.0
 11
445.2026862769
 21
726.960180516
 31
0.0
  0
LINE
  5
B5
330
1F
100
AcDbEntity
  8
0
  6
Continuous
 62
     8
370
    15
100
AcDbLine
 10
446.1684757506
 20
704.3190325385
 30
0.0
 11
381.8684757506
 21
704.3190325385
 31
0.0
  0
LINE
  5
B6
330
1F
100
AcDbEntity
  8
0
  6
Continuous
 62
     8
370
    15
100
AcDbLine
 10
383.3351424207
 20
705.8186621226
 30
0.0
 11
444.7018090804
 21
705.8186621226
 31
0.0
  0
LINE
  5
B7
330
1F
100
AcDbEntity
  8
0
  6
Continuous
 62
     8
370
    15
100
AcDbLine
 10
441.7684757506
 20
722.5882138192
 30
0.0
 11
386.2684757506
 21
722.5882138192
 31
0.0
  0
LINE
  5
B8
330
1F
100
AcDbEntity
  8
0
  6
Continuous
 62
     8
370
    15
100
AcDbLine
 10
386.2684757506
 20
708.8179212902
 30
0.0
 11
441.7684757506
 21
708.8179212902
 31
0.0
  0
LINE
  5
B9
330
1F
100
AcDbEntity
  8
0
  6
Continuous
 62
     8
370
    15
100
AcDbLine
 10
378.5986654874
 20
750.7786072604
 30
0.0
 11
449.4382860137
 21
750.7786072604
 31
0.0
  0
LINE
  5
BA
330
1F
100
AcDbEntity
  8
0
  6
Continuous
 62
     7
370
    15
100
AcDbLine
 10
1032.9133278732
 20
699.2179212902
 30
0.0
 11
1034.9133278732
 21
699.2179212902
 31
0.0
  0
LINE
  5
BB
330
1F
100
AcDbEntity
  8
0
  6
Continuous
 62
     7
370
    15
100
AcDbLine
 10
1034.9133278732
 20
739.2179212902
 30
0.0
 11
1032.9133278732
 21
739.2179212902
 31
0.0
  0
ARC
  5
BC
330
1F
100
AcDbEntity
  8
0
  6
Continuous
 62
     7
370
    15
100
AcDbCircle
 10
1021.3133278732
 20
701.1679212902
 30
0.0
 40
0.8000000000000682
100
AcDbArc
 50
180.0
 51
270.0
  0
ARC
  5
BD
330
1F
100
AcDbEntity
  8
0
  6
Continuous
 62
     7
370
    15
100
AcDbCircle
 10
1021.3133278732
 20
737.2679212902
 30
0.0
 40
0.8000000000001819
100
AcDbArc
 50
90.0
 51
180.0
  0
LINE
  5
BE
330
1F
100
AcDbEntity
  8
0
  6
Continuous
 62
     7
370
    15
100
AcDbLine
 10
1107.7647297423
 20
731.8179212902
 30
0.0
 11
1107.7647297423
 21
735.8179212902
 31
0.0
  0
LINE
  5
BF
330
1F
100
AcDbEntity
  8
0
  6
Continuous
 62
     7
370
    15
100
AcDbLine
 10
1037.7647297423
 20
735.8179212902
 30
0.0
 11
1037.7647297423
 21
733.8861892245
 31
0.0
  0
ARC
  5
C0
330
1F
100
AcDbEntity
  8
0
  6
Continuous
 62
     7
370
    15
100
AcDbCircle
 10
1102.7647297423
 20
731.8179212902
 30
0.0
 40
5.0
100
AcDbArc
 50
283.7002334884
 51
0.0
  0
ARC
  5
C1
330
1F
100
AcDbEntity
  8
0
  6
Continuous
 62
     7
370
    15
100
AcDbCircle
 10
1042.1147297423
 20
704.3190325385
 30
0.0
 40
1.500000000000227
100
AcDbArc
 50
171.0522675431
 51
180.0
  0
ARC
  5
C2
330
1F
100
AcDbEntity
  8
0
  6
Continuous
 62
     7
370
    15
100
AcDbCircle
 10
1103.4147297423
 20
704.3190325385
 30
0.0
 40
1.500000000077458
100
AcDbArc
 50
0.0
 51
88.7266557718
  0
LINE
  5
C3
330
1F
100
AcDbEntity
  8
0
  6
Continuous
 62
     7
370
    15
100
AcDbLine
 10
1040.6147297423
 20
704.3190325385
 30
0.0
 11
1040.6147297423
 21
702.8179212902
 31
0.0
  0
LINE
  5
C4
330
1F
100
AcDbEntity
  8
0
  6
Continuous
 62
     7
370
    15
100
AcDbLine
 10
1104.9147297423
 20
702.8179212902
 30
0.0
 11
1104.9147297423
 21
704.3190325385
 31
0.0
  0
ARC
  5
C5
330
1F
100
AcDbEntity
  8
0
  6
Continuous
 62
     7
370
    15
100
AcDbCircle
 10
1105.0147297423
 20
722.5882138192
 30
0.0
 40
4.500000000000044
100
AcDbArc
 50
103.7002334884
 51
180.0
  0
ARC
  5
C6
330
1F
100
AcDbEntity
  8
0
  6
Continuous
 62
     7
370
    15
100
AcDbCircle
 10
1103.5147297423
 20
708.8179212902
 30
0.0
 40
3.000000000000227
100
AcDbArc
 50
180.0
 51
268.726655572
  0
LINE
  5
C7
330
1F
100
AcDbEntity
  8
0
  6
Continuous
 62
     7
370
    15
100
AcDbLine
 10
1100.5147297423
 20
708.8179212902
 30
0.0
 11
1100.5147297423
 21
722.5882138192
 31
0.0
  0
LINE
  5
C8
330
1F
100
AcDbEntity
  8
0
  6
Continuous
 62
     7
370
    15
100
AcDbLine
 10
1032.9133278732
 20
734.8473126144
 30
0.0
 11
1032.6604013113
 21
735.4672870316
 31
0.0
  0
LINE
  5
C9
330
1F
100
AcDbEntity
  8
0
  6
Continuous
 62
     7
370
    15
100
AcDbLine
 10
1032.7483566748
 20
704.5383851193
 30
0.0
 11
1032.9133278732
 21
704.1265010555
 31
0.0
  0
LINE
  5
CA
330
1F
100
AcDbEntity
  8
0
  6
Continuous
 62
     7
370
    15
100
AcDbLine
 10
1037.7780008164
 20
733.9179212902
 30
0.0
 11
1035.3647297574
 21
733.9179212902
 31
0.0
  0
LINE
  5
CB
330
1F
100
AcDbEntity
  8
0
  6
Continuous
 62
     7
370
    15
100
AcDbLine
 10
1034.9133278732
 20
704.5179212902
 30
0.0
 11
1040.6474273357
 21
704.5179212902
 31
0.0
  0
ARC
  5
CC
330
1F
100
AcDbEntity
  8
0
  6
Continuous
 62
     7
370
    15
100
AcDbCircle
 10
1037.8765331412
 20
740.4179212902
 30
0.0
 40
0.1499999999998937
100
AcDbArc
 50
138.1896851042
 51
221.8103148958
  0
ARC
  5
CD
330
1F
100
AcDbEntity
  8
0
  6
Continuous
 62
     7
370
    15
100
AcDbCircle
 10
1107.6529263435
 20
740.4179212902
 30
0.0
 40
0.1500000000000632
100
AcDbArc
 50
318.1896851042
 51
41.8103148957
  0
ARC
  5
CE
330
1F
100
AcDbEntity
  8
0
  6
Continuous
 62
     7
370
    15
100
AcDbCircle
 10
1037.8765331412
 20
738.6179212902
 30
0.0
 40
0.1499999999998937
100
AcDbArc
 50
138.1896851042
 51
221.8103148958
  0
ARC
  5
CF
330
1F
100
AcDbEntity
  8
0
  6
Continuous
 62
     7
370
    15
100
AcDbCircle
 10
1107.6529263435
 20
738.6179212902
 30
0.0
 40
0.1500000000000632
100
AcDbArc
 50
318.1896851042
 51
41.8103148958
  0
ARC
  5
D0
330
1F
100
AcDbEntity
  8
0
  6
Continuous
 62
     7
370
    15
100
AcDbCircle
 10
1037.8765331412
 20
744.0179212902
 30
0.0
 40
0.1499999999999695
100
AcDbArc
 50
138.1896851042
 51
221.8103148959
  0
ARC
  5
D1
330
1F
100
AcDbEntity
  8
0
  6
Continuous
 62
     7
370
    15
100
AcDbCircle
 10
1107.6529263435
 20
744.0179212902
 30
0.0
 40
0.1500000000000632
100
AcDbArc
 50
318.1896851042
 51
41.8103148958
  0
ARC
  5
D2
330
1F
100
AcDbEntity
  8
0
  6
Continuous
 62
     7
370
    15
100
AcDbCircle
 10
1037.8765331412
 20
742.2179212902
 30
0.0
 40
0.1499999999998937
100
AcDbArc
 50
138.1896851042
 51
221.8103148958
  0
ARC
  5
D3
330
1F
100
AcDbEntity
  8
0
  6
Continuous
 62
     7
370
    15
100
AcDbCircle
 10
1107.6529263435
 20
742.2179212902
 30
0.0
 40
0.1500000000000632
100
AcDbArc
 50
318.1896851043
 51
41.8103148958
  0
LINE
  5
D4
330
1F
100
AcDbEntity
  8
0
  6
Continuous
 62
     7
370
    15
100
AcDbLine
 10
1037.7647297423
 20
740.3179212902
 30
0.0
 11
1037.7647297423
 21
738.7179212902
 31
0.0
  0
LINE
  5
D5
330
1F
100
AcDbEntity
  8
0
  6
Continuous
 62
     7
370
    15
100
AcDbLine
 10
1107.7647297423
 20
738.7179212902
 30
0.0
 11
1107.7647297423
 21
740.3179212902
 31
0.0
  0
LINE
  5
D6
330
1F
100
AcDbEntity
  8
0
  6
Continuous
 62
     7
370
    15
100
AcDbLine
 10
1037.7647297423
 20
748.8179212902
 30
0.0
 11
1037.7647297423
 21
744.1179212902
 31
0.0
  0
LINE
  5
D7
330
1F
100
AcDbEntity
  8
0
  6
Continuous
 62
     7
370
    15
100
AcDbLine
 10
1107.7647297423
 20
744.1179212902
 30
0.0
 11
1107.7647297423
 21
748.8179212902
 31
0.0
  0
LINE
  5
D8
330
1F
100
AcDbEntity
  8
0
  6
Continuous
 62
     7
370
    15
100
AcDbLine
 10
1037.7647297423
 20
743.9179212902
 30
0.0
 11
1037.7647297423
 21
742.3179212902
 31
0.0
  0
LINE
  5
D9
330
1F
100
AcDbEntity
  8
0
  6
Continuous
 62
     7
370
    15
100
AcDbLine
 10
1107.7647297423
 20
742.3179212902
 30
0.0
 11
1107.7647297423
 21
743.9179212902
 31
0.0
  0
LINE
  5
DA
330
1F
100
AcDbEntity
  8
0
  6
Continuous
 62
     7
370
    15
100
AcDbLine
 10
1037.7647297423
 20
742.1179212902
 30
0.0
 11
1037.7647297423
 21
740.5179212902
 31
0.0
  0
LINE
  5
DB
330
1F
100
AcDbEntity
  8
0
  6
Continuous
 62
     7
370
    15
100
AcDbLine
 10
1107.7647297423
 20
740.5179212902
 30
0.0
 11
1107.7647297423
 21
742.1179212902
 31
0.0
  0
LINE
  5
DC
330
1F
100
AcDbEntity
  8
0
  6
Continuous
 62
     7
370
    15
100
AcDbLine
 10
1037.7647297423
 20
738.5179212902
 30
0.0
 11
1037.7647297423
 21
735.8179212902
 31
0.0
  0
LINE
  5
DD
330
1F
100
AcDbEntity
  8
0
  6
Continuous
 62
     7
370
    15
100
AcDbLine
 10
1107.7647297423
 20
735.8179212902
 30
0.0
 11
1107.7647297423
 21
738.5179212902
 31
0.0
  0
LINE
  5
DE
330
1F
100
AcDbEntity
  8
0
  6
Continuous
 62
     7
370
    15
100
AcDbLine
 10
882.298067514
 20
839.0927022664
 30
0.0
 11
881.698067514
 21
839.0927022664
 31
0.0
  0
LINE
  5
DF
330
1F
100
AcDbEntity
  8
0
  6
Continuous
 62
     7
370
    15
100
AcDbLine
 10
881.698067514
 20
800.0927022664
 30
0.0
 11
882.298067514
 21
800.0927022664
 31
0.0
  0
ARC
  5
E0
330
1F
100
AcDbEntity
  8
0
  6
Continuous
 62
     7
370
    15
100
AcDbCircle
 10
870.4052525898
 20
745.3692009425
 30
0.0
 40
18.75000000000001
100
AcDbArc
 50
328.8103148958
 51
0.0
  0
ARC
  5
E1
330
1F
100
AcDbEntity
  8
0
  6
Continuous
 62
     7
370
    15
100
AcDbCircle
 10
870.4052525898
 20
745.3692009425
 30
0.0
 40
18.75000000000004
100
AcDbArc
 50
184.6053571478
 51
245.1896851042
  0
ARC
  5
E2
330
1F
100
AcDbEntity
  8
0
  6
Continuous
 62
     7
370
    15
100
AcDbCircle
 10
870.4052525898
 20
745.3692009425
 30
0.0
 40
18.74999999999993
100
AcDbArc
 50
0.0
 51
29.3946428522
  0
LINE
  5
E3
330
1F
100
AcDbEntity
  8
0
  6
Continuous
 62
     7
370
    15
100
AcDbLine
 10
862.5374619306
 20
728.3497893738
 30
0.0
 11
863.7423956776
 21
724.4086286721
 31
0.0
  0
LINE
  5
E4
330
1F
100
AcDbEntity
  8
0
  6
Continuous
 62
     7
370
    15
100
AcDbLine
 10
887.6500145767
 20
731.7179212902
 30
0.0
 11
886.4450808297
 21
735.6590819919
 31
0.0
  0
ARC
  5
E5
330
1F
100
AcDbEntity
  8
0
  6
Continuous
 62
     7
370
    15
100
AcDbCircle
 10
887.6500145767
 20
731.7179212902
 30
0.0
 40
24.99999999999989
100
AcDbArc
 50
197.0
 51
270.0
  0
LINE
  5
E6
330
1F
100
AcDbEntity
  8
0
  6
Continuous
 62
     7
370
    15
100
AcDbLine
 10
1020.5133278732
 20
731.7179212902
 30
0.0
 11
887.6500145767
 21
731.7179212902
 31
0.0
  0
LINE
  5
E7
330
1F
100
AcDbEntity
  8
0
  6
Continuous
 62
     7
370
    15
100
AcDbLine
 10
887.6500145767
 20
706.7179212902
 30
0.0
 11
1020.5133278732
 21
706.7179212902
 31
0.0
  0
ARC
  5
E8
330
1F
100
AcDbEntity
  8
0
  6
Continuous
 62
     7
370
    15
100
AcDbCircle
 10
878.998067514
 20
840.0927022664
 30
0.0
 40
0.5
100
AcDbArc
 50
90.0
 51
180.0
  0
ARC
  5
E9
330
1F
100
AcDbEntity
  8
0
  6
Continuous
 62
     7
370
    15
100
AcDbCircle
 10
878.998067514
 20
799.0927022664
 30
0.0
 40
0.5
100
AcDbArc
 50
180.0
 51
270.0
  0
LINE
  5
EA
330
1F
100
AcDbEntity
  8
0
  6
Continuous
 62
     7
370
    15
100
AcDbLine
 10
878.998067514
 20
798.5927022664
 30
0.0
 11
881.698067514
 21
798.5927022664
 31
0.0
  0
LINE
  5
EB
330
1F
100
AcDbEntity
  8
0
  6
Continuous
 62
     7
370
    15
100
AcDbLine
 10
881.698067514
 20
840.5927022664
 30
0.0
 11
878.998067514
 21
840.5927022664
 31
0.0
  0
ARC
  5
EC
330
1F
100
AcDbEntity
  8
0
  6
Continuous
 62
     7
370
    15
100
AcDbCircle
 10
877.998067514
 20
837.7927022664
 30
0.0
 40
0.5000000000001137
100
AcDbArc
 50
270.0
 51
0.0
  0
ARC
  5
ED
330
1F
100
AcDbEntity
  8
0
  6
Continuous
 62
     7
370
    15
100
AcDbCircle
 10
877.998067514
 20
801.3927022664
 30
0.0
 40
0.5
100
AcDbArc
 50
0.0
 51
90.0
  0
LINE
  5
EE
330
1F
100
AcDbEntity
  8
0
  6
Continuous
 62
     7
370
    15
100
AcDbLine
 10
875.398067514
 20
801.8927022664
 30
0.0
 11
877.998067514
 21
801.8927022664
 31
0.0
  0
LINE
  5
EF
330
1F
100
AcDbEntity
  8
0
  6
Continuous
 62
     7
370
    15
100
AcDbLine
 10
877.998067514
 20
837.2927022664
 30
0.0
 11
872.1148888905
 21
837.2927022664
 31
0.0
  0
ARC
  5
F0
330
1F
100
AcDbEntity
  8
0
  6
Continuous
 62
     7
370
    15
100
AcDbCircle
 10
875.398067514
 20
801.3927022664
 30
0.0
 40
0.5
100
AcDbArc
 50
90.0
 51
180.0
  0
ARC
  5
F1
330
1F
100
AcDbEntity
  8
0
  6
Continuous
 62
     7
370
    15
100
AcDbCircle
 10
872.1148888905
 20
833.2927022664
 30
0.0
 40
4.000000000000128
100
AcDbArc
 50
90.7513432429
 51
158.3691131635
  0
ARC
  5
F2
330
1F
100
AcDbEntity
  8
0
  6
Continuous
 62
     7
370
    15
100
AcDbCircle
 10
871.048067514
 20
745.394017942
 30
0.0
 40
16.94999999999999
100
AcDbArc
 50
153.5140475604
 51
182.6924993442
  0
ARC
  5
F3
330
1F
100
AcDbEntity
  8
0
  6
Continuous
 62
     7
370
    15
100
AcDbCircle
 10
855.698067514
 20
753.0425472123
 30
0.0
 40
0.1999999999999397
100
AcDbArc
 50
333.5140475604
 51
0.0
  0
LINE
  5
F4
330
1F
100
AcDbEntity
  8
0
  6
Continuous
 62
     7
370
    15
100
AcDbLine
 10
884.898067514
 20
754.0085641735
 30
0.0
 11
884.898067514
 21
758.3085967073
 31
0.0
  0
LINE
  5
F5
330
1F
100
AcDbEntity
  8
0
  6
Continuous
 62
     7
370
    15
100
AcDbLine
 10
855.898067514
 20
758.7927022664
 30
0.0
 11
855.898067514
 21
753.0425472123
 31
0.0
  0
LINE
  5
F6
330
1F
100
AcDbEntity
  8
0
  6
Continuous
 62
     7
370
    15
100
AcDbLine
 10
855.698067514
 20
797.1927022664
 30
0.0
 11
855.698067514
 21
794.6927022664
 31
0.0
  0
LINE
  5
F7
330
1F
100
AcDbEntity
  8
0
  6
Continuous
 62
     7
370
    15
100
AcDbLine
 10
855.698067514
 20
799.2927022664
 30
0.0
 11
855.698067514
 21
797.1927022664
 31
0.0
  0
ARC
  5
F8
330
1F
100
AcDbEntity
  8
0
  6
Continuous
 62
     7
370
    15
100
AcDbCircle
 10
1031.9108797218
 20
743.7432762125
 30
0.0
 40
8.910000000000128
100
AcDbArc
 50
52.1480946784
 51
83.3152054855
  0
ARC
  5
F9
330
1F
100
AcDbEntity
  8
0
  6
Continuous
 62
     7
370
    15
100
AcDbCircle
 10
1113.6852553062
 20
743.7432762125
 30
0.0
 40
8.910000000000128
100
AcDbArc
 50
96.6847945145
 51
127.8519053216
  0
LINE
  5
FA
330
1F
100
AcDbEntity
  8
0
  6
Continuous
 62
     7
370
    15
100
AcDbLine
 10
1037.3782572509
 20
750.7786072604
 30
0.0
 11
1039.9012355541
 21
748.8179212902
 31
0.0
  0
LINE
  5
FB
330
1F
100
AcDbEntity
  8
0
  6
Continuous
 62
     7
370
    15
100
AcDbLine
 10
1105.6948994739
 20
748.8179212902
 30
0.0
 11
1108.2178777771
 21
750.7786072604
 31
0.0
  0
LINE
  5
FC
330
1F
100
AcDbEntity
  8
0
  6
Continuous
 62
     7
370
    15
100
AcDbLine
 10
893.3002301823
 20
754.5926712937
 30
0.0
 11
1032.948067514
 21
752.5927022664
 31
0.0
  0
LINE
  5
FD
330
1F
100
AcDbEntity
  8
0
  6
Continuous
 62
     7
370
    15
100
AcDbLine
 10
1112.648067514
 20
752.5927022664
 30
0.0
 11
1252.2959048457
 21
754.5926712937
 31
0.0
  0
ARC
  5
FE
330
1F
100
AcDbEntity
  8
0
  6
Continuous
 62
     7
370
    15
100
AcDbCircle
 10
883.298067514
 20
840.5080186891
 30
0.0
 40
2.0
100
AcDbArc
 50
310.0
 51
0.0
  0
ARC
  5
FF
330
1F
100
AcDbEntity
  8
0
  6
Continuous
 62
     7
370
    15
100
AcDbCircle
 10
883.298067514
 20
798.6773858436
 30
0.0
 40
2.0
100
AcDbArc
 50
0.0
 51
50.0
  0
LINE
  5
100
330
1F
100
AcDbEntity
  8
0
  6
Continuous
 62
     7
370
    15
100
AcDbLine
 10
884.5836427334
 20
838.9759298029
 30
0.0
 11
882.298067514
 21
837.0581044793
 31
0.0
  0
LINE
  5
101
330
1F
100
AcDbEntity
  8
0
  6
Continuous
 62
     7
370
    15
100
AcDbLine
 10
882.298067514
 20
802.1273000534
 30
0.0
 11
884.5836427334
 21
800.2094747298
 31
0.0
  0
LINE
  5
102
330
1F
100
AcDbEntity
  8
0
  6
Continuous
 62
     7
370
    15
100
AcDbLine
 10
1034.9133278732
 20
739.2179212902
 30
0.0
 11
1034.9133278732
 21
699.2179212902
 31
0.0
  0
LINE
  5
103
330
1F
100
AcDbEntity
  8
0
  6
Continuous
 62
     7
370
    15
100
AcDbLine
 10
1032.9133278732
 20
739.2179212902
 30
0.0
 11
1032.9133278732
 21
699.2179212902
 31
0.0
  0
LINE
  5
104
330
1F
100
AcDbEntity
  8
0
  6
Continuous
 62
     7
370
    15
100
AcDbLine
 10
1021.3133278732
 20
719.2179212902
 30
0.0
 11
1021.3133278732
 21
720.0179212902
 31
0.0
  0
LINE
  5
105
330
1F
100
AcDbEntity
  8
0
  6
Continuous
 62
     7
370
    15
100
AcDbLine
 10
1032.9133278732
 20
720.0179212902
 30
0.0
 11
1021.3133278732
 21
720.0179212902
 31
0.0
  0
LINE
  5
106
330
1F
100
AcDbEntity
  8
0
  6
Continuous
 62
     7
370
    15
100
AcDbLine
 10
1032.9133278732
 20
719.2179212902
 30
0.0
 11
1021.3133278732
 21
719.2179212902
 31
0.0
  0
LINE
  5
107
330
1F
100
AcDbEntity
  8
0
  6
Continuous
 62
     7
370
    15
100
AcDbLine
 10
1021.3133278732
 20
718.4179212902
 30
0.0
 11
1021.3133278732
 21
719.2179212902
 31
0.0
  0
LINE
  5
108
330
1F
100
AcDbEntity
  8
0
  6
Continuous
 62
     7
370
    15
100
AcDbLine
 10
1032.9133278732
 20
718.4179212902
 30
0.0
 11
1021.3133278732
 21
718.4179212902
 31
0.0
  0
LINE
  5
109
330
1F
100
AcDbEntity
  8
0
  6
Continuous
 62
     7
370
    15
100
AcDbLine
 10
1032.9133278732
 20
717.5309370583
 30
0.0
 11
1021.3133278732
 21
717.5309370583
 31
0.0
  0
LINE
  5
10A
330
1F
100
AcDbEntity
  8
0
  6
Continuous
 62
     7
370
    15
100
AcDbLine
 10
1032.9133278732
 20
716.8121867542
 30
0.0
 11
1021.3133278732
 21
716.8121867542
 31
0.0
  0
LINE
  5
10B
330
1F
100
AcDbEntity
  8
0
  6
Continuous
 62
     7
370
    15
100
AcDbLine
 10
1021.3133278732
 20
716.8121867542
 30
0.0
 11
1021.3133278732
 21
717.5309370583
 31
0.0
  0
LINE
  5
10C
330
1F
100
AcDbEntity
  8
0
  6
Continuous
 62
     7
370
    15
100
AcDbLine
 10
1032.9133278732
 20
718.4063392281
 30
0.0
 11
1021.3133278732
 21
718.4063392281
 31
0.0
  0
LINE
  5
10D
330
1F
100
AcDbEntity
  8
0
  6
Continuous
 62
     7
370
    15
100
AcDbLine
 10
1021.3133278732
 20
717.5309370583
 30
0.0
 11
1021.3133278732
 21
718.4063392281
 31
0.0
  0
LINE
  5
10E
330
1F
100
AcDbEntity
  8
0
  6
Continuous
 62
     7
370
    15
100
AcDbLine
 10
1021.3133278732
 20
715.2240367126
 30
0.0
 11
1021.3133278732
 21
715.8562836817
 31
0.0
  0
LINE
  5
10F
330
1F
100
AcDbEntity
  8
0
  6
Continuous
 62
     7
370
    15
100
AcDbLine
 10
1032.9133278732
 20
715.8562836817
 30
0.0
 11
1021.3133278732
 21
715.8562836817
 31
0.0
  0
LINE
  5
110
330
1F
100
AcDbEntity
  8
0
  6
Continuous
 62
     7
370
    15
100
AcDbLine
 10
1032.9133278732
 20
715.2240367126
 30
0.0
 11
1021.3133278732
 21
715.2240367126
 31
0.0
  0
LINE
  5
111
330
1F
100
AcDbEntity
  8
0
  6
Continuous
 62
     7
370
    15
100
AcDbLine
 10
1021.3133278732
 20
715.8562836817
 30
0.0
 11
1021.3133278732
 21
716.8006893502
 31
0.0
  0
LINE
  5
112
330
1F
100
AcDbEntity
  8
0
  6
Continuous
 62
     7
370
    15
100
AcDbLine
 10
1032.9133278732
 20
716.8006893502
 30
0.0
 11
1021.3133278732
 21
716.8006893502
 31
0.0
  0
LINE
  5
113
330
1F
100
AcDbEntity
  8
0
  6
Continuous
 62
     7
370
    15
100
AcDbLine
 10
1021.3133278732
 20
714.2062018847
 30
0.0
 11
1021.3133278732
 21
715.2127080057
 31
0.0
  0
LINE
  5
114
330
1F
100
AcDbEntity
  8
0
  6
Continuous
 62
     7
370
    15
100
AcDbLine
 10
1032.9133278732
 20
715.2127080057
 30
0.0
 11
1021.3133278732
 21
715.2127080057
 31
0.0
  0
LINE
  5
115
330
1F
100
AcDbEntity
  8
0
  6
Continuous
 62
     7
370
    15
100
AcDbLine
 10
1032.9133278732
 20
714.2062018847
 30
0.0
 11
1021.3133278732
 21
714.2062018847
 31
0.0
  0
LINE
  5
116
330
1F
100
AcDbEntity
  8
0
  6
Continuous
 62
     7
370
    15
100
AcDbLine
 10
1021.3133278732
 20
713.6650796013
 30
0.0
 11
1021.3133278732
 21
714.2062018847
 31
0.0
  0
LINE
  5
117
330
1F
100
AcDbEntity
  8
0
  6
Continuous
 62
     7
370
    15
100
AcDbLine
 10
1032.9133278732
 20
713.6650796013
 30
0.0
 11
1021.3133278732
 21
713.6650796013
 31
0.0
  0
LINE
  5
118
330
1F
100
AcDbEntity
  8
0
  6
Continuous
 62
     7
370
    15
100
AcDbLine
 10
1020.5133278732
 20
701.1679215315
 30
0.0
 11
1020.5133278732
 21
737.2679212902
 31
0.0
  0
LINE
  5
119
330
1F
100
AcDbEntity
  8
0
  6
Continuous
 62
     7
370
    15
100
AcDbLine
 10
1021.3133278732
 20
736.6913433244
 30
0.0
 11
1021.3133278732
 21
720.0179212902
 31
0.0
  0
LINE
  5
11A
330
1F
100
AcDbEntity
  8
0
  6
Continuous
 62
     7
370
    15
100
AcDbLine
 10
1021.3133278732
 20
718.4179212902
 30
0.0
 11
1021.3133278732
 21
718.4063392281
 31
0.0
  0
LINE
  5
11B
330
1F
100
AcDbEntity
  8
0
  6
Continuous
 62
     7
370
    15
100
AcDbLine
 10
1021.3133278732
 20
716.8121867542
 30
0.0
 11
1021.3133278732
 21
716.8006893502
 31
0.0
  0
LINE
  5
11C
330
1F
100
AcDbEntity
  8
0
  6
Continuous
 62
     7
370
    15
100
AcDbLine
 10
1021.3133278732
 20
715.2240367126
 30
0.0
 11
1021.3133278732
 21
715.2127080057
 31
0.0
  0
LINE
  5
11D
330
1F
100
AcDbEntity
  8
0
  6
Continuous
 62
     7
370
    15
100
AcDbLine
 10
1021.3133278732
 20
713.6650796013
 30
0.0
 11
1021.3133278732
 21
713.6540023978
 31
0.0
  0
LINE
  5
11E
330
1F
100
AcDbEntity
  8
0
  6
Continuous
 62
     7
370
    15
100
AcDbLine
 10
1021.3133278732
 20
712.1467104733
 30
0.0
 11
1021.3133278732
 21
700.3849050687
 31
0.0
  0
LINE
  5
11F
330
1F
100
AcDbEntity
  8
0
  6
Continuous
 62
     7
370
    15
100
AcDbLine
 10
1032.9133278732
 20
736.6913433244
 30
0.0
 11
1021.3133278732
 21
736.6913433244
 31
0.0
  0
LINE
  5
120
330
1F
100
AcDbEntity
  8
0
  6
Continuous
 62
     7
370
    15
100
AcDbLine
 10
1032.9133278732
 20
713.6540023978
 30
0.0
 11
1021.3133278732
 21
713.6540023978
 31
0.0
  0
LINE
  5
121
330
1F
100
AcDbEntity
  8
0
  6
Continuous
 62
     7
370
    15
100
AcDbLine
 10
1032.9133278732
 20
712.5927527877
 30
0.0
 11
1021.3133278732
 21
712.5927527877
 31
0.0
  0
LINE
  5
122
330
1F
100
AcDbEntity
  8
0
  6
Continuous
 62
     7
370
    15
100
AcDbLine
 10
1021.3133278732
 20
712.5927527877
 30
0.0
 11
1021.3133278732
 21
713.6540023978
 31
0.0
  0
LINE
  5
123
330
1F
100
AcDbEntity
  8
0
  6
Continuous
 62
     7
370
    15
100
AcDbLine
 10
1032.9133278732
 20
712.1467104733
 30
0.0
 11
1021.3133278732
 21
712.1467104733
 31
0.0
  0
LINE
  5
124
330
1F
100
AcDbEntity
  8
0
  6
Continuous
 62
     7
370
    15
100
AcDbLine
 10
1021.3133278732
 20
712.1467104733
 30
0.0
 11
1021.3133278732
 21
712.5927527877
 31
0.0
  0
LINE
  5
125
330
1F
100
AcDbEntity
  8
0
  6
Continuous
 62
     7
370
    15
100
AcDbLine
 10
1032.9133278732
 20
700.3849050687
 30
0.0
 11
1021.3133278732
 21
700.3849050687
 31
0.0
  0
LINE
  5
126
330
1F
100
AcDbEntity
  8
0
  6
Continuous
 62
     7
370
    15
100
AcDbLine
 10
1021.3133278732
 20
736.6913433244
 30
0.0
 11
1021.3133278732
 21
737.8235559828
 31
0.0
  0
LINE
  5
127
330
1F
100
AcDbEntity
  8
0
  6
Continuous
 62
     7
370
    15
100
AcDbLine
 10
1032.9133278732
 20
737.8235559828
 30
0.0
 11
1021.3133278732
 21
737.8235559828
 31
0.0
  0
LINE
  5
128
330
1F
100
AcDbEntity
  8
0
  6
Continuous
 62
     7
370
    15
100
AcDbLine
 10
1021.3133278732
 20
737.8235559828
 30
0.0
 11
1021.3133278732
 21
738.3214594075
 31
0.0
  0
LINE
  5
129
330
1F
100
AcDbEntity
  8
0
  6
Continuous
 62
     7
370
    15
100
AcDbLine
 10
1032.9133278732
 20
738.3214594075
 30
0.0
 11
1021.3133278732
 21
738.3214594075
 31
0.0
  0
LINE
  5
12A
330
1F
100
AcDbEntity
  8
0
  6
Continuous
 62
     7
370
    15
100
AcDbLine
 10
1021.3133278732
 20
738.3214594075
 30
0.0
 11
1021.3133278732
 21
738.6797272853
 31
0.0
  0
LINE
  5
12B
330
1F
100
AcDbEntity
  8
0
  6
Continuous
 62
     7
370
    15
100
AcDbLine
 10
1032.9133278732
 20
738.6797272853
 30
0.0
 11
1021.3133278732
 21
738.6797272853
 31
0.0
  0
LINE
  5
12C
330
1F
100
AcDbEntity
  8
0
  6
Continuous
 62
     7
370
    15
100
AcDbLine
 10
1021.3133278732
 20
738.6797272853
 30
0.0
 11
1021.3133278732
 21
738.89574089
 31
0.0
  0
LINE
  5
12D
330
1F
100
AcDbEntity
  8
0
  6
Continuous
 62
     7
370
    15
100
AcDbLine
 10
1032.9133278732
 20
738.89574089
 30
0.0
 11
1021.3133278732
 21
738.89574089
 31
0.0
  0
LINE
  5
12E
330
1F
100
AcDbEntity
  8
0
  6
Continuous
 62
     7
370
    15
100
AcDbLine
 10
1021.3133278732
 20
738.89574089
 30
0.0
 11
1021.3133278732
 21
738.9679212902
 31
0.0
  0
LINE
  5
12F
330
1F
100
AcDbEntity
  8
0
  6
Continuous
 62
     7
370
    15
100
AcDbLine
 10
1032.9133278732
 20
738.9679212902
 30
0.0
 11
1021.3133278732
 21
738.9679212902
 31
0.0
  0
LINE
  5
130
330
1F
100
AcDbEntity
  8
0
  6
Continuous
 62
     7
370
    15
100
AcDbLine
 10
1021.3133278732
 20
699.4679212902
 30
0.0
 11
1021.3133278732
 21
700.3849050687
 31
0.0
  0
LINE
  5
131
330
1F
100
AcDbEntity
  8
0
  6
Continuous
 62
     7
370
    15
100
AcDbLine
 10
1032.9133278732
 20
699.4679212902
 30
0.0
 11
1021.3133278732
 21
699.4679212902
 31
0.0
  0
SPLINE
  5
132
330
1F
100
AcDbEntity
  8
0
  6
Continuous
 62
     7
370
    15
100
AcDbSpline
210
0.0
220
0.0
230
1.0
 70
     8
 71
     3
 72
    11
 73
     7
 74
     0
 42
0.00000001
 43
0.00000001
 12
1.0
 22
0.0
 32
0.0
 13
1.0
 23
0.0
 33
0.0
 40
0.0
 40
0.0
 40
0.0
 40
0.0
 40
0.131082227782315
 40
0.4457888593556705
 40
0.7710211593336821
 40
1.0
 40
1.0
 40
1.0
 40
1.0
 10
1038.593543049448
 20
731.8179212902179
 30
0.0
 10
1038.529797005031
 20
731.9888023216689
 30
0.0
 10
1038.31300730814
 20
732.5699402942595
 30
0.0
 10
1038.012531319607
 20
733.3224409921766
 30
0.0
 10
1037.791931914534
 20
733.8535402458293
 30
0.0
 10
1037.782089545021
 20
733.8766437432599
 30
0.0
 10
1037.778023054482
 20
733.8861892245196
 30
0.0
  0
LINE
  5
133
330
1F
100
AcDbEntity
  8
0
  6
Continuous
 62
     7
370
    15
100
AcDbLine
 10
1037.7647297423
 20
735.8179212902
 30
0.0
 11
1107.7647297423
 21
735.8179212902
 31
0.0
  0
SPLINE
  5
134
330
1F
100
AcDbEntity
  8
0
  6
Continuous
 62
     7
370
    15
100
AcDbSpline
210
0.0
220
0.0
230
1.0
 70
     8
 71
     3
 72
    12
 73
     8
 74
     0
 42
0.00000001
 43
0.00000001
 12
1.0
 22
0.0
 32
0.0
 13
1.0
 23
0.0
 33
0.0
 40
0.0
 40
0.0
 40
0.0
 40
0.0
 40
0.2396125258546599
 40
0.4964351074478225
 40
0.7277936877894671
 40
0.9345444121304524
 40
1.0
 40
1.0
 40
1.0
 40
1.0
 10
1038.593543049448
 20
731.8179212902179
 30
0.0
 10
1038.766492665786
 20
731.410380944951
 30
0.0
 10
1039.124813922422
 20
730.5660288628958
 30
0.0
 10
1040.223076047942
 20
729.1120905488075
 30
0.0
 10
1041.761398120285
 20
727.8668043979147
 30
0.0
 10
1043.170715302376
 20
727.2052703893537
 30
0.0
 10
1043.99534099415
 20
727.0076910635071
 30
0.0
 10
1044.193633087338
 20
726.960180516014
 30
0.0
  0
SPLINE
  5
135
330
1F
100
AcDbEntity
  8
0
  6
Continuous
 62
     7
370
    15
100
AcDbSpline
210
0.0
220
0.0
230
1.0
 70
     8
 71
     3
 72
    13
 73
     9
 74
     0
 42
0.00000001
 43
0.00000001
 12
1.0
 22
0.0
 32
0.0
 13
1.0
 23
0.0
 33
0.0
 40
0.0
 40
0.0
 40
0.0
 40
0.0
 40
0.038295839470448
 40
0.0942128788472116
 40
0.1941116842109509
 40
0.3948899717406907
 40
0.8044034373590703
 40
1.0
 40
1.0
 40
1.0
 40
1.0
 10
1042.682889860297
 20
705.8186621224314
 30
0.0
 10
1042.595128986672
 20
705.8123189376089
 30
0.0
 10
1042.379225518601
 20
705.7967138559226
 30
0.0
 10
1042.003320291647
 20
705.6889866392416
 30
0.0
 10
1041.48776347738
 20
705.440538227553
 30
0.0
 10
1040.88783890107
 20
704.9411711401593
 30
0.0
 10
1040.647192235578
 20
704.5493385619573
 30
0.0
 10
1040.647378992435
 20
704.5498373373139
 30
0.0
 10
1040.647439359968
 20
704.5499985621173
 30
0.0
  0
LINE
  5
136
330
1F
100
AcDbEntity
  8
0
  6
Continuous
 62
     7
370
    15
100
AcDbLine
 10
1072.7647297423
 20
702.8179212902
 30
0.0
 11
1040.6147297423
 21
702.8179212902
 31
0.0
  0
LINE
  5
137
330
1F
100
AcDbEntity
  8
0
  6
Continuous
 62
     7
370
    15
100
AcDbLine
 10
1104.9147297423
 20
702.8179212902
 30
0.0
 11
1072.7647297423
 21
702.8179212902
 31
0.0
  0
SPLINE
  5
138
330
1F
100
AcDbEntity
  8
0
  6
Continuous
 62
     7
370
    15
100
AcDbSpline
210
0.0
220
0.0
230
1.0
 70
     8
 71
     3
 72
    11
 73
     7
 74
     0
 42
0.00000001
 43
0.00000001
 12
1.0
 22
0.0
 32
0.0
 13
1.0
 23
0.0
 33
0.0
 40
0.0
 40
0.0
 40
0.0
 40
0.0
 40
0.2151714675580196
 40
0.4926926000453946
 40
0.7789725976411856
 40
1.0
 40
1.0
 40
1.0
 40
1.0
 10
1048.988031659312
 20
722.5882138192306
 30
0.0
 10
1048.85512742652
 20
723.0669067091221
 30
0.0
 10
1048.550807654226
 20
724.1630020568024
 30
0.0
 10
1047.324631018311
 20
725.4869277337785
 30
0.0
 10
1045.832266496937
 20
726.4905247948305
 30
0.0
 10
1044.690908357985
 20
726.8176543265112
 30
0.0
 10
1044.193633087338
 20
726.960180516014
 30
0.0
  0
SPLINE
  5
139
330
1F
100
AcDbEntity
  8
0
  6
Continuous
 62
     7
370
    15
100
AcDbSpline
210
0.0
220
0.0
230
1.0
 70
     8
 71
     3
 72
    11
 73
     7
 74
     0
 42
0.00000001
 43
0.00000001
 12
1.0
 22
0.0
 32
0.0
 13
1.0
 23
0.0
 33
0.0
 40
0.0
 40
0.0
 40
0.0
 40
0.0
 40
0.0838478698618992
 40
0.2206384138422211
 40
0.6164890821267822
 40
1.0
 40
1.0
 40
1.0
 40
1.0
 10
1042.682889860297
 20
705.8186621224314
 30
0.0
 10
1042.879706236532
 20
705.8341921983716
 30
0.0
 10
1043.397611499266
 20
705.8750582493275
 30
0.0
 10
1044.586783282382
 20
706.26690160564
 30
0.0
 10
1045.975805572928
 20
707.1054811268593
 30
0.0
 10
1046.684203468989
 20
708.2531650537734
 30
0.0
 10
1047.032794331258
 20
708.8179212902322
 30
0.0
  0
SPLINE
  5
13A
330
1F
100
AcDbEntity
  8
0
  6
Continuous
 62
     7
370
    15
100
AcDbSpline
210
0.0
220
0.0
230
1.0
 70
     8
 71
     3
 72
    13
 73
     9
 74
     0
 42
0.00000001
 43
0.00000001
 12
1.0
 22
0.0
 32
0.0
 13
1.0
 23
0.0
 33
0.0
 40
0.0
 40
0.0
 40
0.0
 40
0.0
 40
0.192276427252644
 40
0.3681833182993142
 40
0.5439216017802505
 40
0.705335989624655
 40
0.8666980195314058
 40
1.0
 40
1.0
 40
1.0
 40
1.0
 10
1047.032794331258
 20
708.8179212902322
 30
0.0
 10
1047.30315060796
 20
709.5163518813931
 30
0.0
 10
1047.820846263644
 20
710.8537518754002
 30
0.0
 10
1048.509170600996
 20
713.2183866390267
 30
0.0
 10
1049.002819337064
 20
715.6420619416707
 30
0.0
 10
1049.23948065719
 20
718.1399831168002
 30
0.0
 10
1049.239526893677
 20
720.4703923324045
 30
0.0
 10
1049.066366885794
 20
721.9285590697583
 30
0.0
 10
1048.988031659312
 20
722.5882138192306
 30
0.0
  0
LINE
  5
13B
330
1F
100
AcDbEntity
  8
0
  6
Continuous
 62
     7
370
    15
100
AcDbLine
 10
1034.9133278732
 20
735.0464301805
 30
0.0
 11
1035.3647314294
 21
733.91792129
 31
0.0
  0
LINE
  5
13C
330
1F
100
AcDbEntity
  8
0
  6
Continuous
 62
     7
370
    15
100
AcDbLine
 10
1035.3647314294
 20
733.91792129
 30
0.0
 11
1034.9133278732
 21
733.91792129
 31
0.0
  0
LINE
  5
13D
330
1F
100
AcDbEntity
  8
0
  6
Continuous
 62
     7
370
    15
100
AcDbLine
 10
1037.7647297423
 20
740.3179212902
 30
0.0
 11
1107.7647297423
 21
740.3179212902
 31
0.0
  0
LINE
  5
13E
330
1F
100
AcDbEntity
  8
0
  6
Continuous
 62
     7
370
    15
100
AcDbLine
 10
1037.7647297423
 20
740.5179212902
 30
0.0
 11
1107.7647297423
 21
740.5179212902
 31
0.0
  0
LINE
  5
13F
330
1F
100
AcDbEntity
  8
0
  6
Continuous
 62
     7
370
    15
100
AcDbLine
 10
1037.7647297423
 20
738.5179212902
 30
0.0
 11
1107.7647297423
 21
738.5179212902
 31
0.0
  0
LINE
  5
140
330
1F
100
AcDbEntity
  8
0
  6
Continuous
 62
     7
370
    15
100
AcDbLine
 10
1037.7647297423
 20
738.7179212902
 30
0.0
 11
1107.7647297423
 21
738.7179212902
 31
0.0
  0
LINE
  5
141
330
1F
100
AcDbEntity
  8
0
  6
Continuous
 62
     7
370
    15
100
AcDbLine
 10
1037.7647297423
 20
743.9179212902
 30
0.0
 11
1107.7647297423
 21
743.9179212902
 31
0.0
  0
LINE
  5
142
330
1F
100
AcDbEntity
  8
0
  6
Continuous
 62
     7
370
    15
100
AcDbLine
 10
1037.7647297423
 20
744.1179212902
 30
0.0
 11
1107.7647297423
 21
744.1179212902
 31
0.0
  0
LINE
  5
143
330
1F
100
AcDbEntity
  8
0
  6
Continuous
 62
     7
370
    15
100
AcDbLine
 10
1037.7647297423
 20
742.1179212902
 30
0.0
 11
1107.7647297423
 21
742.1179212902
 31
0.0
  0
LINE
  5
144
330
1F
100
AcDbEntity
  8
0
  6
Continuous
 62
     7
370
    15
100
AcDbLine
 10
1037.7647297423
 20
742.3179212902
 30
0.0
 11
1107.7647297423
 21
742.3179212902
 31
0.0
  0
LINE
  5
145
330
1F
100
AcDbEntity
  8
0
  6
Continuous
 62
     7
370
    15
100
AcDbLine
 10
1037.7647297423
 20
748.8179212902
 30
0.0
 11
1107.7647297423
 21
748.8179212902
 31
0.0
  0
LINE
  5
146
330
1F
100
AcDbEntity
  8
0
  6
Continuous
 62
     7
370
    15
100
AcDbLine
 10
882.298067514
 20
800.0927022664
 30
0.0
 11
882.298067514
 21
839.0927022664
 31
0.0
  0
LINE
  5
147
330
1F
100
AcDbEntity
  8
0
  6
Continuous
 62
     7
370
    15
100
AcDbLine
 10
886.7413720913
 20
754.572118938
 30
0.0
 11
851.7157892989
 21
743.8637236424
 31
0.0
  0
LINE
  5
148
330
1F
100
AcDbEntity
  8
0
  6
Continuous
 62
     7
370
    15
100
AcDbLine
 10
886.4450808297
 20
735.6590819919
 30
0.0
 11
862.5374619306
 21
728.3497893738
 31
0.0
  0
SPLINE
  5
149
330
1F
100
AcDbEntity
  8
0
  6
Continuous
 62
     7
370
    15
100
AcDbSpline
210
0.0
220
0.0
230
1.0
 70
    24
 71
     3
 72
     9
 73
     5
 74
     0
 42
0.00000001
 43
0.00000001
 12
1.0
 22
0.0
 32
0.0
 13
1.0
 23
0.0
 33
0.0
 40
0.0
 40
0.0
 40
0.0
 40
0.0
 40
0.5141575764883132
 40
1.0
 40
1.0
 40
1.0
 40
1.0
 10
862.1441115992208
 20
819.0001177856195
 30
0.0
 10
862.1898297010778
 20
819.1154069120416
 30
0.0
 10
862.2787481648867
 20
819.3396360816469
 30
0.0
 10
862.3538749593371
 20
819.5290862589566
 30
0.0
 10
862.3903747432236
 20
819.6211291922353
 30
0.0
  0
ARC
  5
14A
330
1F
100
AcDbEntity
  8
0
  6
Continuous
 62
     7
370
    15
100
AcDbCircle
 10
864.9146813902
 20
817.850126438
 30
0.0
 40
3.08359770453979
100
AcDbArc
 50
67.2188887709
 51
144.9472729027
  0
SPLINE
  5
14B
330
1F
100
AcDbEntity
  8
0
  6
Continuous
 62
     7
370
    15
100
AcDbSpline
210
0.0
220
0.0
230
1.0
 70
     8
 71
     3
 72
     9
 73
     5
 74
     0
 42
0.00000001
 43
0.00000001
 12
1.0
 22
0.0
 32
0.0
 13
1.0
 23
0.0
 33
0.0
 40
0.0
 40
0.0
 40
0.0
 40
0.0
 40
0.4872159843748715
 40
1.0
 40
1.0
 40
1.0
 40
1.0
 10
866.1086863565141
 20
820.6931753197679
 30
0.0
 10
866.0065070004862
 20
820.2252791899815
 30
0.0
 10
865.7967861388869
 20
819.2649327629518
 30
0.0
 10
865.5254379555871
 20
818.1151864406085
 30
0.0
 10
865.3862949445221
 20
817.525614904487
 30
0.0
  0
ARC
  5
14C
330
1F
100
AcDbEntity
  8
0
  6
Continuous
 62
     7
370
    15
100
AcDbCircle
 10
871.7920411715
 20
835.912530165
 30
0.0
 40
19.47080474765647
100
AcDbArc
 50
240.2967796863
 51
250.7923720462
  0
LINE
  5
14D
330
1F
100
AcDbEntity
  8
0
  6
Continuous
 62
     7
370
    15
100
AcDbLine
 10
866.398067514
 20
820.6786595206
 30
0.0
 11
866.398067514
 21
817.4954732598
 31
0.0
  0
ELLIPSE
  5
14E
330
1F
100
AcDbEntity
  8
0
  6
Continuous
 62
     7
370
    15
100
AcDbEllipse
 10
866.398067514
 20
821.7350491492
 30
0.0
 11
8.5
 21
0.0
 31
0.0
210
0.0
220
0.0
230
1.0
 40
0.4987736341
 41
4.59307401900251
 42
4.712388980384697
  0
ELLIPSE
  5
14F
330
1F
100
AcDbEntity
  8
0
  6
Continuous
 62
     7
370
    15
100
AcDbEllipse
 10
866.398067514
 20
824.91823541
 30
0.0
 11
0.0
 21
4.239575889438697
 31
0.0
210
0.0
220
0.0
230
1.0
 40
0.8255542751
 41
3.058817830944677
 42
3.141592653589793
  0
LINE
  5
150
330
1F
100
AcDbEntity
  8
0
  6
Continuous
 62
     7
370
    15
100
AcDbLine
 10
857.898067514
 20
799.2927022664
 30
0.0
 11
857.898067514
 21
807.5285440126
 31
0.0
  0
LINE
  5
151
330
1F
100
AcDbEntity
  8
0
  6
Continuous
 62
     7
370
    15
100
AcDbLine
 10
865.3862949445
 20
817.5256149045
 30
0.0
 11
857.898067514
 21
807.5285440126
 31
0.0
  0
ELLIPSE
  5
152
330
1F
100
AcDbEntity
  8
0
  6
Continuous
 62
     7
370
    15
100
AcDbEllipse
 10
866.398067514
 20
821.7350491492
 30
0.0
 11
8.5
 21
0.0
 31
0.0
210
0.0
220
0.0
230
1.0
 40
0.4987736341
 41
4.712388980384697
 42
5.884577896435442
  0
SPLINE
  5
153
330
1F
100
AcDbEntity
  8
0
  6
Continuous
 62
     7
370
    15
100
AcDbSpline
210
0.0
220
0.0
230
1.0
 70
     8
 71
     3
 72
    11
 73
     7
 74
     0
 42
0.00000001
 43
0.00000001
 12
1.0
 22
0.0
 32
0.0
 13
1.0
 23
0.0
 33
0.0
 40
0.0
 40
0.0
 40
0.0
 40
0.0
 40
0.254090986535876
 40
0.5159667733573539
 40
0.7550002156140759
 40
1.0
 40
1.0
 40
1.0
 40
1.0
 10
874.8980675139992
 20
808.8619054646362
 30
0.0
 10
874.8647730224784
 20
809.7205855415345
 30
0.0
 10
874.7971639679631
 20
811.4642538025139
 30
0.0
 10
874.4907156964875
 20
814.2883920131436
 30
0.0
 10
874.2565897011623
 20
817.1891970150027
 30
0.0
 10
874.2400564439913
 20
819.114833719462
 30
0.0
 10
874.2316879184044
 20
820.0895200662455
 30
0.0
  0
LINE
  5
154
330
1F
100
AcDbEntity
  8
0
  6
Continuous
 62
     7
370
    15
100
AcDbLine
 10
874.898067514
 20
808.8619054646
 30
0.0
 11
874.898067514
 21
799.2927022664
 31
0.0
  0
ELLIPSE
  5
155
330
1F
100
AcDbEntity
  8
0
  6
Continuous
 62
     7
370
    15
100
AcDbEllipse
 10
866.398067514
 20
824.91823541
 30
0.0
 11
0.0
 21
4.239575889438697
 31
0.0
210
0.0
220
0.0
230
1.0
 40
0.8255542751
 41
3.141592653589793
 42
4.353186372921631
  0
ARC
  5
156
330
1F
100
AcDbEntity
  8
0
  6
Continuous
 62
     7
370
    15
100
AcDbCircle
 10
868.7841195442
 20
817.0123300999
 30
0.0
 40
6.47709292972363
100
AcDbArc
 50
32.7572850428
 51
82.0970719209
  0
LINE
  5
157
330
1F
100
AcDbEntity
  8
0
  6
Continuous
 62
     7
370
    15
100
AcDbLine
 10
874.2316879184
 20
820.0895200662
 30
0.0
 11
874.2311618255
 21
820.5169646323
 31
0.0
  0
LINE
  5
158
330
1F
100
AcDbEntity
  8
0
  6
Continuous
 62
     7
370
    15
100
AcDbLine
 10
858.1797559007
 20
809.0030468937
 30
0.0
 11
862.1441115992
 21
819.0001177856
 31
0.0
  0
ARC
  5
159
330
1F
100
AcDbEntity
  8
0
  6
Continuous
 62
     7
370
    15
100
AcDbCircle
 10
861.898067514
 20
807.5285440126
 30
0.0
 40
4.000000000000028
100
AcDbArc
 50
158.3691131635
 51
180.0
  0
SPLINE
  5
15A
330
1F
100
AcDbEntity
  8
0
  6
Continuous
 62
     7
370
    15
100
AcDbSpline
210
0.0
220
0.0
230
1.0
 70
     8
 71
     3
 72
     9
 73
     5
 74
     0
 42
0.00000001
 43
0.00000001
 12
1.0
 22
0.0
 32
0.0
 13
1.0
 23
0.0
 33
0.0
 40
0.0
 40
0.0
 40
0.0
 40
0.0
 40
0.9849003843203281
 40
1.0
 40
1.0
 40
1.0
 40
1.0
 10
874.1072190626152
 20
829.8849227191754
 30
0.0
 10
874.3664317395023
 20
830.2056328520018
 30
0.0
 10
874.6296184343335
 20
830.5312598270056
 30
0.0
 10
874.8940743315865
 20
830.8562740400006
 30
0.0
 10
874.8980675139992
 20
830.8611816297073
 30
0.0
  0
SPLINE
  5
15B
330
1F
100
AcDbEntity
  8
0
  6
Continuous
 62
     7
370
    15
100
AcDbSpline
210
0.0
220
0.0
230
1.0
 70
     8
 71
     3
 72
    10
 73
     6
 74
     0
 42
0.00000001
 43
0.00000001
 12
1.0
 22
0.0
 32
0.0
 13
1.0
 23
0.0
 33
0.0
 40
0.0
 40
0.0
 40
0.0
 40
0.0
 40
0.4261928738920064
 40
0.7128254456121731
 40
1.0
 40
1.0
 40
1.0
 40
1.0
 10
869.6746885083411
 20
823.4279064372128
 30
0.0
 10
870.1142805063131
 20
824.4196278982254
 30
0.0
 10
870.8495165485783
 20
826.0783236101314
 30
0.0
 10
872.6134587088878
 20
828.1244934403844
 30
0.0
 10
873.6089855070567
 20
829.2977435664467
 30
0.0
 10
874.1072190626147
 20
829.8849227191747
 30
0.0
  0
LINE
  5
15C
330
1F
100
AcDbEntity
  8
0
  6
Continuous
 62
     7
370
    15
100
AcDbLine
 10
870.1408267898
 20
830.8611816297
 30
0.0
 11
866.1086863565
 21
820.6931753198
 31
0.0
  0
LINE
  5
15D
330
1F
100
AcDbEntity
  8
0
  6
Continuous
 62
     7
370
    15
100
AcDbLine
 10
874.898067514
 20
830.8611816297
 30
0.0
 11
870.1408267898
 21
830.8611816297
 31
0.0
  0
LINE
  5
15E
330
1F
100
AcDbEntity
  8
0
  6
Continuous
 62
     7
370
    15
100
AcDbLine
 10
862.3903747432
 20
819.6211291922
 30
0.0
 11
866.4225151765
 21
829.7891355022
 31
0.0
  0
ARC
  5
15F
330
1F
100
AcDbEntity
  8
0
  6
Continuous
 62
     7
370
    15
100
AcDbCircle
 10
868.9468218235
 20
828.018132748
 30
0.0
 40
3.083597704539129
100
AcDbArc
 50
67.2188887709
 51
144.9472729027
  0
LINE
  5
160
330
1F
100
AcDbEntity
  8
0
  6
Continuous
 62
     7
370
    15
100
AcDbLine
 10
878.498067514
 20
799.0927022664
 30
0.0
 11
878.498067514
 21
840.0927022664
 31
0.0
  0
LINE
  5
161
330
1F
100
AcDbEntity
  8
0
  6
Continuous
 62
     7
370
    15
100
AcDbLine
 10
881.698067514
 20
840.5927022664
 30
0.0
 11
881.698067514
 21
798.5927022664
 31
0.0
  0
ARC
  5
162
330
1F
100
AcDbEntity
  8
0
  6
Continuous
 62
     7
370
    15
100
AcDbCircle
 10
870.5363765826
 20
822.42868131
 30
0.0
 40
8.2671912987338
100
AcDbArc
 50
58.4573030404
 51
64.4099366573
  0
SPLINE
  5
163
330
1F
100
AcDbEntity
  8
0
  6
Continuous
 62
     7
370
    15
100
AcDbSpline
210
0.0
220
0.0
230
1.0
 70
     8
 71
     3
 72
    10
 73
     6
 74
     0
 42
0.00000001
 43
0.00000001
 12
1.0
 22
0.0
 32
0.0
 13
1.0
 23
0.0
 33
0.0
 40
0.0
 40
0.0
 40
0.0
 40
0.0
 40
0.3393972201333298
 40
0.6883161218940616
 40
1.0
 40
1.0
 40
1.0
 40
1.0
 10
874.2311618255325
 20
820.5169646322827
 30
0.0
 10
874.2643629519193
 20
821.5944978911474
 30
0.0
 10
874.331696651789
 20
823.7797942635284
 30
0.0
 10
874.7086515067837
 20
826.8091441831835
 30
0.0
 10
874.8123140619161
 20
828.6200043929593
 30
0.0
 10
874.8612238579128
 20
829.474399727179
 30
0.0
  0
ARC
  5
164
330
1F
100
AcDbEntity
  8
0
  6
Continuous
 62
     7
370
    15
100
AcDbCircle
 10
874.7357365057
 20
829.3213792901
 30
0.0
 40
9.245609212312294
100
AcDbArc
 50
266.8748212041
 51
269.7319915074
  0
SPLINE
  5
165
330
1F
100
AcDbEntity
  8
0
  6
Continuous
 62
     7
370
    15
100
AcDbSpline
210
0.0
220
0.0
230
1.0
 70
     8
 71
     3
 72
    11
 73
     7
 74
     0
 42
0.00000001
 43
0.00000001
 12
1.0
 22
0.0
 32
0.0
 13
1.0
 23
0.0
 33
0.0
 40
0.0
 40
0.0
 40
0.0
 40
0.0
 40
0.2373370187884315
 40
0.4815635595160273
 40
0.73688616882059
 40
1.0
 40
1.0
 40
1.0
 40
1.0
 10
874.6924891186635
 20
820.0758712255896
 30
0.0
 10
874.700675838817
 20
819.1513699173962
 30
0.0
 10
874.7172869267882
 20
817.2755304759831
 30
0.0
 10
874.9626993777997
 20
814.4752165226922
 30
0.0
 10
875.2886903027957
 20
811.7020294973828
 30
0.0
 10
875.3612449855875
 20
810.0136062629585
 30
0.0
 10
875.3980675139993
 20
809.1567075745737
 30
0.0
  0
LWPOLYLINE
  5
166
330
1F
100
AcDbEntity
  8
0
  6
Continuous
 62
     7
370
    15
100
AcDbPolyline
 90
        9
 70
   128
 43
0.0
 10
874.898067514
 20
808.8619054646
 10
874.9076748738
 20
808.9194185032
 10
874.9361277477
 20
808.9747213479
 10
874.9823327078
 20
809.0256887415
 10
875.0445141234
 20
809.0703620357
 10
875.1202823975
 20
809.1070244607
 10
875.2067257978
 20
809.1342671001
 10
875.300522353
 20
809.1510430347
 10
875.398067514
 20
809.1567075746
  0
ARC
  5
167
330
1F
100
AcDbEntity
  8
0
  6
Continuous
 62
     7
370
    15
100
AcDbCircle
 10
874.9203903826
 20
830.3598464618
 30
0.0
 40
0.887421319038859
100
AcDbArc
 50
266.1771160387
 51
271.0481931916
  0
SPLINE
  5
168
330
1F
100
AcDbEntity
  8
0
  6
Continuous
 62
     7
370
    15
100
AcDbSpline
210
0.0
220
0.0
230
1.0
 70
     8
 71
     3
 72
    11
 73
     7
 74
     0
 42
0.00000001
 43
0.00000001
 12
1.0
 22
0.0
 32
0.0
 13
1.0
 23
0.0
 33
0.0
 40
0.0
 40
0.0
 40
0.0
 40
0.0
 40
0.2096738520603285
 40
0.5164778073444709
 40
0.8320567637577347
 40
1.0
 40
1.0
 40
1.0
 40
1.0
 10
874.9366243374417
 20
829.4725736423128
 30
0.0
 10
874.9368569518346
 20
828.9056853378495
 30
0.0
 10
874.9374299377856
 20
827.5093012602861
 30
0.0
 10
874.7675784149276
 20
825.0461901647101
 30
0.0
 10
874.6441953707749
 20
822.5874778935276
 30
0.0
 10
874.6758236208103
 20
821.0515335562711
 30
0.0
 10
874.6868091572517
 20
820.5180493303038
 30
0.0
  0
ARC
  5
169
330
1F
100
AcDbEntity
  8
0
  6
Continuous
 62
     7
370
    15
100
AcDbCircle
 10
874.4471614274
 20
825.4844222956
 30
0.0
 40
4.972151593128008
100
AcDbArc
 50
267.5101801994
 51
272.7626119226
  0
LINE
  5
16A
330
1F
100
AcDbEntity
  8
0
  6
Continuous
 62
     7
370
    15
100
AcDbLine
 10
874.6868091573
 20
820.5180493303
 30
0.0
 11
874.6924891187
 21
820.0758712256
 31
0.0
  0
SPLINE
  5
16B
330
1F
100
AcDbEntity
  8
0
  6
Continuous
 62
     7
370
    15
100
AcDbSpline
210
0.0
220
0.0
230
1.0
 70
     8
 71
     3
 72
    12
 73
     8
 74
     0
 42
0.00000001
 43
0.00000001
 12
1.0
 22
0.0
 32
0.0
 13
1.0
 23
0.0
 33
0.0
 40
0.0
 40
0.0
 40
0.0
 40
0.0
 40
0.0175872050840942
 40
0.0371188601354447
 40
0.1166400996523959
 40
0.4347612326763295
 40
1.0
 40
1.0
 40
1.0
 40
1.0
 10
874.8980675139992
 20
830.8611816297073
 30
0.0
 10
874.8982923894729
 20
830.8533424283527
 30
0.0
 10
874.8987670027625
 20
830.8367973197203
 30
0.0
 10
874.9002584007657
 20
830.7847112243853
 30
0.0
 10
874.9055933029765
 20
830.597659472003
 30
0.0
 10
874.9179049949868
 20
830.1599635852734
 30
0.0
 10
874.9293201072982
 20
829.7407910946002
 30
0.0
 10
874.9366243374417
 20
829.4725736423128
 30
0.0
  0
SPLINE
  5
16C
330
1F
100
AcDbEntity
  8
0
  6
Continuous
 62
     7
370
    15
100
AcDbSpline
210
0.0
220
0.0
230
1.0
 70
     8
 71
     3
 72
     9
 73
     5
 74
     0
 42
0.00000001
 43
0.00000001
 12
1.0
 22
0.0
 32
0.0
 13
1.0
 23
0.0
 33
0.0
 40
0.0
 40
0.0
 40
0.0
 40
0.0
 40
0.9823581227642602
 40
1.0
 40
1.0
 40
1.0
 40
1.0
 10
874.861223857912
 20
829.4743997271792
 30
0.0
 10
874.8732479660368
 20
829.9366741591155
 30
0.0
 10
874.8854880115418
 20
830.4072504400297
 30
0.0
 10
874.8978494352792
 20
830.8533122618079
 30
0.0
 10
874.8980675139992
 20
830.8611816297073
 30
0.0
  0
LINE
  5
16D
330
1F
100
AcDbEntity
  8
0
  6
Continuous
 62
     7
370
    15
100
AcDbLine
 10
866.4225151765
 20
829.7891355022
 30
0.0
 11
868.3965770042
 21
834.7672044591
 31
0.0
  0
LINE
  5
16E
330
1F
100
AcDbEntity
  8
0
  6
Continuous
 62
     7
370
    15
100
AcDbLine
 10
855.898067514
 20
764.7927022664
 30
0.0
 11
876.898067514
 21
764.7927022664
 31
0.0
  0
ARC
  5
16F
330
1F
100
AcDbEntity
  8
0
  6
Continuous
 62
     7
370
    15
100
AcDbCircle
 10
870.898067514
 20
764.7927022664
 30
0.0
 40
6.0
100
AcDbArc
 50
270.0
 51
0.0
  0
LINE
  5
170
330
1F
100
AcDbEntity
  8
0
  6
Continuous
 62
     7
370
    15
100
AcDbLine
 10
870.898067514
 20
758.7927022664
 30
0.0
 11
861.898067514
 21
758.7927022664
 31
0.0
  0
ARC
  5
171
330
1F
100
AcDbEntity
  8
0
  6
Continuous
 62
     7
370
    15
100
AcDbCircle
 10
861.898067514
 20
764.7927022664
 30
0.0
 40
6.0
100
AcDbArc
 50
180.0
 51
270.0
  0
LINE
  5
172
330
1F
100
AcDbEntity
  8
0
  6
Continuous
 62
     7
370
    15
100
AcDbLine
 10
876.898067514
 20
799.2927022664
 30
0.0
 11
876.898067514
 21
764.7927022664
 31
0.0
  0
LINE
  5
173
330
1F
100
AcDbEntity
  8
0
  6
Continuous
 62
     7
370
    15
100
AcDbLine
 10
855.898067514
 20
799.2927022664
 30
0.0
 11
855.898067514
 21
764.7927022664
 31
0.0
  0
LINE
  5
174
330
1F
100
AcDbEntity
  8
0
  6
Continuous
 62
     7
370
    15
100
AcDbLine
 10
855.898067514
 20
799.2927022664
 30
0.0
 11
876.898067514
 21
799.2927022664
 31
0.0
  0
LINE
  5
175
330
1F
100
AcDbEntity
  8
0
  6
Continuous
 62
     7
370
    15
100
AcDbLine
 10
876.898067514
 20
764.7927022664
 30
0.0
 11
877.0069110514
 21
764.7927022664
 31
0.0
  0
SPLINE
  5
176
330
1F
100
AcDbEntity
  8
0
  6
Continuous
 62
     7
370
    15
100
AcDbSpline
210
0.0
220
0.0
230
1.0
 70
     8
 71
     3
 72
    12
 73
     8
 74
     0
 42
0.00000001
 43
0.00000001
 12
1.0
 22
0.0
 32
0.0
 13
1.0
 23
0.0
 33
0.0
 40
0.0
 40
0.0
 40
0.0
 40
0.0
 40
0.1997794944719594
 40
0.398475187572048
 40
0.6096127878278073
 40
0.8324605596741111
 40
1.0
 40
1.0
 40
1.0
 40
1.0
 10
877.0069110514141
 20
764.7927022663652
 30
0.0
 10
876.9468841338168
 20
764.1385422071309
 30
0.0
 10
876.8271559439331
 20
762.8337708991717
 30
0.0
 10
875.9008501918092
 20
761.0669484727716
 30
0.0
 10
874.4818411032173
 20
759.6341012122306
 30
0.0
 10
872.7122255383689
 20
758.7402165028061
 30
0.0
 10
871.4380799392808
 20
758.6369992227891
 30
0.0
 10
870.8912647929108
 20
758.5927022663652
 30
0.0
  0
ARC
  5
177
330
1F
100
AcDbEntity
  8
0
  6
Continuous
 62
     7
370
    15
100
AcDbCircle
 10
872.3663668337
 20
758.6426444201
 30
0.0
 40
1.47594723806381
100
AcDbArc
 50
174.1647220804
 51
181.9391079066
  0
LINE
  5
178
330
1F
100
AcDbEntity
  8
0
  6
Continuous
 62
     7
370
    15
100
AcDbLine
 10
870.8912647929
 20
758.5927022664
 30
0.0
 11
862.0137137725
 21
758.5927022664
 31
0.0
  0
LWPOLYLINE
  5
179
330
1F
100
AcDbEntity
  8
0
  6
Continuous
 62
     7
370
    15
100
AcDbPolyline
 90
        9
 70
   128
 43
0.0
 10
861.898067514
 20
758.7927022664
 10
861.9206289798
 20
758.7888593224
 10
861.9423234211
 20
758.7774781729
 10
861.9623171328
 20
758.7589961888
 10
861.9798417676
 20
758.7341236226
 10
861.9942238637
 20
758.703816313
 10
862.0049107252
 20
758.6692389528
 10
862.0114916621
 20
758.6317203308
 10
862.0137137725
 20
758.5927022664
  0
SPLINE
  5
17A
330
1F
100
AcDbEntity
  8
0
  6
Continuous
 62
     7
370
    15
100
AcDbSpline
210
0.0
220
0.0
230
1.0
 70
     8
 71
     3
 72
    14
 73
    10
 74
     0
 42
0.00000001
 43
0.00000001
 12
1.0
 22
0.0
 32
0.0
 13
1.0
 23
0.0
 33
0.0
 40
0.0
 40
0.0
 40
0.0
 40
0.0
 40
0.1782597122289215
 40
0.3616539138778848
 40
0.5494725091003354
 40
0.7432769403742395
 40
0.9742862395363394
 40
0.9978099434998192
 40
0.9999999999999999
 40
0.9999999999999999
 40
0.9999999999999999
 40
0.9999999999999999
 10
861.681442184838
 20
758.6018599207079
 30
0.0
 10
861.0672621493317
 20
758.6274753139334
 30
0.0
 10
859.8212115925953
 20
758.6794439113226
 30
0.0
 10
858.2911929251202
 20
758.7115184090164
 30
0.0
 10
857.0612548791692
 20
758.7409588364408
 30
0.0
 10
856.1767311574482
 20
758.7656871167436
 30
0.0
 10
855.9130843470722
 20
758.7823132755939
 30
0.0
 10
855.8981500511807
 20
758.7916834408273
 30
0.0
 10
855.898073992005
 20
758.7926223029145
 30
0.0
 10
855.8980675139992
 20
758.7927022663652
 30
0.0
  0
LINE
  5
17B
330
1F
100
AcDbEntity
  8
0
  6
Continuous
 62
     7
370
    15
100
AcDbLine
 10
862.0137137725
 20
758.5927022664
 30
0.0
 11
861.6814421848
 21
758.6018599207
 31
0.0
  0
LINE
  5
17C
330
1F
100
AcDbEntity
  8
0
  6
Continuous
 62
     7
370
    15
100
AcDbLine
 10
877.0069110514
 20
772.3482608708
 30
0.0
 11
877.0069110514
 21
764.7927022664
 31
0.0
  0
LINE
  5
17D
330
1F
100
AcDbEntity
  8
0
  6
Continuous
 62
     7
370
    15
100
AcDbLine
 10
884.898067514
 20
758.3085967073
 30
0.0
 11
877.0069110514
 21
772.3482608708
 31
0.0
  0
ARC
  5
17E
330
1F
100
AcDbEntity
  8
0
  6
Continuous
 62
     7
370
    15
100
AcDbCircle
 10
877.098067514
 20
772.8444257832
 30
0.0
 40
0.2000000000000761
100
AcDbArc
 50
180.0
 51
209.0
  0
SPLINE
  5
17F
330
1F
100
AcDbEntity
  8
0
  6
Continuous
 62
     7
370
    15
100
AcDbSpline
210
0.0
220
0.0
230
1.0
 70
     8
 71
     3
 72
    15
 73
    11
 74
     0
 42
0.00000001
 43
0.00000001
 12
1.0
 22
0.0
 32
0.0
 13
1.0
 23
0.0
 33
0.0
 40
0.0
 40
0.0
 40
0.0
 40
0.0
 40
0.4996186863488449
 40
0.6815042276256913
 40
0.8393484841370725
 40
0.886415565004027
 40
0.9196784347188168
 40
0.9592007672670964
 40
0.9948800621386253
 40
1.0
 40
1.0
 40
1.0
 40
1.0
 10
877.0069110514141
 20
772.3482608707956
 30
0.0
 10
876.9897738317693
 20
772.422932991491
 30
0.0
 10
876.9663978293163
 20
772.5247894018498
 30
0.0
 10
876.9394601587923
 20
772.6492616723338
 30
0.0
 10
876.9278660353997
 20
772.7059924314613
 30
0.0
 10
876.9230790598738
 20
772.7337807564542
 30
0.0
 10
876.9216781740479
 20
772.7441948585916
 30
0.0
 10
876.9215858279792
 20
772.7490637224388
 30
0.0
 10
876.9224415745555
 20
772.7486860581953
 30
0.0
 10
876.9230653005518
 20
772.7476001330548
 30
0.0
 10
876.9231435725712
 20
772.7474638591872
 30
0.0
  0
LINE
  5
180
330
1F
100
AcDbEntity
  8
0
  6
Continuous
 62
     7
370
    15
100
AcDbLine
 10
876.898067514
 20
772.3482608708
 30
0.0
 11
877.0069110514
 21
772.3482608708
 31
0.0
  0
LINE
  5
181
330
1F
100
AcDbEntity
  8
0
  6
Continuous
 62
     7
370
    15
100
AcDbLine
 10
876.9231435726
 20
772.7474638592
 30
0.0
 11
884.8729886005
 21
758.4055637817
 31
0.0
  0
LWPOLYLINE
  5
182
330
1F
100
AcDbEntity
  8
0
  6
Continuous
 62
     7
370
    15
100
AcDbPolyline
 90
        9
 70
   128
 43
0.0
 10
861.5720791488
 20
758.8015645125
 10
861.5947972088
 20
758.7966376769
 10
861.6162776004
 20
758.784532785
 10
861.6357287166
 20
758.765695933
 10
861.652433734
 20
758.7408213068
 10
861.6657770303
 20
758.7108255997
 10
861.6752668711
 20
758.6768142299
 10
861.6805535316
 20
758.640040603
 10
861.6814421848
 20
758.6018599207
  0
SPLINE
  5
183
330
1F
100
AcDbEntity
  8
0
  6
Continuous
 62
     7
370
    15
100
AcDbSpline
210
0.0
220
0.0
230
1.0
 70
     8
 71
     3
 72
    14
 73
    10
 74
     0
 42
0.00000001
 43
0.00000001
 12
1.0
 22
0.0
 32
0.0
 13
1.0
 23
0.0
 33
0.0
 40
0.0
 40
0.0
 40
0.0
 40
0.0
 40
0.0021794887074313
 40
0.0287146009562633
 40
0.2257953079933195
 40
0.4063880454774276
 40
0.592018394233762
 40
0.7928655751262775
 40
1.0
 40
1.0
 40
1.0
 40
1.0
 10
855.8980675139992
 20
758.7927022663652
 30
0.0
 10
855.8980738742641
 20
758.7927814317605
 30
0.0
 10
855.8981576702789
 20
758.7938244299315
 30
0.0
 10
855.912551992916
 20
758.8020289386639
 30
0.0
 10
856.1239919334714
 20
758.816547734853
 30
0.0
 10
856.84448915232
 20
758.8359205705799
 30
0.0
 10
857.9683288060153
 20
758.848974620002
 30
0.0
 10
859.5222257420655
 20
758.8628922526298
 30
0.0
 10
860.8818106704442
 20
758.8222160409126
 30
0.0
 10
861.5720791487934
 20
758.8015645125079
 30
0.0
  0
SPLINE
  5
184
330
1F
100
AcDbEntity
  8
0
  6
Continuous
 62
     7
370
    15
100
AcDbSpline
210
0.0
220
0.0
230
1.0
 70
    24
 71
     3
 72
    12
 73
     8
 74
     0
 42
0.00000001
 43
0.00000001
 12
1.0
 22
0.0
 32
0.0
 13
1.0
 23
0.0
 33
0.0
 40
0.0
 40
0.0
 40
0.0
 40
0.0
 40
0.0013703695556527
 40
0.3524442705433117
 40
0.5506773865101627
 40
0.7483479382023296
 40
0.9999999999999999
 40
0.9999999999999999
 40
0.9999999999999999
 40
0.9999999999999999
 10
855.8980675139992
 20
758.7927022663652
 30
0.0
 10
855.8980675139992
 20
758.7966559913248
 30
0.0
 10
855.898067513995
 20
759.8135114107473
 30
0.0
 10
855.8980675140002
 20
761.4112231018004
 30
0.0
 10
855.898067513999
 20
763.2069451151864
 30
0.0
 10
855.8980675139992
 20
764.4575318530501
 30
0.0
 10
855.8980675139992
 20
764.6723750583534
 30
0.0
 10
855.8980675139992
 20
764.7927022663652
 30
0.0
  0
ARC
  5
185
330
1F
100
AcDbEntity
  8
0
  6
Continuous
 62
     7
370
    15
100
AcDbCircle
 10
855.898067514
 20
794.6927022664
 30
0.0
 40
0.2000000000000455
100
AcDbArc
 50
180.0000001735
 51
270.000000347
  0
LINE
  5
186
330
1F
100
AcDbEntity
  8
0
  6
Continuous
 62
     7
370
    15
100
AcDbLine
 10
855.898067514
 20
799.2927022664
 30
0.0
 11
855.698067514
 21
799.2927022664
 31
0.0
  0
LINE
  5
187
330
1F
100
AcDbEntity
  8
0
  6
Continuous
 62
     7
370
    15
100
AcDbLine
 10
1072.798067514
 20
752.5927022664
 30
0.0
 11
1112.648067514
 21
752.5927022664
 31
0.0
  0
LINE
  5
188
330
1F
100
AcDbEntity
  8
0
  6
Continuous
 62
     7
370
    15
100
AcDbLine
 10
1032.948067514
 20
752.5927022664
 30
0.0
 11
1072.798067514
 21
752.5927022664
 31
0.0
  0
LINE
  5
189
330
1F
100
AcDbEntity
  8
0
  6
Continuous
 62
     7
370
    15
100
AcDbLine
 10
1277.4689060916
 20
853.0927022664
 30
0.0
 11
868.1272289364
 21
853.0927022664
 31
0.0
  0
LINE
  5
18A
330
1F
100
AcDbEntity
  8
0
  6
Continuous
 62
     7
370
    15
100
AcDbLine
 10
868.1272289364
 20
853.0927022664
 30
0.0
 11
868.1272289364
 21
854.5927022664
 31
0.0
  0
LINE
  5
18B
330
1F
100
AcDbEntity
  8
0
  6
Continuous
 62
     7
370
    15
100
AcDbLine
 10
868.1272289364
 20
854.5927022664
 30
0.0
 11
1277.4689060916
 21
854.5927022664
 31
0.0
  0
LINE
  5
18C
330
1F
100
AcDbEntity
  8
0
  6
Continuous
 62
     7
370
    15
100
AcDbLine
 10
1277.4689060916
 20
853.0927022664
 30
0.0
 11
1277.4689060916
 21
854.5927022664
 31
0.0
  0
LINE
  5
18D
330
1F
100
AcDbEntity
  8
0
  6
Continuous
 62
     7
370
    15
100
AcDbLine
 10
868.1272289364
 20
853.0927022664
 30
0.0
 11
863.298067514
 21
853.0927022664
 31
0.0
  0
ARC
  5
18E
330
1F
100
AcDbEntity
  8
0
  6
Continuous
 62
     7
370
    15
100
AcDbCircle
 10
864.798067514
 20
853.0927022664
 30
0.0
 40
1.500000000000114
100
AcDbArc
 50
90.0
 51
180.0
  0
LINE
  5
18F
330
1F
100
AcDbEntity
  8
0
  6
Continuous
 62
     7
370
    15
100
AcDbLine
 10
864.798067514
 20
854.5927022664
 30
0.0
 11
868.1272289364
 21
854.5927022664
 31
0.0
  0
LINE
  5
190
330
1F
100
AcDbEntity
  8
0
  6
Continuous
 62
     7
370
    15
100
AcDbLine
 10
1277.4689060916
 20
851.5927022664
 30
0.0
 11
868.1272289364
 21
851.5927022664
 31
0.0
  0
LINE
  5
191
330
1F
100
AcDbEntity
  8
0
  6
Continuous
 62
     7
370
    15
100
AcDbLine
 10
868.1272289364
 20
851.5927022664
 30
0.0
 11
868.1272289364
 21
853.0927022664
 31
0.0
  0
LINE
  5
192
330
1F
100
AcDbEntity
  8
0
  6
Continuous
 62
     7
370
    15
100
AcDbLine
 10
1277.4689060916
 20
851.5927022664
 30
0.0
 11
1277.4689060916
 21
853.0927022664
 31
0.0
  0
LINE
  5
193
330
1F
100
AcDbEntity
  8
0
  6
Continuous
 62
     7
370
    15
100
AcDbLine
 10
868.1272289364
 20
851.5927022664
 30
0.0
 11
864.798067514
 21
851.5927022664
 31
0.0
  0
ARC
  5
194
330
1F
100
AcDbEntity
  8
0
  6
Continuous
 62
     7
370
    15
100
AcDbCircle
 10
864.798067514
 20
853.0927022664
 30
0.0
 40
1.5
100
AcDbArc
 50
180.0
 51
270.0
  0
LINE
  5
195
330
1F
100
AcDbEntity
  8
0
  6
Continuous
 62
     7
370
    15
100
AcDbLine
 10
1282.298067514
 20
853.0927022664
 30
0.0
 11
1277.4689060916
 21
853.0927022664
 31
0.0
  0
ARC
  5
196
330
1F
100
AcDbEntity
  8
0
  6
Continuous
 62
     7
370
    15
100
AcDbCircle
 10
1280.798067514
 20
853.0927022664
 30
0.0
 40
1.500000000000227
100
AcDbArc
 50
270.0
 51
0.0
  0
LINE
  5
197
330
1F
100
AcDbEntity
  8
0
  6
Continuous
 62
     7
370
    15
100
AcDbLine
 10
1280.798067514
 20
851.5927022664
 30
0.0
 11
1277.4689060916
 21
851.5927022664
 31
0.0
  0
LINE
  5
198
330
1F
100
AcDbEntity
  8
0
  6
Continuous
 62
     7
370
    15
100
AcDbLine
 10
1277.4689060916
 20
854.5927022664
 30
0.0
 11
1280.798067514
 21
854.5927022664
 31
0.0
  0
ARC
  5
199
330
1F
100
AcDbEntity
  8
0
  6
Continuous
 62
     7
370
    15
100
AcDbCircle
 10
1280.798067514
 20
853.0927022664
 30
0.0
 40
1.500000000000227
100
AcDbArc
 50
0.0
 51
90.0
  0
LINE
  5
19A
330
1F
100
AcDbEntity
  8
0
  6
Continuous
 62
     7
370
    15
100
AcDbLine
 10
890.298067514
 20
849.5927022664
 30
0.0
 11
885.298067514
 21
849.5927022664
 31
0.0
  0
ARC
  5
19B
330
1F
100
AcDbEntity
  8
0
  6
Continuous
 62
     7
370
    15
100
AcDbCircle
 10
883.298067514
 20
849.5927022664
 30
0.0
 40
2.0
100
AcDbArc
 50
0.0
 51
90.0
  0
LINE
  5
19C
330
1F
100
AcDbEntity
  8
0
  6
Continuous
 62
     7
370
    15
100
AcDbLine
 10
890.298067514
 20
849.5927022664
 30
0.0
 11
890.298067514
 21
851.5927022664
 31
0.0
  0
LINE
  5
19D
330
1F
100
AcDbEntity
  8
0
  6
Continuous
 62
     7
370
    15
100
AcDbLine
 10
1255.298067514
 20
849.5927022664
 30
0.0
 11
890.298067514
 21
849.5927022664
 31
0.0
  0
LINE
  5
19E
330
1F
100
AcDbEntity
  8
0
  6
Continuous
 62
     7
370
    15
100
AcDbLine
 10
1255.298067514
 20
849.5927022664
 30
0.0
 11
1255.298067514
 21
851.5927022664
 31
0.0
  0
ARC
  5
19F
330
1F
100
AcDbEntity
  8
0
  6
Continuous
 62
     7
370
    15
100
AcDbCircle
 10
1262.298067514
 20
849.5927022664
 30
0.0
 40
2.0
100
AcDbArc
 50
90.0
 51
180.0
  0
LINE
  5
1A0
330
1F
100
AcDbEntity
  8
0
  6
Continuous
 62
     7
370
    15
100
AcDbLine
 10
1260.298067514
 20
849.5927022664
 30
0.0
 11
1255.298067514
 21
849.5927022664
 31
0.0
  0
LINE
  5
1A1
330
1F
100
AcDbEntity
  8
0
  6
Continuous
 62
     7
370
    15
100
AcDbLine
 10
885.298067514
 20
759.5927022664
 30
0.0
 11
890.298067514
 21
759.5927022664
 31
0.0
  0
LINE
  5
1A2
330
1F
100
AcDbEntity
  8
0
  6
Continuous
 62
     7
370
    15
100
AcDbLine
 10
885.298067514
 20
849.5927022664
 30
0.0
 11
885.298067514
 21
759.5927022664
 31
0.0
  0
LINE
  5
1A3
330
1F
100
AcDbEntity
  8
0
  6
Continuous
 62
     7
370
    15
100
AcDbLine
 10
890.298067514
 20
849.5927022664
 30
0.0
 11
890.298067514
 21
759.5927022664
 31
0.0
  0
ARC
  5
1A4
330
1F
100
AcDbEntity
  8
0
  6
Continuous
 62
     7
370
    15
100
AcDbCircle
 10
890.298067514
 20
759.5927022664
 30
0.0
 40
5.0
100
AcDbArc
 50
180.0
 51
270.0
  0
LINE
  5
1A5
330
1F
100
AcDbEntity
  8
0
  6
Continuous
 62
     7
370
    15
100
AcDbLine
 10
890.298067514
 20
754.5927022664
 30
0.0
 11
890.298067514
 21
759.5927022664
 31
0.0
  0
LINE
  5
1A6
330
1F
100
AcDbEntity
  8
0
  6
Continuous
 62
     7
370
    15
100
AcDbLine
 10
890.298067514
 20
759.5927022664
 30
0.0
 11
1255.298067514
 21
759.5927022664
 31
0.0
  0
LINE
  5
1A7
330
1F
100
AcDbEntity
  8
0
  6
Continuous
 62
     7
370
    15
100
AcDbLine
 10
1255.298067514
 20
849.5927022664
 30
0.0
 11
1255.298067514
 21
759.5927022664
 31
0.0
  0
LINE
  5
1A8
330
1F
100
AcDbEntity
  8
0
  6
Continuous
 62
     7
370
    15
100
AcDbLine
 10
1255.298067514
 20
754.5927022664
 30
0.0
 11
890.298067514
 21
754.5927022664
 31
0.0
  0
LINE
  5
1A9
330
1F
100
AcDbEntity
  8
0
  6
Continuous
 62
     7
370
    15
100
AcDbLine
 10
1255.298067514
 20
754.5927022664
 30
0.0
 11
1255.298067514
 21
759.5927022664
 31
0.0
  0
LINE
  5
1AA
330
1F
100
AcDbEntity
  8
0
  6
Continuous
 62
     7
370
    15
100
AcDbLine
 10
1255.298067514
 20
759.5927022664
 30
0.0
 11
1260.298067514
 21
759.5927022664
 31
0.0
  0
LINE
  5
1AB
330
1F
100
AcDbEntity
  8
0
  6
Continuous
 62
     7
370
    15
100
AcDbLine
 10
1260.298067514
 20
849.5927022664
 30
0.0
 11
1260.298067514
 21
759.5927022664
 31
0.0
  0
ARC
  5
1AC
330
1F
100
AcDbEntity
  8
0
  6
Continuous
 62
     7
370
    15
100
AcDbCircle
 10
1255.298067514
 20
759.5927022664
 30
0.0
 40
5.0
100
AcDbArc
 50
270.0
 51
0.0
  0
LINE
  5
1AD
330
1F
100
AcDbEntity
  8
0
  6
Continuous
 62
     7
370
    15
100
AcDbLine
 10
1252.298067514
 20
754.5927022664
 30
0.0
 11
1252.2961247466
 21
754.5926782803
 31
0.0
  0
LINE
  5
1AE
330
1F
100
AcDbEntity
  8
0
  6
Continuous
 62
     7
370
    15
100
AcDbLine
 10
1055.2894209566
 20
752.5927022664
 30
0.0
 11
1090.3067140714
 21
752.5927022664
 31
0.0
  0
LINE
  5
1AF
330
1F
100
AcDbEntity
  8
0
  6
Continuous
 62
     7
370
    15
100
AcDbLine
 10
893.298067514
 20
754.5927022664
 30
0.0
 11
893.3000102814
 21
754.5926782803
 31
0.0
  0
LINE
  5
1B0
330
1F
100
AcDbEntity
  8
0
  6
Continuous
 62
     7
370
    15
100
AcDbLine
 10
1032.9480681244
 20
752.5927022664
 30
0.0
 11
1055.2894209566
 21
752.5927022664
 31
0.0
  0
LINE
  5
1B1
330
1F
100
AcDbEntity
  8
0
  6
Continuous
 62
     7
370
    15
100
AcDbLine
 10
1090.3067140714
 20
752.5927022664
 30
0.0
 11
1112.6480669036
 21
752.5927022664
 31
0.0
  0
LINE
  5
1B2
330
1F
100
AcDbEntity
  8
0
  6
Continuous
 62
     7
370
    15
100
AcDbLine
 10
950.298067514
 20
753.5927022664
 30
0.0
 11
950.298067514
 21
752.0927022664
 31
0.0
  0
LINE
  5
1B3
330
1F
100
AcDbEntity
  8
0
  6
Continuous
 62
     7
370
    15
100
AcDbLine
 10
963.1684573544
 20
753.5927022664
 30
0.0
 11
950.298067514
 21
753.5927022664
 31
0.0
  0
LINE
  5
1B4
330
1F
100
AcDbEntity
  8
0
  6
Continuous
 62
     7
370
    15
100
AcDbLine
 10
968.298067514
 20
753.5185884103
 30
0.0
 11
968.298067514
 21
752.0927022664
 31
0.0
  0
LINE
  5
1B5
330
1F
100
AcDbEntity
  8
0
  6
Continuous
 62
     7
370
    15
100
AcDbLine
 10
968.298067514
 20
752.0927022664
 30
0.0
 11
950.298067514
 21
752.0927022664
 31
0.0
  0
LINE
  5
1B6
330
1F
100
AcDbEntity
  8
0
  6
Continuous
 62
     7
370
    15
100
AcDbLine
 10
1195.298067514
 20
752.0927022664
 30
0.0
 11
1195.298067514
 21
753.5927022664
 31
0.0
  0
LINE
  5
1B7
330
1F
100
AcDbEntity
  8
0
  6
Continuous
 62
     7
370
    15
100
AcDbLine
 10
1177.298067514
 20
752.0927022664
 30
0.0
 11
1195.298067514
 21
752.0927022664
 31
0.0
  0
LINE
  5
1B8
330
1F
100
AcDbEntity
  8
0
  6
Continuous
 62
     7
370
    15
100
AcDbLine
 10
1177.298067514
 20
752.0927022664
 30
0.0
 11
1177.298067514
 21
753.5185884103
 31
0.0
  0
LINE
  5
1B9
330
1F
100
AcDbEntity
  8
0
  6
Continuous
 62
     7
370
    15
100
AcDbLine
 10
1182.4276776734
 20
753.5927022664
 30
0.0
 11
1195.298067514
 21
753.5927022664
 31
0.0
  0
LINE
  5
1BA
330
1F
100
AcDbEntity
  8
0
  6
Continuous
 62
     8
370
    15
100
AcDbLine
 10
1038.5935430494
 20
731.8179212902
 30
0.0
 11
1107.7647297423
 21
731.8179212902
 31
0.0
  0
LINE
  5
1BB
330
1F
100
AcDbEntity
  8
0
  6
Continuous
 62
     8
370
    15
100
AcDbLine
 10
1044.1936330873
 20
726.960180516
 30
0.0
 11
1103.9489402686
 21
726.960180516
 31
0.0
  0
LINE
  5
1BC
330
1F
100
AcDbEntity
  8
0
  6
Continuous
 62
     8
370
    15
100
AcDbLine
 10
1042.6828898603
 20
705.8186621224
 30
0.0
 11
1103.4480630722
 21
705.8186621226
 31
0.0
  0
LINE
  5
1BD
330
1F
100
AcDbEntity
  8
0
  6
Continuous
 62
     8
370
    15
100
AcDbLine
 10
1104.9147297423
 20
704.3190325385
 30
0.0
 11
1040.6147297423
 21
704.3190325385
 31
0.0
  0
LINE
  5
1BE
330
1F
100
AcDbEntity
  8
0
  6
Continuous
 62
     8
370
    15
100
AcDbLine
 10
1100.5147297423
 20
722.5882138192
 30
0.0
 11
1048.9880316593
 21
722.5882138192
 31
0.0
  0
LINE
  5
1BF
330
1F
100
AcDbEntity
  8
0
  6
Continuous
 62
     8
370
    15
100
AcDbLine
 10
1047.0327943313
 20
708.8179212902
 30
0.0
 11
1100.5147297423
 21
708.8179212902
 31
0.0
  0
LINE
  5
1C0
330
1F
100
AcDbEntity
  8
0
  6
Continuous
 62
     8
370
    15
100
AcDbLine
 10
863.7423956776
 20
724.4086286721
 30
0.0
 11
887.6500145767
 21
731.7179212902
 31
0.0
  0
LINE
  5
1C1
330
1F
100
AcDbEntity
  8
0
  6
Continuous
 62
     8
370
    15
100
AcDbLine
 10
887.6500145767
 20
706.7179212902
 30
0.0
 11
887.6500145767
 21
731.7179212902
 31
0.0
  0
LINE
  5
1C2
330
1F
100
AcDbEntity
  8
0
  6
Continuous
 62
     8
370
    15
100
AcDbLine
 10
866.398067514
 20
817.4954732598
 30
0.0
 11
866.398067514
 21
799.2927022664
 31
0.0
  0
LINE
  5
1C3
330
1F
100
AcDbEntity
  8
0
  6
Continuous
 62
     8
370
    15
100
AcDbLine
 10
878.998067514
 20
840.5927022664
 30
0.0
 11
878.998067514
 21
798.5927022664
 31
0.0
  0
LINE
  5
1C4
330
1F
100
AcDbEntity
  8
0
  6
Continuous
 62
     8
370
    15
100
AcDbLine
 10
877.998067514
 20
801.8927022664
 30
0.0
 11
877.998067514
 21
837.2927022664
 31
0.0
  0
LINE
  5
1C5
330
1F
100
AcDbEntity
  8
0
  6
Continuous
 62
     8
370
    15
100
AcDbLine
 10
875.398067514
 20
809.1567075746
 30
0.0
 11
875.398067514
 21
801.8927022664
 31
0.0
  0
LINE
  5
1C6
330
1F
100
AcDbEntity
  8
0
  6
Continuous
 62
     8
370
    15
100
AcDbLine
 10
872.1148888905
 20
837.2927022664
 30
0.0
 11
870.1408267898
 21
830.8611816297
 31
0.0
  0
LINE
  5
1C7
330
1F
100
AcDbEntity
  8
0
  6
Continuous
 62
     8
370
    15
100
AcDbLine
 10
881.4466224948
 20
752.9533515357
 30
0.0
 11
855.8770762604
 21
752.9533515357
 31
0.0
  0
LINE
  5
1C8
330
1F
100
AcDbEntity
  8
0
  6
Continuous
 62
     8
370
    15
100
AcDbLine
 10
855.898067514
 20
753.0425472123
 30
0.0
 11
881.7383684072
 21
753.0425472123
 31
0.0
  0
LINE
  5
1C9
330
1F
100
AcDbEntity
  8
0
  6
Continuous
 62
     8
370
    15
100
AcDbLine
 10
855.898067514
 20
797.1927022664
 30
0.0
 11
855.698067514
 21
797.1927022664
 31
0.0
  0
LINE
  5
1CA
330
1F
100
AcDbEntity
  8
0
  6
Continuous
 62
     8
370
    15
100
AcDbLine
 10
1072.798067514
 20
750.7786072604
 30
0.0
 11
1108.2178777771
 21
750.7786072604
 31
0.0
  0
LINE
  5
1CB
330
1F
100
AcDbEntity
  8
0
  6
Continuous
 62
     8
370
    15
100
AcDbLine
 10
1037.3782572509
 20
750.7786072604
 30
0.0
 11
1072.798067514
 21
750.7786072604
 31
0.0
  0
LINE
  5
1CC
330
1F
100
AcDbEntity
  8
0
  6
Continuous
 62
     8
370
    15
100
AcDbLine
 10
1252.2961247466
 20
754.5926782803
 30
0.0
 11
1090.3067140714
 21
752.5927022664
 31
0.0
  0
LINE
  5
1CD
330
1F
100
AcDbEntity
  8
0
  6
Continuous
 62
     8
370
    15
100
AcDbLine
 10
893.3000102814
 20
754.5926782803
 30
0.0
 11
1055.2894209566
 21
752.5927022664
 31
0.0
  0
LINE
  5
1CE
330
1F
100
AcDbEntity
  8
0
  6
Continuous
 62
     8
370
    15
100
AcDbLine
 10
884.5836427334
 20
819.5927022664
 30
0.0
 11
884.5836427334
 21
838.9759298029
 31
0.0
  0
LINE
  5
1CF
330
1F
100
AcDbEntity
  8
0
  6
Continuous
 62
     8
370
    15
100
AcDbLine
 10
884.5836427334
 20
800.2094747298
 30
0.0
 11
884.5836427334
 21
819.5927022664
 31
0.0
  0
LINE
  5
1D0
330
1F
100
AcDbEntity
  8
0
  6
Continuous
 62
     7
370
    15
100
AcDbLine
 10
408.7184757506
 20
544.8792996915
 30
0.0
 11
406.2184757506
 21
544.8792996915
 31
0.0
  0
LINE
  5
1D1
330
1F
100
AcDbEntity
  8
0
  6
Continuous
 62
     7
370
    15
100
AcDbLine
 10
421.8184757506
 20
544.8792996915
 30
0.0
 11
419.3184757506
 21
544.8792996915
 31
0.0
  0
LINE
  5
1D2
330
1F
100
AcDbEntity
  8
0
  6
Continuous
 62
     7
370
    15
100
AcDbLine
 10
419.3184757506
 20
544.8792996915
 30
0.0
 11
408.7184757506
 21
544.8792996915
 31
0.0
  0
ARC
  5
1D3
330
1F
100
AcDbEntity
  8
0
  6
Continuous
 62
     7
370
    15
100
AcDbCircle
 10
414.0184757506
 20
530.1792996915
 30
0.0
 40
16.29999999999995
100
AcDbArc
 50
64.401056121
 51
115.598943879
  0
CIRCLE
  5
1D4
330
1F
100
AcDbEntity
  8
0
  6
Continuous
 62
     7
370
    15
100
AcDbCircle
 10
414.0184757506
 20
327.8126374632
 30
0.0
 40
21.5
  0
CIRCLE
  5
1D5
330
1F
100
AcDbEntity
  8
0
  6
Continuous
 62
     7
370
    15
100
AcDbCircle
 10
414.0184757506
 20
327.8126374632
 30
0.0
 40
22.00000000000006
  0
ARC
  5
1D6
330
1F
100
AcDbEntity
  8
0
  6
Continuous
 62
     7
370
    15
100
AcDbCircle
 10
414.042197894
 20
530.088593831
 30
0.0
 40
16.80906881919295
100
AcDbArc
 50
60.2300320215
 51
90.0808598719
  0
ARC
  5
1D7
330
1F
100
AcDbEntity
  8
0
  6
Continuous
 62
     7
370
    15
100
AcDbCircle
 10
413.9947536071
 20
530.088593831
 30
0.0
 40
16.80906881919165
100
AcDbArc
 50
89.9191401281
 51
119.7699679785
  0
ARC
  5
1D8
330
1F
100
AcDbEntity
  8
0
  6
Continuous
 62
     7
370
    15
100
AcDbCircle
 10
414.0200446125
 20
529.9497377774
 30
0.0
 40
18.92220634348238
100
AcDbArc
 50
52.3932857047
 51
128.883195224
  0
SPLINE
  5
1D9
330
1F
100
AcDbEntity
  8
0
  6
Continuous
 62
     7
370
    15
100
AcDbSpline
210
0.0
220
0.0
230
1.0
 70
     8
 71
     3
 72
     9
 73
     5
 74
     0
 42
0.00000001
 43
0.00000001
 12
1.0
 22
0.0
 32
0.0
 13
1.0
 23
0.0
 33
0.0
 40
0.0
 40
0.0
 40
0.0
 40
0.0
 40
0.5141575764883132
 40
1.0
 40
1.0
 40
1.0
 40
1.0
 10
394.8504689038632
 20
538.4332556063239
 30
0.0
 10
394.8563055805708
 20
538.3875375044669
 30
0.0
 10
394.8676575025777
 20
538.298619040658
 30
0.0
 10
394.9966337737454
 20
538.2234922462076
 30
0.0
 10
395.059295917905
 20
538.1869924623211
 30
0.0
  0
ARC
  5
1DA
330
1F
100
AcDbEntity
  8
0
  6
Continuous
 62
     7
370
    15
100
AcDbCircle
 10
399.3184757506
 20
537.8976113048
 30
0.0
 40
4.5
100
AcDbArc
 50
90.0
 51
173.16375628
  0
LINE
  5
1DB
330
1F
100
AcDbEntity
  8
0
  6
Continuous
 62
     7
370
    15
100
AcDbLine
 10
428.7184757506
 20
542.3976113048
 30
0.0
 11
399.3184757506
 21
542.3976113048
 31
0.0
  0
ARC
  5
1DC
330
1F
100
AcDbEntity
  8
0
  6
Continuous
 62
     7
370
    15
100
AcDbCircle
 10
428.7184757506
 20
537.8976113048
 30
0.0
 40
4.5
100
AcDbArc
 50
6.83624372
 51
90.0
  0
SPLINE
  5
1DD
330
1F
100
AcDbEntity
  8
0
  6
Continuous
 62
     7
370
    15
100
AcDbSpline
210
0.0
220
0.0
230
1.0
 70
     8
 71
     3
 72
     9
 73
     5
 74
     0
 42
0.00000001
 43
0.00000001
 12
1.0
 22
0.0
 32
0.0
 13
1.0
 23
0.0
 33
0.0
 40
0.0
 40
0.0
 40
0.0
 40
0.0
 40
0.5114713446939282
 40
1.0
 40
1.0
 40
1.0
 40
1.0
 10
432.9776555832496
 20
538.1869924623211
 30
0.0
 10
433.0431839777254
 20
538.225578644413
 30
0.0
 10
433.171301408263
 20
538.3010201769487
 30
0.0
 10
433.1815001968279
 20
538.389856511341
 30
0.0
 10
433.1864825972913
 20
538.4332556063239
 30
0.0
  0
ARC
  5
1DE
330
1F
100
AcDbEntity
  8
0
  6
Continuous
 62
     7
370
    15
100
AcDbCircle
 10
428.7184757506
 20
534.1792996915
 30
0.0
 40
8.499999999999986
100
AcDbArc
 50
21.3894833262
 51
90.0
  0
LINE
  5
1DF
330
1F
100
AcDbEntity
  8
0
  6
Continuous
 62
     7
370
    15
100
AcDbLine
 10
428.7184757506
 20
542.6792996915
 30
0.0
 11
428.7184757506
 21
542.3976113048
 31
0.0
  0
ARC
  5
1E0
330
1F
100
AcDbEntity
  8
0
  6
Continuous
 62
     7
370
    15
100
AcDbCircle
 10
399.3184757506
 20
534.1792996915
 30
0.0
 40
8.499999999999934
100
AcDbArc
 50
90.0
 51
158.6105166738
  0
LINE
  5
1E1
330
1F
100
AcDbEntity
  8
0
  6
Continuous
 62
     7
370
    15
100
AcDbLine
 10
399.3184757506
 20
542.3976113048
 30
0.0
 11
399.3184757506
 21
542.6792996915
 31
0.0
  0
LINE
  5
1E2
330
1F
100
AcDbEntity
  8
0
  6
Continuous
 62
     7
370
    15
100
AcDbLine
 10
399.3184757506
 20
542.6792996915
 30
0.0
 11
428.7184757506
 21
542.6792996915
 31
0.0
  0
ARC
  5
1E3
330
1F
100
AcDbEntity
  8
0
  6
Continuous
 62
     7
370
    15
100
AcDbCircle
 10
414.0184757506
 20
266.8320368851
 30
0.0
 40
276.2386692659615
100
AcDbArc
 50
86.9495726853
 51
93.0504273147
  0
LINE
  5
1E4
330
1F
100
AcDbEntity
  8
0
  6
Continuous
 62
     7
370
    15
100
AcDbLine
 10
421.6184757506
 20
544.6792996903
 30
0.0
 11
406.4184757506
 21
544.6792996915
 31
0.0
  0
ARC
  5
1E5
330
1F
100
AcDbEntity
  8
0
  6
Continuous
 62
     7
370
    15
100
AcDbCircle
 10
421.8184757506
 20
544.6792996915
 30
0.0
 40
0.2000000000000455
100
AcDbArc
 50
359.999999653
 51
180.000000347
  0
ARC
  5
1E6
330
1F
100
AcDbEntity
  8
0
  6
Continuous
 62
     7
370
    15
100
AcDbCircle
 10
429.1184757506
 20
534.1792996915
 30
0.0
 40
8.499999999999986
100
AcDbArc
 50
21.3894833262
 51
90.0
  0
LINE
  5
1E7
330
1F
100
AcDbEntity
  8
0
  6
Continuous
 62
     7
370
    15
100
AcDbLine
 10
429.1184757506
 20
542.6792996915
 30
0.0
 11
428.7184757506
 21
542.6792996915
 31
0.0
  0
LINE
  5
1E8
330
1F
100
AcDbEntity
  8
0
  6
Continuous
 62
     7
370
    15
100
AcDbLine
 10
399.3184757506
 20
542.6792996915
 30
0.0
 11
398.9184757506
 21
542.6792996915
 31
0.0
  0
ARC
  5
1E9
330
1F
100
AcDbEntity
  8
0
  6
Continuous
 62
     7
370
    15
100
AcDbCircle
 10
398.9184757506
 20
534.1792996915
 30
0.0
 40
8.499999999999986
100
AcDbArc
 50
90.0
 51
158.6105166738
  0
LINE
  5
1EA
330
1F
100
AcDbEntity
  8
0
  6
Continuous
 62
     7
370
    15
100
AcDbLine
 10
406.0184757506
 20
544.6792996915
 30
0.0
 11
398.9184757506
 21
544.6792996915
 31
0.0
  0
LINE
  5
1EB
330
1F
100
AcDbEntity
  8
0
  6
Continuous
 62
     7
370
    15
100
AcDbLine
 10
429.1184757506
 20
544.6792996915
 30
0.0
 11
422.0184757506
 21
544.6792996903
 31
0.0
  0
ARC
  5
1EC
330
1F
100
AcDbEntity
  8
0
  6
Continuous
 62
     7
370
    15
100
AcDbCircle
 10
406.2184757506
 20
544.6792996915
 30
0.0
 40
0.1999999999999886
100
AcDbArc
 50
0.0
 51
180.0
  0
ARC
  5
1ED
330
1F
100
AcDbEntity
  8
0
  6
Continuous
 62
     7
370
    15
100
AcDbCircle
 10
429.1184757506
 20
534.1792996915
 30
0.0
 40
10.50000000000004
100
AcDbArc
 50
17.1718151492
 51
90.0
  0
ARC
  5
1EE
330
1F
100
AcDbEntity
  8
0
  6
Continuous
 62
     7
370
    15
100
AcDbCircle
 10
398.9184757506
 20
534.1792996915
 30
0.0
 40
10.50000000000004
100
AcDbArc
 50
90.0
 51
162.8281848508
  0
CIRCLE
  5
1EF
330
1F
100
AcDbEntity
  8
0
  6
Continuous
 62
     7
370
    15
100
AcDbCircle
 10
414.0184757506
 20
327.7792996915
 30
0.0
 40
39.83166013179874
  0
LWPOLYLINE
  5
1F0
330
1F
100
AcDbEntity
  8
0
  6
Continuous
 62
     7
370
    15
100
AcDbPolyline
 90
        3
 70
   128
 43
0.0
 10
377.2241011016
 20
312.4758198849
 10
378.4695483147
 20
309.7710721786
 10
379.312889756
 20
308.1949998375
  0
LWPOLYLINE
  5
1F1
330
1F
100
AcDbEntity
  8
0
  6
Continuous
 62
     7
370
    15
100
AcDbPolyline
 90
        3
 70
   128
 43
0.0
 10
449.0201984155
 20
308.7293151643
 10
450.3724174243
 20
311.4571238321
 10
451.6727138503
 20
314.7339613239
  0
LWPOLYLINE
  5
1F2
330
1F
100
AcDbEntity
  8
0
  6
Continuous
 62
     7
370
    15
100
AcDbPolyline
 90
        3
 70
   128
 43
0.0
 10
450.1973084356
 20
344.4860218581
 10
448.6842446911
 20
347.4339928656
 10
446.8510320899
 20
350.3634920442
  0
LWPOLYLINE
  5
1F3
330
1F
100
AcDbEntity
  8
0
  6
Continuous
 62
     7
370
    15
100
AcDbPolyline
 90
        3
 70
   128
 43
0.0
 10
378.3815085562
 20
345.6126692325
 10
376.9394336927
 20
342.3795442125
 10
375.9552656298
 20
339.5782206296
  0
LWPOLYLINE
  5
1F4
330
1F
100
AcDbEntity
  8
0
  6
Continuous
 62
     7
370
    15
100
AcDbPolyline
 90
        3
 70
   128
 43
0.0
 10
374.3762006566
 20
331.8428603686
 10
374.343577367
 20
331.5109130495
 10
374.1684757506
 20
327.7792996915
  0
CIRCLE
  5
1F5
330
1F
100
AcDbEntity
  8
0
  6
Continuous
 62
     7
370
    15
100
AcDbCircle
 10
414.0184757506
 20
327.7792996915
 30
0.0
 40
34.38729585188361
  0
CIRCLE
  5
1F6
330
1F
100
AcDbEntity
  8
0
  6
Continuous
 62
     7
370
    15
100
AcDbCircle
 10
414.0184757506
 20
327.7792996915
 30
0.0
 40
25.87417202481669
  0
CIRCLE
  5
1F7
330
1F
100
AcDbEntity
  8
0
  6
Continuous
 62
     7
370
    15
100
AcDbCircle
 10
414.0184757506
 20
327.7792996915
 30
0.0
 40
24.0
  0
ARC
  5
1F8
330
1F
100
AcDbEntity
  8
0
  6
Continuous
 62
     7
370
    15
100
AcDbCircle
 10
21.847637173
 20
532.4501382692
 30
0.0
 40
4.829161422393312
100
AcDbArc
 50
90.0
 51
180.0
  0
LINE
  5
1F9
330
1F
100
AcDbEntity
  8
0
  6
Continuous
 62
     7
370
    15
100
AcDbLine
 10
21.847637173
 20
537.2792996915
 30
0.0
 11
21.847637173
 21
535.7792996915
 31
0.0
  0
ARC
  5
1FA
330
1F
100
AcDbEntity
  8
0
  6
Continuous
 62
     7
370
    15
100
AcDbCircle
 10
21.847637173
 20
532.4501382692
 30
0.0
 40
3.329161422393312
100
AcDbArc
 50
90.0
 51
180.0
  0
LINE
  5
1FB
330
1F
100
AcDbEntity
  8
0
  6
Continuous
 62
     7
370
    15
100
AcDbLine
 10
17.0184757506
 20
532.4501382692
 30
0.0
 11
18.5184757506
 21
532.4501382692
 31
0.0
  0
LINE
  5
1FC
330
1F
100
AcDbEntity
  8
0
  6
Continuous
 62
     7
370
    15
100
AcDbLine
 10
21.847637173
 20
537.2792996915
 30
0.0
 11
806.1893143282
 21
537.2792996915
 31
0.0
  0
LINE
  5
1FD
330
1F
100
AcDbEntity
  8
0
  6
Continuous
 62
     7
370
    15
100
AcDbLine
 10
806.1893143282
 20
537.2792996915
 30
0.0
 11
806.1893143282
 21
535.7792996915
 31
0.0
  0
LINE
  5
1FE
330
1F
100
AcDbEntity
  8
0
  6
Continuous
 62
     7
370
    15
100
AcDbLine
 10
806.1893143282
 20
535.7792996915
 30
0.0
 11
21.847637173
 21
535.7792996915
 31
0.0
  0
ARC
  5
1FF
330
1F
100
AcDbEntity
  8
0
  6
Continuous
 62
     7
370
    15
100
AcDbCircle
 10
44.0184757506
 20
510.2792996915
 30
0.0
 40
7.000000000000007
100
AcDbArc
 50
90.0
 51
180.0
  0
LINE
  5
200
330
1F
100
AcDbEntity
  8
0
  6
Continuous
 62
     7
370
    15
100
AcDbLine
 10
37.0184757506
 20
145.2792996915
 30
0.0
 11
37.0184757506
 21
510.2792996915
 31
0.0
  0
ARC
  5
201
330
1F
100
AcDbEntity
  8
0
  6
Continuous
 62
     7
370
    15
100
AcDbCircle
 10
44.0184757506
 20
145.2792996915
 30
0.0
 40
7.000000000000028
100
AcDbArc
 50
180.0
 51
270.0
  0
LINE
  5
202
330
1F
100
AcDbEntity
  8
0
  6
Continuous
 62
     7
370
    15
100
AcDbLine
 10
784.0184757506
 20
138.2792996915
 30
0.0
 11
44.0184757506
 21
138.2792996915
 31
0.0
  0
ARC
  5
203
330
1F
100
AcDbEntity
  8
0
  6
Continuous
 62
     7
370
    15
100
AcDbCircle
 10
784.0184757506
 20
145.2792996915
 30
0.0
 40
7.000000000000028
100
AcDbArc
 50
270.0
 51
0.0
  0
LINE
  5
204
330
1F
100
AcDbEntity
  8
0
  6
Continuous
 62
     7
370
    15
100
AcDbLine
 10
791.0184757506
 20
510.2792996915
 30
0.0
 11
791.0184757506
 21
145.2792996915
 31
0.0
  0
ARC
  5
205
330
1F
100
AcDbEntity
  8
0
  6
Continuous
 62
     7
370
    15
100
AcDbCircle
 10
784.0184757506
 20
510.2792996915
 30
0.0
 40
7.0
100
AcDbArc
 50
0.0
 51
90.0
  0
LINE
  5
206
330
1F
100
AcDbEntity
  8
0
  6
Continuous
 62
     7
370
    15
100
AcDbLine
 10
44.0184757506
 20
517.2792996915
 30
0.0
 11
784.0184757506
 21
517.2792996915
 31
0.0
  0
ARC
  5
207
330
1F
100
AcDbEntity
  8
0
  6
Continuous
 62
     7
370
    15
100
AcDbCircle
 10
806.1893143282
 20
123.1084611139
 30
0.0
 40
3.329161422393327
100
AcDbArc
 50
270.0
 51
0.0
  0
LINE
  5
208
330
1F
100
AcDbEntity
  8
0
  6
Continuous
 62
     7
370
    15
100
AcDbLine
 10
21.847637173
 20
119.7792996915
 30
0.0
 11
806.1893143282
 21
119.7792996915
 31
0.0
  0
ARC
  5
209
330
1F
100
AcDbEntity
  8
0
  6
Continuous
 62
     7
370
    15
100
AcDbCircle
 10
21.847637173
 20
123.1084611139
 30
0.0
 40
3.329161422393312
100
AcDbArc
 50
180.0
 51
270.0
  0
LINE
  5
20A
330
1F
100
AcDbEntity
  8
0
  6
Continuous
 62
     7
370
    15
100
AcDbLine
 10
18.5184757506
 20
532.4501382692
 30
0.0
 11
18.5184757506
 21
123.1084611139
 31
0.0
  0
ARC
  5
20B
330
1F
100
AcDbEntity
  8
0
  6
Continuous
 62
     7
370
    15
100
AcDbCircle
 10
806.1893143282
 20
532.4501382692
 30
0.0
 40
3.329161422393327
100
AcDbArc
 50
0.0
 51
90.0
  0
LINE
  5
20C
330
1F
100
AcDbEntity
  8
0
  6
Continuous
 62
     7
370
    15
100
AcDbLine
 10
809.5184757506
 20
123.1084611139
 30
0.0
 11
809.5184757506
 21
532.4501382692
 31
0.0
  0
LINE
  5
20D
330
1F
100
AcDbEntity
  8
0
  6
Continuous
 62
     7
370
    15
100
AcDbLine
 10
17.0184757506
 20
123.1084611139
 30
0.0
 11
17.0184757506
 21
532.4501382692
 31
0.0
  0
LINE
  5
20E
330
1F
100
AcDbEntity
  8
0
  6
Continuous
 62
     7
370
    15
100
AcDbLine
 10
17.0184757506
 20
123.1084611139
 30
0.0
 11
18.5184757506
 21
123.1084611139
 31
0.0
  0
ARC
  5
20F
330
1F
100
AcDbEntity
  8
0
  6
Continuous
 62
     7
370
    15
100
AcDbCircle
 10
806.1893143282
 20
532.4501382692
 30
0.0
 40
4.829161422393327
100
AcDbArc
 50
0.0
 51
90.0
  0
LINE
  5
210
330
1F
100
AcDbEntity
  8
0
  6
Continuous
 62
     7
370
    15
100
AcDbLine
 10
809.5184757506
 20
532.4501382692
 30
0.0
 11
811.0184757506
 21
532.4501382692
 31
0.0
  0
LINE
  5
211
330
1F
100
AcDbEntity
  8
0
  6
Continuous
 62
     7
370
    15
100
AcDbLine
 10
44.0184757506
 20
517.2792996915
 30
0.0
 11
44.0184757506
 21
512.2792996915
 31
0.0
  0
ARC
  5
212
330
1F
100
AcDbEntity
  8
0
  6
Continuous
 62
     7
370
    15
100
AcDbCircle
 10
44.0184757506
 20
510.2792996915
 30
0.0
 40
2.0
100
AcDbArc
 50
90.0
 51
180.0
  0
LINE
  5
213
330
1F
100
AcDbEntity
  8
0
  6
Continuous
 62
     7
370
    15
100
AcDbLine
 10
37.0184757506
 20
510.2792996915
 30
0.0
 11
42.0184757506
 21
510.2792996915
 31
0.0
  0
LINE
  5
214
330
1F
100
AcDbEntity
  8
0
  6
Continuous
 62
     7
370
    15
100
AcDbLine
 10
784.0184757506
 20
517.2792996915
 30
0.0
 11
784.0184757506
 21
512.2792996915
 31
0.0
  0
LINE
  5
215
330
1F
100
AcDbEntity
  8
0
  6
Continuous
 62
     7
370
    15
100
AcDbLine
 10
784.0184757506
 20
512.2792996915
 30
0.0
 11
44.0184757506
 21
512.2792996915
 31
0.0
  0
LINE
  5
216
330
1F
100
AcDbEntity
  8
0
  6
Continuous
 62
     7
370
    15
100
AcDbLine
 10
811.0184757506
 20
532.4501382692
 30
0.0
 11
811.0184757506
 21
123.1084611139
 31
0.0
  0
LINE
  5
217
330
1F
100
AcDbEntity
  8
0
  6
Continuous
 62
     7
370
    15
100
AcDbLine
 10
809.5184757506
 20
123.1084611139
 30
0.0
 11
811.0184757506
 21
123.1084611139
 31
0.0
  0
LINE
  5
218
330
1F
100
AcDbEntity
  8
0
  6
Continuous
 62
     7
370
    15
100
AcDbLine
 10
42.0184757506
 20
510.2792996915
 30
0.0
 11
42.0184757506
 21
145.2792996915
 31
0.0
  0
LINE
  5
219
330
1F
100
AcDbEntity
  8
0
  6
Continuous
 62
     7
370
    15
100
AcDbLine
 10
37.0184757506
 20
145.2792996915
 30
0.0
 11
42.0184757506
 21
145.2792996915
 31
0.0
  0
ARC
  5
21A
330
1F
100
AcDbEntity
  8
0
  6
Continuous
 62
     7
370
    15
100
AcDbCircle
 10
784.0184757506
 20
510.2792996915
 30
0.0
 40
2.0
100
AcDbArc
 50
0.0
 51
90.0
  0
LINE
  5
21B
330
1F
100
AcDbEntity
  8
0
  6
Continuous
 62
     7
370
    15
100
AcDbLine
 10
786.0184757506
 20
510.2792996915
 30
0.0
 11
791.0184757506
 21
510.2792996915
 31
0.0
  0
LINE
  5
21C
330
1F
100
AcDbEntity
  8
0
  6
Continuous
 62
     7
370
    15
100
AcDbLine
 10
786.0184757506
 20
145.2792996915
 30
0.0
 11
786.0184757506
 21
510.2792996915
 31
0.0
  0
LINE
  5
21D
330
1F
100
AcDbEntity
  8
0
  6
Continuous
 62
     7
370
    15
100
AcDbLine
 10
786.0184757506
 20
145.2792996915
 30
0.0
 11
791.0184757506
 21
145.2792996915
 31
0.0
  0
ARC
  5
21E
330
1F
100
AcDbEntity
  8
0
  6
Continuous
 62
     7
370
    15
100
AcDbCircle
 10
44.0184757506
 20
145.2792996915
 30
0.0
 40
2.000000000000028
100
AcDbArc
 50
180.0
 51
270.0
  0
LINE
  5
21F
330
1F
100
AcDbEntity
  8
0
  6
Continuous
 62
     7
370
    15
100
AcDbLine
 10
44.0184757506
 20
143.2792996915
 30
0.0
 11
44.0184757506
 21
138.2792996915
 31
0.0
  0
LINE
  5
220
330
1F
100
AcDbEntity
  8
0
  6
Continuous
 62
     7
370
    15
100
AcDbLine
 10
44.0184757506
 20
143.2792996915
 30
0.0
 11
784.0184757506
 21
143.2792996915
 31
0.0
  0
LINE
  5
221
330
1F
100
AcDbEntity
  8
0
  6
Continuous
 62
     7
370
    15
100
AcDbLine
 10
784.0184757506
 20
143.2792996915
 30
0.0
 11
784.0184757506
 21
138.2792996915
 31
0.0
  0
ARC
  5
222
330
1F
100
AcDbEntity
  8
0
  6
Continuous
 62
     7
370
    15
100
AcDbCircle
 10
784.0184757506
 20
145.2792996915
 30
0.0
 40
2.0
100
AcDbArc
 50
270.0
 51
0.0
  0
ARC
  5
223
330
1F
100
AcDbEntity
  8
0
  6
Continuous
 62
     7
370
    15
100
AcDbCircle
 10
21.847637173
 20
123.1084611139
 30
0.0
 40
4.829161422393312
100
AcDbArc
 50
180.0
 51
270.0
  0
LINE
  5
224
330
1F
100
AcDbEntity
  8
0
  6
Continuous
 62
     7
370
    15
100
AcDbLine
 10
21.847637173
 20
119.7792996915
 30
0.0
 11
21.847637173
 21
118.2792996915
 31
0.0
  0
LINE
  5
225
330
1F
100
AcDbEntity
  8
0
  6
Continuous
 62
     7
370
    15
100
AcDbLine
 10
806.1893143282
 20
119.7792996915
 30
0.0
 11
806.1893143282
 21
118.2792996915
 31
0.0
  0
LINE
  5
226
330
1F
100
AcDbEntity
  8
0
  6
Continuous
 62
     7
370
    15
100
AcDbLine
 10
806.1893143282
 20
118.2792996915
 30
0.0
 11
21.847637173
 21
118.2792996915
 31
0.0
  0
ARC
  5
227
330
1F
100
AcDbEntity
  8
0
  6
Continuous
 62
     7
370
    15
100
AcDbCircle
 10
806.1893143282
 20
123.1084611139
 30
0.0
 40
4.829161422393327
100
AcDbArc
 50
270.0
 51
0.0
  0
LINE
  5
228
330
1F
100
AcDbEntity
  8
0
  6
Continuous
 62
     7
370
    15
100
AcDbLine
 10
44.0184757506
 20
510.2792996915
 30
0.0
 11
44.0184757506
 21
512.2792996915
 31
0.0
  0
LINE
  5
229
330
1F
100
AcDbEntity
  8
0
  6
Continuous
 62
     7
370
    15
100
AcDbLine
 10
42.0184757506
 20
510.2792996915
 30
0.0
 11
44.0184757506
 21
510.2792996915
 31
0.0
  0
LINE
  5
22A
330
1F
100
AcDbEntity
  8
0
  6
Continuous
 62
     7
370
    15
100
AcDbLine
 10
784.0184757506
 20
510.2792996915
 30
0.0
 11
44.0184757506
 21
510.2792996915
 31
0.0
  0
LINE
  5
22B
330
1F
100
AcDbEntity
  8
0
  6
Continuous
 62
     7
370
    15
100
AcDbLine
 10
784.0184757506
 20
510.2792996915
 30
0.0
 11
784.0184757506
 21
512.2792996915
 31
0.0
  0
LINE
  5
22C
330
1F
100
AcDbEntity
  8
0
  6
Continuous
 62
     7
370
    15
100
AcDbLine
 10
44.0184757506
 20
510.2792996915
 30
0.0
 11
44.0184757506
 21
145.2792996915
 31
0.0
  0
LINE
  5
22D
330
1F
100
AcDbEntity
  8
0
  6
Continuous
 62
     7
370
    15
100
AcDbLine
 10
42.0184757506
 20
145.2792996915
 30
0.0
 11
44.0184757506
 21
145.2792996915
 31
0.0
  0
LINE
  5
22E
330
1F
100
AcDbEntity
  8
0
  6
Continuous
 62
     7
370
    15
100
AcDbLine
 10
784.0184757506
 20
510.2792996915
 30
0.0
 11
786.0184757506
 21
510.2792996915
 31
0.0
  0
LINE
  5
22F
330
1F
100
AcDbEntity
  8
0
  6
Continuous
 62
     7
370
    15
100
AcDbLine
 10
784.0184757506
 20
145.2792996915
 30
0.0
 11
784.0184757506
 21
510.2792996915
 31
0.0
  0
LINE
  5
230
330
1F
100
AcDbEntity
  8
0
  6
Continuous
 62
     7
370
    15
100
AcDbLine
 10
784.0184757506
 20
145.2792996915
 30
0.0
 11
786.0184757506
 21
145.2792996915
 31
0.0
  0
LINE
  5
231
330
1F
100
AcDbEntity
  8
0
  6
Continuous
 62
     7
370
    15
100
AcDbLine
 10
44.0184757506
 20
143.2792996915
 30
0.0
 11
44.0184757506
 21
145.2792996915
 31
0.0
  0
LINE
  5
232
330
1F
100
AcDbEntity
  8
0
  6
Continuous
 62
     7
370
    15
100
AcDbLine
 10
44.0184757506
 20
145.2792996915
 30
0.0
 11
784.0184757506
 21
145.2792996915
 31
0.0
  0
LINE
  5
233
330
1F
100
AcDbEntity
  8
0
  6
Continuous
 62
     7
370
    15
100
AcDbLine
 10
784.0184757506
 20
143.2792996915
 30
0.0
 11
784.0184757506
 21
145.2792996915
 31
0.0
  0
LWPOLYLINE
  5
234
330
1F
100
AcDbEntity
  8
0
  6
Continuous
 62
     7
370
    15
100
AcDbPolyline
 90
        5
 70
   128
 43
0.0
 10
47.0365913305
 20
507.2607803296
 10
231.4427253104
 20
507.2588445826
 10
415.8488592992
 20
507.2578186352
 10
598.424609735
 20
507.2588624936
 10
781.0003601707
 20
507.2607803296
  0
LINE
  5
235
330
1F
100
AcDbEntity
  8
0
  6
Continuous
 62
     7
370
    15
100
AcDbLine
 10
47.0184757506
 20
148.2792996915
 30
0.0
 11
47.0184757506
 21
507.2792996915
 31
0.0
  0
LWPOLYLINE
  5
236
330
1F
100
AcDbEntity
  8
0
  6
Continuous
 62
     7
370
    15
100
AcDbPolyline
 90
        5
 70
   128
 43
0.0
 10
781.0003601707
 20
148.2978190535
 10
596.5942261908
 20
148.2997548005
 10
412.188092202
 20
148.3007807479
 10
229.6123417662
 20
148.2997368895
 10
47.0365913305
 20
148.2978190535
  0
LINE
  5
237
330
1F
100
AcDbEntity
  8
0
  6
Continuous
 62
     7
370
    15
100
AcDbLine
 10
781.0184757506
 20
507.2792996915
 30
0.0
 11
781.0184757506
 21
148.2792996915
 31
0.0
  0
LWPOLYLINE
  5
238
330
1F
100
AcDbEntity
  8
0
  6
Continuous
 62
     7
370
    15
100
AcDbPolyline
 90
        5
 70
   128
 43
0.0
 10
781.0003602151
 20
507.2563503984
 10
615.6028778018
 20
426.3632308493
 10
532.9033827435
 20
385.918212431
 10
450.2021635761
 20
345.4767193693
 10
449.816099045
 20
345.287944624
  0
SPLINE
  5
239
330
1F
100
AcDbEntity
  8
0
  6
Continuous
 62
     7
370
    15
100
AcDbSpline
210
0.0
220
0.0
230
1.0
 70
     8
 71
     3
 72
    23
 73
    19
 74
     0
 42
0.00000001
 43
0.00000001
 12
1.0
 22
0.0
 32
0.0
 13
1.0
 23
0.0
 33
0.0
 40
0.0
 40
0.0
 40
0.0
 40
0.0
 40
0.0625000000000001
 40
0.1249999999999999
 40
0.1874999999999998
 40
0.2500000000000001
 40
0.3124999999999998
 40
0.3750000000000001
 40
0.4375
 40
0.4999999999999999
 40
0.5625000000000002
 40
0.6250000000000001
 40
0.6874999999999999
 40
0.7500000000000001
 40
0.8125
 40
0.8749999999999999
 40
0.9375000000000001
 40
1.0
 40
1.0
 40
1.0
 40
1.0
 10
378.2208515307995
 20
345.2879432774883
 30
0.0
 10
379.1020640243857
 20
346.9195555270557
 30
0.0
 10
380.8644890115581
 20
350.1827800261906
 30
0.0
 10
384.3384853596764
 20
354.5512860594407
 30
0.0
 10
388.339102438805
 20
358.4241532966238
 30
0.0
 10
392.8519305616927
 20
361.6951874478527
 30
0.0
 10
397.772343851537
 20
364.3091435357231
 30
0.0
 10
403.0093056562509
 20
366.2130210932245
 30
0.0
 10
408.4598694905991
 20
367.3704329135991
 30
0.0
 10
414.0184757505772
 20
367.7587330805187
 30
0.0
 10
419.5770820105554
 20
367.3704329135991
 30
0.0
 10
425.0276458449036
 20
366.2130210932245
 30
0.0
 10
430.2646076496176
 20
364.3091435357231
 30
0.0
 10
435.1850209394619
 20
361.6951874478527
 30
0.0
 10
439.6978490623495
 20
358.4241532966238
 30
0.0
 10
443.6984661414781
 20
354.5512860594407
 30
0.0
 10
447.1724624895965
 20
350.1827800261906
 30
0.0
 10
448.9348874767688
 20
346.9195555270557
 30
0.0
 10
449.8160999703551
 20
345.2879432774883
 30
0.0
  0
LWPOLYLINE
  5
23A
330
1F
100
AcDbEntity
  8
0
  6
Continuous
 62
     7
370
    15
100
AcDbPolyline
 90
        5
 70
   128
 43
0.0
 10
47.0365912861
 20
507.2563503984
 10
212.4340736994
 20
426.3632308493
 10
295.1335687577
 20
385.918212431
 10
377.8347879251
 20
345.4767193693
 10
378.2208524561
 20
345.287944624
  0
SPLINE
  5
23B
330
1F
100
AcDbEntity
  8
0
  6
Continuous
 62
     7
370
    15
100
AcDbSpline
210
0.0
220
0.0
230
1.0
 70
     8
 71
     3
 72
    15
 73
    11
 74
     0
 42
0.00000001
 43
0.00000001
 12
1.0
 22
0.0
 32
0.0
 13
1.0
 23
0.0
 33
0.0
 40
0.0
 40
0.0
 40
0.0
 40
0.0
 40
0.1250000000000001
 40
0.2500000000000002
 40
0.3749999999999998
 40
0.5
 40
0.6250000000000001
 40
0.7499999999999997
 40
0.8749999999999999
 40
1.0
 40
1.0
 40
1.0
 40
1.0
 10
378.2208515307995
 20
310.2706561056027
 30
0.0
 10
377.6017373304985
 20
311.6494674294598
 30
0.0
 10
376.3635089298966
 20
314.407090077174
 30
0.0
 10
375.1165864328518
 20
318.7768653175806
 30
0.0
 10
374.3388592732053
 20
323.2467854101109
 30
0.0
 10
374.0832839892633
 20
327.7792996915455
 30
0.0
 10
374.3388592732053
 20
332.3118139729801
 30
0.0
 10
375.1165864328518
 20
336.7817340655103
 30
0.0
 10
376.3635089298966
 20
341.1515093059169
 30
0.0
 10
377.6017373304985
 20
343.9091319536312
 30
0.0
 10
378.2208515307995
 20
345.2879432774883
 30
0.0
  0
LWPOLYLINE
  5
23C
330
1F
100
AcDbEntity
  8
0
  6
Continuous
 62
     7
370
    15
100
AcDbPolyline
 90
        5
 70
   128
 43
0.0
 10
47.0365912861
 20
148.3022489847
 10
212.4340736994
 20
229.1953685338
 10
295.1335687577
 20
269.6403869521
 10
377.834787925
 20
310.0818800138
 10
378.2208524561
 20
310.2706547591
  0
LWPOLYLINE
  5
23D
330
1F
100
AcDbEntity
  8
0
  6
Continuous
 62
     7
370
    15
100
AcDbPolyline
 90
        5
 70
   128
 43
0.0
 10
449.816099045
 20
310.2706547591
 10
450.2021635761
 20
310.0818800138
 10
615.6028774871
 20
229.1953686877
 10
698.3017541193
 20
188.7490854335
 10
781.0003602151
 20
148.3022489847
  0
SPLINE
  5
23E
330
1F
100
AcDbEntity
  8
0
  6
Continuous
 62
     7
370
    15
100
AcDbSpline
210
0.0
220
0.0
230
1.0
 70
     8
 71
     3
 72
    15
 73
    11
 74
     0
 42
0.00000001
 43
0.00000001
 12
1.0
 22
0.0
 32
0.0
 13
1.0
 23
0.0
 33
0.0
 40
0.0
 40
0.0
 40
0.0
 40
0.0
 40
0.125
 40
0.25
 40
0.375
 40
0.5
 40
0.6250000000000001
 40
0.75
 40
0.875
 40
1.0
 40
1.0
 40
1.0
 40
1.0
 10
449.8160999703551
 20
345.2879432774883
 30
0.0
 10
450.435214170656
 20
343.9091319536312
 30
0.0
 10
451.673442571258
 20
341.1515093059169
 30
0.0
 10
452.9203650683028
 20
336.7817340655103
 30
0.0
 10
453.6980922279492
 20
332.3118139729801
 30
0.0
 10
453.9536675118912
 20
327.7792996915455
 30
0.0
 10
453.6980922279492
 20
323.2467854101109
 30
0.0
 10
452.9203650683028
 20
318.7768653175806
 30
0.0
 10
451.673442571258
 20
314.407090077174
 30
0.0
 10
450.435214170656
 20
311.6494674294598
 30
0.0
 10
449.8160999703551
 20
310.2706561056027
 30
0.0
  0
SPLINE
  5
23F
330
1F
100
AcDbEntity
  8
0
  6
Continuous
 62
     7
370
    15
100
AcDbSpline
210
0.0
220
0.0
230
1.0
 70
     8
 71
     3
 72
    21
 73
    17
 74
     0
 42
0.00000001
 43
0.00000001
 12
1.0
 22
0.0
 32
0.0
 13
1.0
 23
0.0
 33
0.0
 40
0.0
 40
0.0
 40
0.0
 40
0.0
 40
0.0744837334053018
 40
0.1511277102282246
 40
0.2256116303540643
 40
0.3022564390306361
 40
0.3767165192882292
 40
0.4533306010003126
 40
0.5278728952945784
 40
0.6045727597206381
 40
0.6791785671357435
 40
0.7559532402574602
 40
0.8304770102279232
 40
0.9071658553650813
 40
0.9533336718040393
 40
1.0
 40
1.0
 40
1.0
 40
1.0
 10
378.22816156673
 20
310.2742296090086
 30
0.0
 10
379.2939281415028
 20
308.3383292835475
 30
0.0
 10
381.456371600221
 20
304.4103819312713
 30
0.0
 10
385.873228499783
 20
299.3354742398107
 30
0.0
 10
391.0593390529576
 20
294.9896491881528
 30
0.0
 10
396.8656753853409
 20
291.6196535448242
 30
0.0
 10
403.2071869932842
 20
289.2475155242113
 30
0.0
 10
409.7991425292697
 20
287.9845565744226
 30
0.0
 10
416.5731749983658
 20
287.8431093919555
 30
0.0
 10
423.218560369933
 20
288.8316944660917
 30
0.0
 10
429.6644806363373
 20
290.9417467115604
 30
0.0
 10
435.6081376218374
 20
294.0771518733603
 30
0.0
 10
440.9908377056088
 20
298.2005911779404
 30
0.0
 10
444.9743986461175
 20
302.5124343678087
 30
0.0
 10
447.8809436566095
 20
306.6180020975125
 30
0.0
 10
449.1638780908572
 20
309.0511318692796
 30
0.0
 10
449.8087899344246
 20
310.2742296090085
 30
0.0
  0
LINE
  5
240
330
1F
100
AcDbEntity
  8
0
  6
Continuous
 62
     8
370
    15
100
AcDbLine
 10
431.0879912551
 20
537.2792996915
 30
0.0
 11
432.9776555832
 21
538.1869924623
 31
0.0
  0
LINE
  5
241
330
1F
100
AcDbEntity
  8
0
  6
Continuous
 62
     8
370
    15
100
AcDbLine
 10
395.0592959179
 20
538.1869924623
 30
0.0
 11
396.948960246
 21
537.2792996915
 31
0.0
  0
ARC
  5
242
330
1F
100
AcDbEntity
  8
0
  6
Continuous
 62
     8
370
    15
100
AcDbCircle
 10
396.2089010028
 20
534.4610245789
 30
0.0
 40
3.899285642233282
100
AcDbArc
 50
107.1470161558
 51
133.7165931484
  0
ARC
  5
243
330
1F
100
AcDbEntity
  8
0
  6
Continuous
 62
     8
370
    15
100
AcDbCircle
 10
431.8280504984
 20
534.4610245789
 30
0.0
 40
3.899285642231903
100
AcDbArc
 50
46.2834068516
 51
72.8529838442
  0
ARC
  5
244
330
1F
100
AcDbEntity
  8
0
  6
Continuous
 62
     8
370
    15
100
AcDbCircle
 10
394.7420920355
 20
534.3824840696
 30
0.0
 40
4.052221068556857
100
AcDbArc
 50
88.4674385804
 51
134.3673659038
  0
ARC
  5
245
330
1F
100
AcDbEntity
  8
0
  6
Continuous
 62
     8
370
    15
100
AcDbCircle
 10
433.2891290701
 20
534.3678748863
 30
0.0
 40
4.066676369870319
100
AcDbArc
 50
45.7188462601
 51
91.4463492557
  0
LINE
  5
246
330
1F
100
AcDbEntity
  8
0
  6
Continuous
 62
     8
370
    15
100
AcDbLine
 10
408.7184757506
 20
544.8792996915
 30
0.0
 11
408.7184757506
 21
544.6792996915
 31
0.0
  0
LINE
  5
247
330
1F
100
AcDbEntity
  8
0
  6
Continuous
 62
     8
370
    15
100
AcDbLine
 10
419.3184757506
 20
544.8792996915
 30
0.0
 11
419.3184757506
 21
544.6792996903
 31
0.0
  0
LINE
  5
248
330
1F
100
AcDbEntity
  8
0
  6
Continuous
 62
     8
370
    15
100
AcDbLine
 10
429.1184757506
 20
542.6792996915
 30
0.0
 11
429.1184757506
 21
542.6698827104
 31
0.0
  0
LINE
  5
249
330
1F
100
AcDbEntity
  8
0
  6
Continuous
 62
     8
370
    15
100
AcDbLine
 10
398.9184757506
 20
542.6792996915
 30
0.0
 11
398.9184757506
 21
542.6698827104
 31
0.0
  0
ENDSEC
  0
SECTION
  2
OBJECTS
  0
DICTIONARY
  5
C
330
0
100
AcDbDictionary
281
     1
  3
ACAD_GROUP
350
D
  3
ACAD_LAYOUT
350
1A
  3
ACAD_MLINESTYLE
350
17
  3
ACAD_PLOTSETTINGS
350
19
  3
ACAD_PLOTSTYLENAME
350
E
  0
DICTIONARY
  5
D
102
{ACAD_REACTORS
330
C
102
}
330
C
100
AcDbDictionary
281
     1
  0
DICTIONARY
  5
1A
102
{ACAD_REACTORS
330
C
102
}
330
C
100
AcDbDictionary
281
     1
  3
Layout1
350
1E
  3
Layout2
350
26
  3
Model
350
22
  0
DICTIONARY
  5
17
102
{ACAD_REACTORS
330
C
102
}
330
C
100
AcDbDictionary
281
     1
  3
Standard
350
18
  0
DICTIONARY
  5
19
102
{ACAD_REACTORS
330
C
102
}
330
C
100
AcDbDictionary
281
     1
  0
ACDBDICTIONARYWDFLT
  5
E
102
{ACAD_REACTORS
330
C
102
}
330
C
100
AcDbDictionary
281
     1
  3
Normal
350
F
100
AcDbDictionaryWithDefault
340
F
  0
LAYOUT
  5
1E
102
{ACAD_REACTORS
330
1A
102
}
330
1A
100
AcDbPlotSettings
  1

  2
none_device
  4

  6

 40
0.0
 41
0.0
 42
0.0
 43
0.0
 44
0.0
 45
0.0
 46
0.0
 47
0.0
 48
0.0
 49
0.0
140
0.0
141
0.0
142
1.0
143
1.0
 70
   688
 72
     0
 73
     0
 74
     5
  7

 75
    16
147
1.0
148
0.0
149
0.0
100
AcDbLayout
  1
Layout1
 70
     1
 71
     1
 10
0.0
 20
0.0
 11
420.0
 21
297.0
 12
0.0
 22
0.0
 32
0.0
 14
1.0000000000E+20
 24
1.0000000000E+20
 34
1.0000000000E+20
 15
-1.0000000000E+20
 25
-1.0000000000E+20
 35
-1.0000000000E+20
146
0.0
 13
0.0
 23
0.0
 33
0.0
 16
1.0
 26
0.0
 36
0.0
 17
0.0
 27
1.0
 37
0.0
 76
     0
330
1B
  0
LAYOUT
  5
26
102
{ACAD_REACTORS
330
1A
102
}
330
1A
100
AcDbPlotSettings
  1

  2
none_device
  4

  6

 40
0.0
 41
0.0
 42
0.0
 43
0.0
 44
0.0
 45
0.0
 46
0.0
 47
0.0
 48
0.0
 49
0.0
140
0.0
141
0.0
142
1.0
143
1.0
 70
   688
 72
     0
 73
     0
 74
     5
  7

 75
    16
147
1.0
148
0.0
149
0.0
100
AcDbLayout
  1
Layout2
 70
     1
 71
     2
 10
0.0
 20
0.0
 11
0.0
 21
0.0
 12
0.0
 22
0.0
 32
0.0
 14
0.0
 24
0.0
 34
0.0
 15
0.0
 25
0.0
 35
0.0
146
0.0
 13
0.0
 23
0.0
 33
0.0
 16
1.0
 26
0.0
 36
0.0
 17
0.0
 27
1.0
 37
0.0
 76
     0
330
23
  0
LAYOUT
  5
22
102
{ACAD_REACTORS
330
1A
102
}
330
1A
100
AcDbPlotSettings
  1

  2
none_device
  4

  6

 40
0.0
 41
0.0
 42
0.0
 43
0.0
 44
0.0
 45
0.0
 46
0.0
 47
0.0
 48
0.0
 49
0.0
140
0.0
141
0.0
142
1.0
143
1.0
 70
  1712
 72
     0
 73
     0
 74
     0
  7

 75
     0
147
1.0
148
0.0
149
0.0
100
AcDbLayout
  1
Model
 70
     1
 71
     0
 10
0.0
 20
0.0
 11
1300.0
 21
1000.0
 12
0.0
 22
0.0
 32
0.0
 14
0.0
 24
0.0
 34
0.0
 15
1300.0
 25
1000.0
 35
0.0
146
0.0
 13
0.0
 23
0.0
 33
0.0
 16
1.0
 26
0.0
 36
0.0
 17
0.0
 27
1.0
 37
0.0
 76
     0
330
1F
331
29
  0
MLINESTYLE
  5
18
102
{ACAD_REACTORS
330
17
102
}
330
17
100
AcDbMlineStyle
  2
Standard
 70
     0
  3

 62
   256
 51
90.0
 52
90.0
 71
     2
 49
0.5
 62
   256
  6
BYLAYER
 49
-0.5
 62
   256
  6
BYLAYER
  0
ACDBPLACEHOLDER
  5
F
102
{ACAD_REACTORS
330
E
102
}
330
E
  0
ENDSEC
  0
EOF
