  0
SECTION
  2
HEADER
  9
$ACADVER
  1
AC1027
  9
$ACADMAINTVER
 70
   125
  9
$DWGCODEPAGE
  3
ANSI_1252
  9
$LASTSAVEDBY
  1
fleminab
  9
$REQUIREDVERSIONS
160
                 0
  9
$INSBASE
 10
0.0
 20
0.0
 30
0.0
  9
$EXTMIN
 10
282.5775219623201
 20
145.4315292013707
 30
-0.0015258207003583
  9
$EXTMAX
 10
843.5668990057502
 20
1011.978155830849
 30
0.0000000349246037
  9
$LIMMIN
 10
0.0
 20
0.0
  9
$LIMMAX
 10
3000.0
 20
4500.0
  9
$ORTHOMODE
 70
     0
  9
$REGENMODE
 70
     1
  9
$FILLMODE
 70
     1
  9
$QTEXTMODE
 70
     0
  9
$MIRRTEXT
 70
     1
  9
$LTSCALE
 40
1.0
  9
$ATTMODE
 70
     1
  9
$TEXTSIZE
 40
10.0
  9
$TRACEWID
 40
1.0
  9
$TEXTSTYLE
  7
Standard
  9
$CLAYER
  8
0
  9
$CELTYPE
  6
ByLayer
  9
$CECOLOR
 62
   256
  9
$CELTSCALE
 40
1.0
  9
$DISPSILH
 70
     0
  9
$DIMSCALE
 40
1.0
  9
$DIMASZ
 40
2.5
  9
$DIMEXO
 40
0.625
  9
$DIMDLI
 40
3.75
  9
$DIMRND
 40
0.0
  9
$DIMDLE
 40
0.0
  9
$DIMEXE
 40
1.25
  9
$DIMTP
 40
0.0
  9
$DIMTM
 40
0.0
  9
$DIMTXT
 40
2.5
  9
$DIMCEN
 40
2.5
  9
$DIMTSZ
 40
0.0
  9
$DIMTOL
 70
     0
  9
$DIMLIM
 70
     0
  9
$DIMTIH
 70
     0
  9
$DIMTOH
 70
     0
  9
$DIMSE1
 70
     0
  9
$DIMSE2
 70
     0
  9
$DIMTAD
 70
     1
  9
$DIMZIN
 70
     8
  9
$DIMBLK
  1

  9
$DIMASO
 70
     1
  9
$DIMSHO
 70
     1
  9
$DIMPOST
  1

  9
$DIMAPOST
  1

  9
$DIMALT
 70
     0
  9
$DIMALTD
 70
     3
  9
$DIMALTF
 40
0.03937007874016
  9
$DIMLFAC
 40
1.0
  9
$DIMTOFL
 70
     1
  9
$DIMTVP
 40
0.0
  9
$DIMTIX
 70
     0
  9
$DIMSOXD
 70
     0
  9
$DIMSAH
 70
     0
  9
$DIMBLK1
  1

  9
$DIMBLK2
  1

  9
$DIMSTYLE
  2
ISO-25
  9
$DIMCLRD
 70
     0
  9
$DIMCLRE
 70
     0
  9
$DIMCLRT
 70
     0
  9
$DIMTFAC
 40
1.0
  9
$DIMGAP
 40
0.625
  9
$DIMJUST
 70
     0
  9
$DIMSD1
 70
     0
  9
$DIMSD2
 70
     0
  9
$DIMTOLJ
 70
     0
  9
$DIMTZIN
 70
     8
  9
$DIMALTZ
 70
     0
  9
$DIMALTTZ
 70
     0
  9
$DIMUPT
 70
     0
  9
$DIMDEC
 70
     2
  9
$DIMTDEC
 70
     2
  9
$DIMALTU
 70
     2
  9
$DIMALTTD
 70
     3
  9
$DIMTXSTY
  7
Standard
  9
$DIMAUNIT
 70
     0
  9
$DIMADEC
 70
     0
  9
$DIMALTRND
 40
0.0
  9
$DIMAZIN
 70
     0
  9
$DIMDSEP
 70
    44
  9
$DIMATFIT
 70
     3
  9
$DIMFRAC
 70
     0
  9
$DIMLDRBLK
  1

  9
$DIMLUNIT
 70
     2
  9
$DIMLWD
 70
    -2
  9
$DIMLWE
 70
    -2
  9
$DIMTMOVE
 70
     0
  9
$DIMFXL
 40
1.0
  9
$DIMFXLON
 70
     0
  9
$DIMJOGANG
 40
0.7853981633974483
  9
$DIMTFILL
 70
     0
  9
$DIMTFILLCLR
 70
     0
  9
$DIMARCSYM
 70
     0
  9
$DIMLTYPE
  6

  9
$DIMLTEX1
  6

  9
$DIMLTEX2
  6

  9
$DIMTXTDIRECTION
 70
     0
  9
$LUNITS
 70
     2
  9
$LUPREC
 70
     4
  9
$SKETCHINC
 40
1.0
  9
$FILLETRAD
 40
10.0
  9
$AUNITS
 70
     0
  9
$AUPREC
 70
     0
  9
$MENU
  1
.
  9
$ELEVATION
 40
0.0
  9
$PELEVATION
 40
0.0
  9
$THICKNESS
 40
0.0
  9
$LIMCHECK
 70
     0
  9
$CHAMFERA
 40
0.0
  9
$CHAMFERB
 40
0.0
  9
$CHAMFERC
 40
0.0
  9
$CHAMFERD
 40
0.0
  9
$SKPOLY
 70
     0
  9
$TDCREATE
 40
2457605.815405093
  9
$TDUCREATE
 40
2457605.398743600
  9
$TDUPDATE
 40
2458022.564791667
  9
$TDUUPDATE
 40
2458022.148125000
  9
$TDINDWG
 40
0.0003935301
  9
$TDUSRTIMER
 40
0.0003935301
  9
$USRTIMER
 70
     1
  9
$ANGBASE
 50
0.0
  9
$ANGDIR
 70
     0
  9
$PDMODE
 70
     0
  9
$PDSIZE
 40
0.0
  9
$PLINEWID
 40
0.0
  9
$SPLFRAME
 70
     0
  9
$SPLINETYPE
 70
     6
  9
$SPLINESEGS
 70
     8
  9
$HANDSEED
  5
329
  9
$SURFTAB1
 70
     6
  9
$SURFTAB2
 70
     6
  9
$SURFTYPE
 70
     6
  9
$SURFU
 70
     6
  9
$SURFV
 70
     6
  9
$UCSBASE
  2

  9
$UCSNAME
  2

  9
$UCSORG
 10
0.0
 20
0.0
 30
0.0
  9
$UCSXDIR
 10
1.0
 20
0.0
 30
0.0
  9
$UCSYDIR
 10
0.0
 20
1.0
 30
0.0
  9
$UCSORTHOREF
  2

  9
$UCSORTHOVIEW
 70
     0
  9
$UCSORGTOP
 10
0.0
 20
0.0
 30
0.0
  9
$UCSORGBOTTOM
 10
0.0
 20
0.0
 30
0.0
  9
$UCSORGLEFT
 10
0.0
 20
0.0
 30
0.0
  9
$UCSORGRIGHT
 10
0.0
 20
0.0
 30
0.0
  9
$UCSORGFRONT
 10
0.0
 20
0.0
 30
0.0
  9
$UCSORGBACK
 10
0.0
 20
0.0
 30
0.0
  9
$PUCSBASE
  2

  9
$PUCSNAME
  2

  9
$PUCSORG
 10
0.0
 20
0.0
 30
0.0
  9
$PUCSXDIR
 10
1.0
 20
0.0
 30
0.0
  9
$PUCSYDIR
 10
0.0
 20
1.0
 30
0.0
  9
$PUCSORTHOREF
  2

  9
$PUCSORTHOVIEW
 70
     0
  9
$PUCSORGTOP
 10
0.0
 20
0.0
 30
0.0
  9
$PUCSORGBOTTOM
 10
0.0
 20
0.0
 30
0.0
  9
$PUCSORGLEFT
 10
0.0
 20
0.0
 30
0.0
  9
$PUCSORGRIGHT
 10
0.0
 20
0.0
 30
0.0
  9
$PUCSORGFRONT
 10
0.0
 20
0.0
 30
0.0
  9
$PUCSORGBACK
 10
0.0
 20
0.0
 30
0.0
  9
$USERI1
 70
     0
  9
$USERI2
 70
     0
  9
$USERI3
 70
     0
  9
$USERI4
 70
     0
  9
$USERI5
 70
     0
  9
$USERR1
 40
0.0
  9
$USERR2
 40
0.0
  9
$USERR3
 40
0.0
  9
$USERR4
 40
0.0
  9
$USERR5
 40
0.0
  9
$WORLDVIEW
 70
     1
  9
$SHADEDGE
 70
     3
  9
$SHADEDIF
 70
    70
  9
$TILEMODE
 70
     1
  9
$MAXACTVP
 70
    64
  9
$PINSBASE
 10
0.0
 20
0.0
 30
0.0
  9
$PLIMCHECK
 70
     0
  9
$PEXTMIN
 10
0.0
 20
0.0
 30
0.0
  9
$PEXTMAX
 10
3000.0
 20
4500.0
 30
0.0
  9
$PLIMMIN
 10
0.0
 20
0.0
  9
$PLIMMAX
 10
3000.0
 20
4500.0
  9
$UNITMODE
 70
     0
  9
$VISRETAIN
 70
     1
  9
$PLINEGEN
 70
     0
  9
$PSLTSCALE
 70
     1
  9
$TREEDEPTH
 70
  3020
  9
$CMLSTYLE
  2
Standard
  9
$CMLJUST
 70
     0
  9
$CMLSCALE
 40
20.0
  9
$PROXYGRAPHICS
 70
     1
  9
$MEASUREMENT
 70
     1
  9
$CELWEIGHT
370
    -1
  9
$ENDCAPS
280
     0
  9
$JOINSTYLE
280
     0
  9
$LWDISPLAY
290
     0
  9
$INSUNITS
 70
     4
  9
$HYPERLINKBASE
  1

  9
$STYLESHEET
  1

  9
$XEDIT
290
     1
  9
$CEPSNTYPE
380
     0
  9
$PSTYLEMODE
290
     1
  9
$FINGERPRINTGUID
  2
{7AA8573F-8636-44BF-BE8B-8B89ED722E8F}
  9
$VERSIONGUID
  2
{173CDC0B-350B-8341-B953-2FAC55EC457D}
  9
$EXTNAMES
290
     1
  9
$PSVPSCALE
 40
0.0
  9
$OLESTARTUP
290
     0
  9
$SORTENTS
280
   127
  9
$INDEXCTL
280
     0
  9
$HIDETEXT
280
     1
  9
$XCLIPFRAME
280
     2
  9
$HALOGAP
280
     0
  9
$OBSCOLOR
 70
   257
  9
$OBSLTYPE
280
     0
  9
$INTERSECTIONDISPLAY
280
     0
  9
$INTERSECTIONCOLOR
 70
   257
  9
$DIMASSOC
280
     2
  9
$PROJECTNAME
  1

  9
$CAMERADISPLAY
290
     0
  9
$LENSLENGTH
 40
50.0
  9
$CAMERAHEIGHT
 40
0.0
  9
$STEPSPERSEC
 40
2.0
  9
$STEPSIZE
 40
6.0
  9
$3DDWFPREC
 40
2.0
  9
$PSOLWIDTH
 40
5.0
  9
$PSOLHEIGHT
 40
80.0
  9
$LOFTANG1
 40
1.570796326794896
  9
$LOFTANG2
 40
1.570796326794896
  9
$LOFTMAG1
 40
0.0
  9
$LOFTMAG2
 40
0.0
  9
$LOFTPARAM
 70
     7
  9
$LOFTNORMALS
280
     1
  9
$LATITUDE
 40
37.795
  9
$LONGITUDE
 40
-122.394
  9
$NORTHDIRECTION
 40
0.0
  9
$TIMEZONE
 70
 -8000
  9
$LIGHTGLYPHDISPLAY
280
     1
  9
$TILEMODELIGHTSYNCH
280
     1
  9
$CMATERIAL
347
44
  9
$SOLIDHIST
280
     0
  9
$SHOWHIST
280
     1
  9
$DWFFRAME
280
     2
  9
$DGNFRAME
280
     0
  9
$REALWORLDSCALE
290
     1
  9
$INTERFERECOLOR
 62
     1
  9
$INTERFEREOBJVS
345
33
  9
$INTERFEREVPVS
346
30
  9
$CSHADOW
280
     0
  9
$SHADOWPLANELOCATION
 40
0.0
  0
ENDSEC
  0
SECTION
  2
CLASSES
  0
CLASS
  1
ACDBDICTIONARYWDFLT
  2
AcDbDictionaryWithDefault
  3
ObjectDBX Classes
 90
        0
 91
        1
280
     0
281
     0
  0
CLASS
  1
VISUALSTYLE
  2
AcDbVisualStyle
  3
ObjectDBX Classes
 90
     4095
 91
       24
280
     0
281
     0
  0
CLASS
  1
MATERIAL
  2
AcDbMaterial
  3
ObjectDBX Classes
 90
     1153
 91
        3
280
     0
281
     0
  0
CLASS
  1
SCALE
  2
AcDbScale
  3
ObjectDBX Classes
 90
     1153
 91
       33
280
     0
281
     0
  0
CLASS
  1
SUN
  2
AcDbSun
  3
SCENEOE
 90
     1153
 91
        1
280
     0
281
     0
  0
CLASS
  1
DICTIONARYVAR
  2
AcDbDictionaryVar
  3
ObjectDBX Classes
 90
        0
 91
       20
280
     0
281
     0
  0
CLASS
  1
TABLESTYLE
  2
AcDbTableStyle
  3
ObjectDBX Classes
 90
     4095
 91
        1
280
     0
281
     0
  0
CLASS
  1
MLEADERSTYLE
  2
AcDbMLeaderStyle
  3
ACDB_MLEADERSTYLE_CLASS
 90
     4095
 91
        1
280
     0
281
     0
  0
CLASS
  1
ACDBSECTIONVIEWSTYLE
  2
AcDbSectionViewStyle
  3
ObjectDBX Classes
 90
     1025
 91
        1
280
     0
281
     0
  0
CLASS
  1
ACDBDETAILVIEWSTYLE
  2
AcDbDetailViewStyle
  3
ObjectDBX Classes
 90
     1025
 91
        1
280
     0
281
     0
  0
CLASS
  1
CELLSTYLEMAP
  2
AcDbCellStyleMap
  3
ObjectDBX Classes
 90
     1152
 91
        1
280
     0
281
     0
  0
ENDSEC
  0
SECTION
  2
TABLES
  0
TABLE
  2
VPORT
  5
8
102
{ACAD_XDICTIONARY
360
2BE
102
}
330
0
100
AcDbSymbolTable
 70
     1
1001
ACAD
1000
DbSaveVer
1071
        5
  0
VPORT
  5
29
330
8
100
AcDbSymbolTableRecord
100
AcDbViewportTableRecord
  2
*Active
 70
     0
 10
0.0
 20
0.0
 11
1.0
 21
1.0
 12
563.0722104840351
 22
578.7048425161101
 13
0.0
 23
0.0
 14
10.0
 24
10.0
 15
10.0
 25
10.0
 16
0.0
 26
0.0
 36
1.0
 17
0.0
 27
0.0
 37
0.0
 40
872.7510177509309
 41
2.292712066905615
 42
50.0
 43
0.0
 44
0.0
 50
0.0
 51
0.0
 71
     0
 72
   100
 73
     1
 74
     3
 75
     0
 76
     0
 77
     0
 78
     0
281
     0
 65
     1
110
0.0
120
0.0
130
0.0
111
1.0
121
0.0
131
0.0
112
0.0
122
1.0
132
0.0
 79
     0
146
0.0
348
2F
 60
     3
 61
     5
292
     1
282
     1
141
0.0
142
0.0
 63
   250
421
  3355443
361
69
1001
ACAD_NAV_VCDISPLAY
1070
     3
  0
ENDTAB
  0
TABLE
  2
LTYPE
  5
5
330
0
100
AcDbSymbolTable
 70
     2
  0
LTYPE
  5
14
330
5
100
AcDbSymbolTableRecord
100
AcDbLinetypeTableRecord
  2
ByBlock
 70
     0
  3

 72
    65
 73
     0
 40
0.0
  0
LTYPE
  5
15
330
5
100
AcDbSymbolTableRecord
100
AcDbLinetypeTableRecord
  2
ByLayer
 70
     0
  3

 72
    65
 73
     0
 40
0.0
  0
LTYPE
  5
16
330
5
100
AcDbSymbolTableRecord
100
AcDbLinetypeTableRecord
  2
Continuous
 70
     0
  3
Solid line
 72
    65
 73
     0
 40
0.0
  0
LTYPE
  5
6D
330
5
100
AcDbSymbolTableRecord
100
AcDbLinetypeTableRecord
  2
CENTER2
 70
     0
  3
Center (.5x) ___ _ ___ _ ___ _ ___ _ ___ _ ___
 72
    65
 73
     4
 40
28.575
 49
19.05
 74
     4
 75
     0
340
0
 46
0.0
 50
0.0
 44
0.0
 45
0.0
 49
-3.174999999999999
 74
     4
 75
     0
340
0
 46
0.0
 50
0.0
 44
0.0
 45
0.0
 49
3.174999999999999
 74
     4
 75
     0
340
0
 46
0.0
 50
0.0
 44
0.0
 45
0.0
 49
-3.174999999999999
 74
     4
 75
     0
340
0
 46
0.0
 50
0.0
 44
0.0
 45
0.0
  0
ENDTAB
  0
TABLE
  2
LAYER
  5
2
330
0
100
AcDbSymbolTable
 70
     5
  0
LAYER
  5
10
102
{ACAD_XDICTIONARY
360
304
102
}
330
2
100
AcDbSymbolTableRecord
100
AcDbLayerTableRecord
  2
0
 70
     0
 62
     7
  6
Continuous
370
    -3
390
F
347
46
348
0
  0
LAYER
  5
6A
102
{ACAD_XDICTIONARY
360
306
102
}
330
2
100
AcDbSymbolTableRecord
100
AcDbLayerTableRecord
  2
Default
 70
     0
 62
     7
  6
Continuous
370
    -3
390
F
347
46
348
0
  0
LAYER
  5
84
102
{ACAD_XDICTIONARY
360
308
102
}
330
2
100
AcDbSymbolTableRecord
100
AcDbLayerTableRecord
  2
DV1_Default
 70
     0
 62
     7
  6
Continuous
370
    -3
390
F
347
46
348
0
  0
LAYER
  5
C7
102
{ACAD_XDICTIONARY
360
30A
102
}
330
2
100
AcDbSymbolTableRecord
100
AcDbLayerTableRecord
  2
DV2_Default
 70
     0
 62
     7
  6
Continuous
370
    -3
390
F
347
46
348
0
  0
LAYER
  5
1B9
102
{ACAD_XDICTIONARY
360
30C
102
}
330
2
100
AcDbSymbolTableRecord
100
AcDbLayerTableRecord
  2
DV3_Default
 70
     0
 62
     7
  6
Continuous
370
    -3
390
F
347
46
348
0
  0
ENDTAB
  0
TABLE
  2
STYLE
  5
3
330
0
100
AcDbSymbolTable
 70
     1
  0
STYLE
  5
11
330
3
100
AcDbSymbolTableRecord
100
AcDbTextStyleTableRecord
  2
Standard
 70
     0
 40
0.0
 41
1.0
 50
0.0
 71
     0
 42
10.0
  3
txt
  4

  0
ENDTAB
  0
TABLE
  2
VIEW
  5
6
330
0
100
AcDbSymbolTable
 70
     0
  0
ENDTAB
  0
TABLE
  2
UCS
  5
7
330
0
100
AcDbSymbolTable
 70
     0
  0
ENDTAB
  0
TABLE
  2
APPID
  5
9
330
0
100
AcDbSymbolTable
 70
     2
  0
APPID
  5
12
330
9
100
AcDbSymbolTableRecord
100
AcDbRegAppTableRecord
  2
ACAD
 70
     0
  0
APPID
  5
30E
330
9
100
AcDbSymbolTableRecord
100
AcDbRegAppTableRecord
  2
ACAD_NAV_VCDISPLAY
 70
     0
  0
ENDTAB
  0
TABLE
  2
DIMSTYLE
  5
A
330
0
100
AcDbSymbolTable
 70
     1
100
AcDbDimStyleTable
 71
     0
  0
DIMSTYLE
105
27
330
A
100
AcDbSymbolTableRecord
100
AcDbDimStyleTableRecord
  2
ISO-25
 70
     0
 41
2.5
 42
0.625
 43
3.75
 44
1.25
 73
     0
 74
     0
 77
     1
 78
     8
140
2.5
141
2.5
143
0.03937007874016
147
0.625
171
     3
172
     1
271
     2
272
     2
274
     3
278
    44
283
     0
284
     8
340
11
  0
ENDTAB
  0
TABLE
  2
BLOCK_RECORD
  5
1
330
0
100
AcDbSymbolTable
 70
     6
  0
BLOCK_RECORD
  5
1F
330
1
100
AcDbSymbolTableRecord
100
AcDbBlockTableRecord
  2
*Model_Space
340
22
 70
     0
280
     1
281
     0
  0
BLOCK_RECORD
  5
1B
330
1
100
AcDbSymbolTableRecord
100
AcDbBlockTableRecord
  2
*Paper_Space
340
1E
 70
     0
280
     1
281
     0
  0
BLOCK_RECORD
  5
6B
330
1
100
AcDbSymbolTableRecord
100
AcDbBlockTableRecord
  2
SEANNOT_GROUP
340
0
102
{BLKREFS
331
6C
102
}
 70
     0
280
     1
281
     0
  0
BLOCK_RECORD
  5
76
330
1
100
AcDbSymbolTableRecord
100
AcDbBlockTableRecord
  2
SEANNOT_GROUP1
340
0
102
{BLKREFS
331
77
102
}
 70
     0
280
     1
281
     0
  0
BLOCK_RECORD
  5
7C
330
1
100
AcDbSymbolTableRecord
100
AcDbBlockTableRecord
  2
SEANNOT_GROUP2
340
0
102
{BLKREFS
331
7D
102
}
 70
     0
280
     1
281
     0
  0
BLOCK_RECORD
  5
82
330
1
100
AcDbSymbolTableRecord
100
AcDbBlockTableRecord
  2
SE
340
0
102
{BLKREFS
331
83
102
}
 70
     0
280
     1
281
     0
  0
BLOCK_RECORD
  5
C5
330
1
100
AcDbSymbolTableRecord
100
AcDbBlockTableRecord
  2
SE1
340
0
102
{BLKREFS
331
C6
102
}
 70
     0
280
     1
281
     0
  0
BLOCK_RECORD
  5
1B7
330
1
100
AcDbSymbolTableRecord
100
AcDbBlockTableRecord
  2
SE2
340
0
102
{BLKREFS
331
1B8
102
}
 70
     0
280
     1
281
     0
  0
ENDTAB
  0
ENDSEC
  0
SECTION
  2
BLOCKS
  0
BLOCK
  5
20
330
1F
100
AcDbEntity
  8
0
100
AcDbBlockBegin
  2
*Model_Space
 70
     0
 10
0.0
 20
0.0
 30
0.0
  3
*Model_Space
  1

  0
ENDBLK
  5
21
330
1F
100
AcDbEntity
  8
0
100
AcDbBlockEnd
  0
BLOCK
  5
1C
330
1B
100
AcDbEntity
 67
     1
  8
0
100
AcDbBlockBegin
  2
*Paper_Space
 70
     0
 10
0.0
 20
0.0
 30
0.0
  3
*Paper_Space
  1

  0
ENDBLK
  5
1D
330
1B
100
AcDbEntity
 67
     1
  8
0
100
AcDbBlockEnd
  0
BLOCK
  5
74
330
6B
100
AcDbEntity
  8
0
100
AcDbBlockBegin
  2
SEANNOT_GROUP
 70
     0
 10
0.0
 20
0.0
 30
0.0
  3
SEANNOT_GROUP
  1

  0
LINE
  5
6E
330
6B
100
AcDbEntity
  8
Default
  6
CENTER2
 62
     7
100
AcDbLine
 10
327.7259605653279
 20
399.7889487537481
 30
0.0
 11
287.7259614593975
 21
399.7889487537481
 31
0.0
  0
LINE
  5
6F
330
6B
100
AcDbEntity
  8
Default
  6
CENTER2
 62
     7
100
AcDbLine
 10
307.7259610123627
 20
419.7889483067132
 30
0.0
 11
307.7259610123627
 21
379.7889492007829
 31
0.0
  0
LINE
  5
70
330
6B
100
AcDbEntity
  8
Default
  6
CENTER2
 62
     7
100
AcDbLine
 10
332.7259595222466
 20
399.7889487537481
 30
0.0
 11
325.2259610123627
 21
399.7889487537481
 31
0.0
  0
LINE
  5
71
330
6B
100
AcDbEntity
  8
Default
  6
CENTER2
 62
     7
100
AcDbLine
 10
307.7259610123627
 20
424.7889472636319
 30
0.0
 11
307.7259610123627
 21
417.288948753748
 31
0.0
  0
LINE
  5
72
330
6B
100
AcDbEntity
  8
Default
  6
CENTER2
 62
     7
100
AcDbLine
 10
282.7259625024788
 20
399.7889487537481
 30
0.0
 11
290.2259610123627
 21
399.7889487537481
 31
0.0
  0
LINE
  5
73
330
6B
100
AcDbEntity
  8
Default
  6
CENTER2
 62
     7
100
AcDbLine
 10
307.7259610123627
 20
374.7889502438642
 30
0.0
 11
307.7259610123627
 21
382.288948753748
 31
0.0
  0
ENDBLK
  5
75
330
6B
100
AcDbEntity
  8
0
100
AcDbBlockEnd
  0
BLOCK
  5
7A
330
76
100
AcDbEntity
  8
0
100
AcDbBlockBegin
  2
SEANNOT_GROUP1
 70
     0
 10
0.0
 20
0.0
 30
0.0
  3
SEANNOT_GROUP1
  1

  0
LINE
  5
78
330
76
100
AcDbEntity
  8
Default
  6
CENTER2
 62
     7
100
AcDbLine
 10
327.7495725367924
 20
481.8787571717328
 30
0.0
 11
287.7495734308621
 21
481.8787571717328
 31
0.0
  0
LINE
  5
79
330
76
100
AcDbEntity
  8
Default
  6
CENTER2
 62
     7
100
AcDbLine
 10
307.7495729838272
 20
501.878756724698
 30
0.0
 11
307.7495729838272
 21
461.8787576187677
 31
0.0
  0
ENDBLK
  5
7B
330
76
100
AcDbEntity
  8
0
100
AcDbBlockEnd
  0
BLOCK
  5
80
330
7C
100
AcDbEntity
  8
0
100
AcDbBlockBegin
  2
SEANNOT_GROUP2
 70
     0
 10
0.0
 20
0.0
 30
0.0
  3
SEANNOT_GROUP2
  1

  0
LINE
  5
7E
330
7C
100
AcDbEntity
  8
Default
  6
CENTER2
 62
     7
100
AcDbLine
 10
609.5185165268478
 20
481.8787571717328
 30
0.0
 11
569.5185174209175
 21
481.8787571717328
 31
0.0
  0
LINE
  5
7F
330
7C
100
AcDbEntity
  8
Default
  6
CENTER2
 62
     7
100
AcDbLine
 10
589.5185169738827
 20
501.878756724698
 30
0.0
 11
589.5185169738827
 21
461.8787576187677
 31
0.0
  0
ENDBLK
  5
81
330
7C
100
AcDbEntity
  8
0
100
AcDbBlockEnd
  0
BLOCK
  5
C3
330
82
100
AcDbEntity
  8
0
100
AcDbBlockBegin
  2
SE
 70
     0
 10
0.0
 20
0.0
 30
0.0
  3
SE
  1

  0
LINE
  5
85
330
82
100
AcDbEntity
  8
DV1_Default
  6
Continuous
 62
     7
100
AcDbLine
 10
355.7417558117494
 20
381.917503942136
 30
0.0
 11
355.7417558117494
 21
417.6603935653602
 31
0.0
  0
ARC
  5
86
330
82
100
AcDbEntity
  8
DV1_Default
  6
Continuous
 62
     7
100
AcDbCircle
 10
307.7259610123627
 20
399.7889487537482
 30
0.0
 40
23.5
100
AcDbArc
 50
50.64690826850853
 51
233.4342630678161
  0
LINE
  5
87
330
82
100
AcDbEntity
  8
DV1_Default
  6
Continuous
 62
     7
100
AcDbLine
 10
322.0965519911664
 20
381.6175039421358
 30
0.0
 11
355.4417558117495
 21
381.6175039421358
 31
0.0
  0
LINE
  5
88
330
82
100
AcDbEntity
  8
DV1_Default
  6
Continuous
 62
     7
100
AcDbLine
 10
355.4417558117495
 20
417.9603935653603
 30
0.0
 11
322.0968478436093
 21
417.9603935653603
 31
0.0
  0
ARC
  5
89
330
82
100
AcDbEntity
  8
DV1_Default
  6
Continuous
 62
     7
100
AcDbCircle
 10
322.0868756240993
 20
428.9751598920017
 30
0.0
 40
11.01475589879248
100
AcDbArc
 50
243.7743190267947
 51
270.0003467573891
  0
ARC
  5
8A
330
82
100
AcDbEntity
  8
DV1_Default
  6
Continuous
 62
     7
100
AcDbCircle
 10
322.0869707573182
 20
370.6023343980477
 30
0.0
 40
11.0151596083296
100
AcDbArc
 50
90.00014410679476
 51
91.73394619055349
  0
ARC
  5
8B
330
82
100
AcDbEntity
  8
DV1_Default
  6
Continuous
 62
     7
100
AcDbCircle
 10
355.4417558117495
 20
381.9175039421359
 30
0.0
 40
0.3000000000000016
100
AcDbArc
 50
270.0
 51
0.0
  0
ARC
  5
8C
330
82
100
AcDbEntity
  8
DV1_Default
  6
Continuous
 62
     7
100
AcDbCircle
 10
355.4417558117495
 20
417.6603935653604
 30
0.0
 40
0.3000000000000016
100
AcDbArc
 50
0.0
 51
90.0
  0
LINE
  5
8D
330
82
100
AcDbEntity
  8
DV1_Default
  6
Continuous
 62
     7
100
AcDbLine
 10
355.7417558117495
 20
417.7889487537479
 30
0.0
 11
355.7417558117494
 21
381.7889487537483
 31
0.0
  0
ARC
  5
8E
330
82
100
AcDbEntity
  8
DV1_Default
  6
Continuous
 62
     7
100
AcDbCircle
 10
347.2239579246681
 20
399.7889487537482
 30
0.0
 40
20.2
100
AcDbArc
 50
295.841932763188
 51
302.6205015391969
  0
ARC
  5
8F
330
82
100
AcDbEntity
  8
DV1_Default
  6
Continuous
 62
     7
100
AcDbCircle
 10
347.2239579246681
 20
399.7889487537482
 30
0.0
 40
20.2
100
AcDbArc
 50
57.37949846080304
 51
64.15806723681173
  0
ARC
  5
90
330
82
100
AcDbEntity
  8
DV1_Default
  6
Continuous
 62
     7
100
AcDbCircle
 10
355.9417558117494
 20
381.7889487537481
 30
0.0
 40
0.1999999999999918
100
AcDbArc
 50
180.0
 51
295.841932765278
  0
ARC
  5
91
330
82
100
AcDbEntity
  8
DV1_Default
  6
Continuous
 62
     7
100
AcDbCircle
 10
355.9417558117495
 20
417.7889487537481
 30
0.0
 40
0.200000000000005
100
AcDbArc
 50
64.15806723472197
 51
180.0
  0
LINE
  5
92
330
82
100
AcDbEntity
  8
DV1_Default
  6
Continuous
 62
     7
100
AcDbLine
 10
310.3259610123627
 20
413.8389487537481
 30
0.0
 11
305.1259610123627
 21
413.8389487537481
 31
0.0
  0
LINE
  5
93
330
82
100
AcDbEntity
  8
DV1_Default
  6
Continuous
 62
     7
100
AcDbLine
 10
310.6259610123627
 20
413.4852986324566
 30
0.0
 11
310.6259610123627
 21
413.5389487537481
 31
0.0
  0
LINE
  5
94
330
82
100
AcDbEntity
  8
DV1_Default
  6
Continuous
 62
     7
100
AcDbLine
 10
304.8259610123627
 20
413.5389487537481
 30
0.0
 11
304.8259610123627
 21
413.4852986324565
 31
0.0
  0
ARC
  5
95
330
82
100
AcDbEntity
  8
DV1_Default
  6
Continuous
 62
     7
100
AcDbCircle
 10
305.1259610123627
 20
413.5389487537481
 30
0.0
 40
0.3000000000000016
100
AcDbArc
 50
90.0
 51
180.0
  0
ARC
  5
96
330
82
100
AcDbEntity
  8
DV1_Default
  6
Continuous
 62
     7
100
AcDbCircle
 10
310.3259610123627
 20
413.5389487537481
 30
0.0
 40
0.2999999999999999
100
AcDbArc
 50
0.0
 51
90.0
  0
ARC
  5
97
330
82
100
AcDbEntity
  8
DV1_Default
  6
Continuous
 62
     7
100
AcDbCircle
 10
307.7259610123627
 20
399.7652221480615
 30
0.0
 40
21.5237266056866
100
AcDbArc
 50
0.0
 51
229.4248398606684
  0
ARC
  5
98
330
82
100
AcDbEntity
  8
DV1_Default
  6
Continuous
 62
     7
100
AcDbCircle
 10
307.7259610123627
 20
399.7652221480615
 30
0.0
 40
21.5237266056866
100
AcDbArc
 50
310.5751601393312
 51
0.0
  0
ARC
  5
99
330
82
100
AcDbEntity
  8
DV1_Default
  6
Continuous
 62
     7
100
AcDbCircle
 10
307.7259610123627
 20
159.7726690068541
 30
0.0
 40
14.0
100
AcDbArc
 50
179.9666955241129
 51
0.0
  0
ARC
  5
9A
330
82
100
AcDbEntity
  8
DV1_Default
  6
Continuous
 62
     7
100
AcDbCircle
 10
307.7259610123627
 20
159.7726690068541
 30
0.0
 40
14.0
100
AcDbArc
 50
0.0
 51
0.0333044748614375
  0
ARC
  5
9B
330
82
100
AcDbEntity
  8
DV1_Default
  6
Continuous
 62
     7
100
AcDbCircle
 10
307.7259610123627
 20
399.7889487537481
 30
0.0
 40
14.0
100
AcDbArc
 50
0.0
 51
180.0
  0
ARC
  5
9C
330
82
100
AcDbEntity
  8
DV1_Default
  6
Continuous
 62
     7
100
AcDbCircle
 10
307.7259610123629
 20
159.7889487537481
 30
0.0
 40
14.0
100
AcDbArc
 50
180.0
 51
0.0
  0
LINE
  5
9D
330
82
100
AcDbEntity
  8
DV1_Default
  6
Continuous
 62
     7
100
AcDbLine
 10
293.7259610123627
 20
399.7889487537481
 30
0.0
 11
293.7259610123628
 21
159.788948753748
 31
0.0
  0
LINE
  5
9E
330
82
100
AcDbEntity
  8
DV1_Default
  6
Continuous
 62
     7
100
AcDbLine
 10
321.7259610123629
 20
159.7889487537481
 30
0.0
 11
321.7259610123627
 21
399.7889487537482
 31
0.0
  0
ARC
  5
9F
330
82
100
AcDbEntity
  8
DV1_Default
  6
Continuous
 62
     7
100
AcDbCircle
 10
596.0662721664167
 20
397.4440003405107
 30
0.0
 40
237.7646947148928
100
AcDbArc
 50
178.2236752555322
 51
181.7763247444677
  0
ARC
  5
A0
330
82
100
AcDbEntity
  8
DV1_Default
  6
Continuous
 62
     7
100
AcDbCircle
 10
442.9235847008432
 20
385.5493978965371
 30
0.0
 40
84.62877980847583
100
AcDbArc
 50
176.9353863844576
 51
183.064613615542
  0
ARC
  5
A1
330
82
100
AcDbEntity
  8
DV1_Default
  6
Continuous
 62
     7
100
AcDbCircle
 10
500.9956918749256
 20
410.7114082330745
 30
0.0
 40
142.7017631662009
100
AcDbArc
 50
177.6315424441662
 51
182.3684575578032
  0
SPLINE
  5
A2
330
82
100
AcDbEntity
  8
DV1_Default
  6
Continuous
 62
     7
100
AcDbSpline
210
0.0
220
0.0
230
1.0
 70
     8
 71
     3
 72
     8
 73
     4
 74
     0
 42
0.000000001
 43
0.0000000001
 40
0.0
 40
0.0
 40
0.0
 40
0.0
 40
1.0
 40
1.0
 40
1.0
 40
1.0
 10
358.4158342503367
 20
381.0249658143423
 30
0.0
 10
358.3638342494386
 20
380.5852585997326
 30
0.0
 10
358.3308532705022
 20
380.3746928597118
 30
0.0
 10
358.3146375628162
 20
380.379897994214
 30
0.0
  0
SPLINE
  5
A3
330
82
100
AcDbEntity
  8
DV1_Default
  6
Continuous
 62
     7
100
AcDbSpline
210
0.0
220
0.0
230
1.0
 70
     8
 71
     3
 72
     8
 73
     4
 74
     0
 42
0.000000001
 43
0.0000000001
 40
0.0
 40
0.0
 40
0.0
 40
0.0
 40
1.0
 40
1.0
 40
1.0
 40
1.0
 10
358.4158342503367
 20
418.5485245447994
 30
0.0
 10
358.3771330243618
 20
418.8757783651955
 30
0.0
 10
358.348966721279
 20
419.0761074995935
 30
0.0
 10
358.3304062091589
 20
419.1550240845728
 30
0.0
  0
SPLINE
  5
A4
330
82
100
AcDbEntity
  8
DV1_Default
  6
Continuous
 62
     7
100
AcDbSpline
210
0.0
220
0.0
230
1.0
 70
     8
 71
     3
 72
    10
 73
     6
 74
     0
 42
0.000000001
 43
0.0000000001
 40
0.0
 40
0.0
 40
0.0
 40
0.0
 40
0.2198137042567609
 40
0.2198137042567609
 40
1.0
 40
1.0
 40
1.0
 40
1.0
 10
358.3110239846137
 20
419.1880818100724
 30
0.0
 10
358.3052937552598
 20
419.171080198472
 30
0.0
 10
358.3025454631318
 20
419.1154728622512
 30
0.0
 10
358.3028265283872
 20
418.6915071593889
 30
0.0
 10
358.3352818519193
 20
417.8858729286362
 30
0.0
 10
358.4158342501341
 20
416.6086457589583
 30
0.0
  0
LINE
  5
A5
330
82
100
AcDbEntity
  8
DV1_Default
  6
Continuous
 62
     7
100
AcDbLine
 10
358.1132162896833
 20
380.6624760783915
 30
0.0
 11
358.1132162896834
 21
418.9110142806692
 31
0.0
  0
ELLIPSE
  5
A6
330
82
100
AcDbEntity
  8
DV1_Default
  6
Continuous
 62
     7
100
AcDbEllipse
 10
377.6132162896833
 20
390.8917451795304
 30
0.0
 11
3.250000000000002
 21
0.0000000000000054
 31
0.0
210
0.0
220
0.0
230
1.0
 40
0.8660254037844374
 41
3.236882518361909
 42
3.356842419014904
  0
ELLIPSE
  5
A7
330
82
100
AcDbEntity
  8
DV1_Default
  6
Continuous
 62
     7
100
AcDbEllipse
 10
377.6132162896833
 20
390.8917451795304
 30
0.0
 11
3.250000000000002
 21
0.0000000000000054
 31
0.0
210
0.0
220
0.0
230
1.0
 40
0.8660254037844374
 41
6.067935541754799
 42
6.195602360345873
  0
SPLINE
  5
A8
330
82
100
AcDbEntity
  8
DV1_Default
  6
Continuous
 62
     7
100
AcDbSpline
210
0.0
220
0.0
230
1.0
 70
     8
 71
     3
 72
    12
 73
     8
 74
     0
 42
0.000000001
 43
0.0000000001
 40
0.0
 40
0.0
 40
0.0
 40
0.0
 40
0.4437680797284724
 40
0.4437680797284724
 40
0.8875361594569447
 40
0.8875361594569447
 40
1.0
 40
1.0
 40
1.0
 40
1.0
 10
377.6132162896833
 20
393.1161312802298
 30
0.0
 10
378.473810599923
 20
393.1199442796323
 30
0.0
 10
379.313960300785
 20
392.7827169564004
 30
0.0
 10
380.5107213359658
 20
391.6759602201533
 30
0.0
 10
380.8631672771877
 20
390.9086025927198
 30
0.0
 10
380.8632287041112
 20
389.9862337254212
 30
0.0
 10
380.8409249353577
 20
389.8021267429976
 30
0.0
 10
380.7977594626133
 20
389.6232162066612
 30
0.0
  0
SPLINE
  5
A9
330
82
100
AcDbEntity
  8
DV1_Default
  6
Continuous
 62
     7
100
AcDbSpline
210
0.0
220
0.0
230
1.0
 70
     8
 71
     3
 72
    12
 73
     8
 74
     0
 42
0.000000001
 43
0.0000000001
 40
0.0
 40
0.0
 40
0.0
 40
0.0
 40
0.1155488354877576
 40
0.1155488354877576
 40
0.5577744177438789
 40
0.5577744177438789
 40
1.0
 40
1.0
 40
1.0
 40
1.0
 10
374.4337793215573
 20
389.5739717720639
 30
0.0
 10
374.3874359766323
 20
389.7583208050628
 30
0.0
 10
374.3632781886212
 20
389.9490960112437
 30
0.0
 10
374.3629799861117
 20
390.887164990844
 30
0.0
 10
374.7167598942329
 20
391.6515732311794
 30
0.0
 10
375.911577178363
 20
392.7668080515488
 30
0.0
 10
376.7526219794437
 20
393.1123182808272
 30
0.0
 10
377.6132162896833
 20
393.1161312802298
 30
0.0
  0
ARC
  5
AA
330
82
100
AcDbEntity
  8
DV1_Default
  6
Continuous
 62
     7
100
AcDbCircle
 10
-4551.527337333237
 20
400.1221501625211
 30
0.0
 40
4935.736076625665
100
AcDbArc
 50
0.2187173638218455
 51
0.2187834540999658
  0
ARC
  5
AB
330
82
100
AcDbEntity
  8
DV1_Default
  6
Continuous
 62
     7
100
AcDbCircle
 10
-5040.532542442821
 20
399.4890805903956
 30
0.0
 40
5425.229344040192
100
AcDbArc
 50
359.8052720369407
 51
0.1747232092259625
  0
ARC
  5
AC
330
82
100
AcDbEntity
  8
DV1_Default
  6
Continuous
 62
     7
100
AcDbCircle
 10
-5328.941367395689
 20
400.0268139539289
 30
0.0
 40
5713.636766174876
100
AcDbArc
 50
0.1605113560011653
 51
0.1854761953513419
  0
ARC
  5
AD
330
82
100
AcDbEntity
  8
DV1_Default
  6
Continuous
 62
     7
100
AcDbCircle
 10
209.7100755713121
 20
399.7914605117394
 30
0.0
 40
175.9530648919324
100
AcDbArc
 50
353.8889027421209
 51
6.108095094305989
  0
LINE
  5
AE
330
82
100
AcDbEntity
  8
DV1_Default
  6
Continuous
 62
     7
100
AcDbLine
 10
384.1733504309593
 20
418.9631985892265
 30
0.0
 11
358.3113738448052
 21
419.1888264889118
 31
0.0
  0
ARC
  5
AF
330
82
100
AcDbEntity
  8
DV1_Default
  6
Continuous
 62
     7
100
AcDbCircle
 10
358.4132162896833
 20
418.9110142806692
 30
0.0
 40
0.2999999999999947
100
AcDbArc
 50
109.5223562260184
 51
180.0
  0
ARC
  5
B0
330
82
100
AcDbEntity
  8
DV1_Default
  6
Continuous
 62
     7
100
AcDbCircle
 10
358.4132162896832
 20
380.6624760783915
 30
0.0
 40
0.2999999999999947
100
AcDbArc
 50
180.0
 51
250.6459925498255
  0
LINE
  5
B1
330
82
100
AcDbEntity
  8
DV1_Default
  6
Continuous
 62
     7
100
AcDbLine
 10
358.311621752967
 20
380.3846660329762
 30
0.0
 11
374.4382186963069
 21
380.525359463166
 31
0.0
  0
LINE
  5
B2
330
82
100
AcDbEntity
  8
DV1_Default
  6
Continuous
 62
     7
100
AcDbLine
 10
380.7882252804844
 20
380.5807588887978
 30
0.0
 11
384.1728467361584
 21
380.6102873754442
 31
0.0
  0
ARC
  5
B3
330
82
100
AcDbEntity
  8
DV1_Default
  6
Continuous
 62
     7
100
AcDbCircle
 10
384.1819209301724
 20
381.0951298396952
 30
0.0
 40
0.4833580470756067
100
AcDbArc
 50
268.9816541291031
 51
345.1330852293323
  0
SPLINE
  5
B4
330
82
100
AcDbEntity
  8
DV1_Default
  6
Continuous
 62
     7
100
AcDbSpline
210
0.0
220
0.0
230
1.0
 70
     8
 71
     3
 72
    12
 73
     8
 74
     0
 42
0.000000001
 43
0.0000000001
 40
0.0
 40
0.0
 40
0.0
 40
0.0
 40
0.1266102579460104
 40
0.3423471861139848
 40
0.6116093083035664
 40
0.8865097244923786
 40
1.0
 40
1.0
 40
1.0
 40
1.0
 10
384.6483018794518
 20
418.6034040895529
 30
0.0
 10
384.6397636821969
 20
418.631684259548
 30
0.0
 10
384.6191626007606
 20
418.6965833714818
 30
0.0
 10
384.543859499821
 20
418.8109291565099
 30
0.0
 10
384.417419487268
 20
418.9120848732111
 30
0.0
 10
384.2775195432082
 20
418.9679695268891
 30
0.0
 10
384.1990262329214
 20
418.9625861882158
 30
0.0
 10
384.1723816135004
 20
418.9604650842182
 30
0.0
  0
ELLIPSE
  5
B5
330
82
100
AcDbEntity
  8
DV1_Default
  6
Continuous
 62
     7
100
AcDbEllipse
 10
377.6132162896834
 20
349.7417451795302
 30
0.0
 11
4.049999999999998
 21
-0.0000000000000067
 31
0.0
210
0.0
220
0.0
230
1.0
 40
0.8660254037844371
 41
5.181186970523514
 42
6.283185307179586
  0
ELLIPSE
  5
B6
330
82
100
AcDbEntity
  8
DV1_Default
  6
Continuous
 62
     7
100
AcDbEllipse
 10
377.6132162896834
 20
349.7417451795302
 30
0.0
 11
4.049999999999998
 21
-0.0000000000000067
 31
0.0
210
0.0
220
0.0
230
1.0
 40
0.8660254037844371
 41
0.0000000000000019
 42
4.216045171434841
  0
LINE
  5
B7
330
82
100
AcDbEntity
  8
DV1_Default
  6
Continuous
 62
     7
100
AcDbLine
 10
374.4382162896834
 20
390.8417451795303
 30
0.0
 11
374.4382162896834
 21
365.1086782917694
 31
0.0
  0
LINE
  5
B8
330
82
100
AcDbEntity
  8
DV1_Default
  6
Continuous
 62
     7
100
AcDbLine
 10
380.7882162896834
 20
365.1086782917694
 30
0.0
 11
380.7882162896834
 21
390.7596556711246
 31
0.0
  0
LINE
  5
B9
330
82
100
AcDbEntity
  8
DV1_Default
  6
Continuous
 62
     7
100
AcDbLine
 10
381.4540707301842
 20
362.3427291049674
 30
0.0
 11
380.8259935877359
 21
364.7954487540932
 31
0.0
  0
LINE
  5
BA
330
82
100
AcDbEntity
  8
DV1_Default
  6
Continuous
 62
     7
100
AcDbLine
 10
374.4004389916309
 20
364.7954487540931
 30
0.0
 11
373.7723618491826
 21
362.3427291049673
 31
0.0
  0
LINE
  5
BB
330
82
100
AcDbEntity
  8
DV1_Default
  6
Continuous
 62
     7
100
AcDbLine
 10
373.5632162896834
 20
360.6748120672911
 30
0.0
 11
373.5632162896834
 21
349.7417451795302
 31
0.0
  0
LINE
  5
BC
330
82
100
AcDbEntity
  8
DV1_Default
  6
Continuous
 62
     7
100
AcDbLine
 10
381.6632162896834
 20
349.7417451795302
 30
0.0
 11
381.6632162896834
 21
360.6748120672911
 31
0.0
  0
ARC
  5
BD
330
82
100
AcDbEntity
  8
DV1_Default
  6
Continuous
 62
     7
100
AcDbCircle
 10
375.5353154300892
 20
360.7257617421995
 30
0.0
 40
6.127565422799921
100
AcDbArc
 50
359.5476551616978
 51
15.31136840752451
  0
ARC
  5
BE
330
82
100
AcDbEntity
  8
DV1_Default
  6
Continuous
 62
     7
100
AcDbCircle
 10
379.796792291312
 20
360.7220869909686
 30
0.0
 40
6.23206255821104
100
AcDbArc
 50
164.9147579341348
 51
180.4354761821078
  0
ARC
  5
BF
330
82
100
AcDbEntity
  8
DV1_Default
  6
Continuous
 62
     7
100
AcDbCircle
 10
381.7373874530163
 20
365.0553404790226
 30
0.0
 40
0.945688410293259
100
AcDbArc
 50
176.7024529138305
 51
195.7000871385037
  0
ARC
  5
C0
330
82
100
AcDbEntity
  8
DV1_Default
  6
Continuous
 62
     7
100
AcDbCircle
 10
373.2987878972364
 20
365.0867804244301
 30
0.0
 40
1.136861243299907
100
AcDbArc
 50
345.5108765266583
 51
1.165720765094077
  0
ARC
  5
C1
330
82
100
AcDbEntity
  8
DV1_Default
  6
Continuous
 62
     7
100
AcDbCircle
 10
377.5972635932419
 20
350.667808425044
 30
0.0
 40
4.460289578426413
100
AcDbArc
 50
244.7785360582204
 51
270.2049248396551
  0
ARC
  5
C2
330
82
100
AcDbEntity
  8
DV1_Default
  6
Continuous
 62
     7
100
AcDbCircle
 10
377.6488825865626
 20
350.533958911032
 30
0.0
 40
4.326558547412602
100
AcDbArc
 50
269.5276727668155
 51
294.3126690687533
  0
ENDBLK
  5
C4
330
82
100
AcDbEntity
  8
0
100
AcDbBlockEnd
  0
BLOCK
  5
1B5
330
C5
100
AcDbEntity
  8
0
100
AcDbBlockBegin
  2
SE1
 70
     0
 10
0.0
 20
0.0
 30
0.0
  3
SE1
  1

  0
SPLINE
  5
C8
330
C5
100
AcDbEntity
  8
DV2_Default
  6
Continuous
 62
     7
100
AcDbSpline
210
0.0
220
0.0
230
1.0
 70
     8
 71
     3
 72
    18
 73
    14
 74
     0
 42
0.000000001
 43
0.0000000001
 40
0.0
 40
0.0
 40
0.0
 40
0.0
 40
0.0624999999974899
 40
0.12499999999373
 40
0.2499999999862101
 40
0.4999999999711703
 40
0.6249999999636504
 40
0.7499999999561306
 40
0.8124999999523705
 40
0.8749999999486105
 40
0.9374999999448506
 40
0.9687499999429705
 40
1.0
 40
1.0
 40
1.0
 40
1.0
 10
830.2564415035339
 20
679.4761799374165
 30
0.0
 10
830.2554614958816
 20
679.4737055766448
 30
0.0
 10
830.2538582461508
 20
679.468724585745
 30
0.0
 10
830.2519930917458
 20
679.4587585046754
 30
0.0
 10
830.2520250945548
 20
679.4416351698758
 30
0.0
 10
830.2585668292149
 20
679.4242906555541
 30
0.0
 10
830.2695565101407
 20
679.4121706281082
 30
0.0
 10
830.2778497854642
 20
679.4073973712593
 30
0.0
 10
830.2850820888512
 20
679.4056347564271
 30
0.0
 10
830.2907408700253
 20
679.4054345242422
 30
0.0
 10
830.2955984090905
 20
679.4062805495508
 30
0.0
 10
830.2995374292317
 20
679.4076119678843
 30
0.0
 10
830.3015192449382
 20
679.4085036875483
 30
0.0
 10
830.3025118898634
 20
679.4090080027858
 30
0.0
  0
ARC
  5
C9
330
C5
100
AcDbEntity
  8
DV2_Default
  6
Continuous
 62
     7
100
AcDbCircle
 10
829.5082470247262
 20
678.4335514730299
 30
0.0
 40
1.283303975240267
100
AcDbArc
 50
54.33662248477935
 51
89.5414718298743
  0
ARC
  5
CA
330
C5
100
AcDbEntity
  8
DV2_Default
  6
Continuous
 62
     7
100
AcDbCircle
 10
829.5208521903964
 20
678.26343827621
 30
0.0
 40
1.386838809746044
100
AcDbArc
 50
55.69300295466447
 51
78.91149215182422
  0
ARC
  5
CB
330
C5
100
AcDbEntity
  8
DV2_Default
  6
Continuous
 62
     7
100
AcDbCircle
 10
831.9560820792087
 20
677.7278187607162
 30
0.0
 40
1.936591131150433
100
AcDbArc
 50
60.24064755853671
 51
78.33120167137231
  0
ARC
  5
CC
330
C5
100
AcDbEntity
  8
DV2_Default
  6
Continuous
 62
     7
100
AcDbCircle
 10
828.0373725410791
 20
675.9363691508389
 30
0.0
 40
4.146091757964588
100
AcDbArc
 50
50.54928356600741
 51
56.87820175617875
  0
SPLINE
  5
CD
330
C5
100
AcDbEntity
  8
DV2_Default
  6
Continuous
 62
     7
100
AcDbSpline
210
0.0
220
0.0
230
1.0
 70
     8
 71
     3
 72
    12
 73
     8
 74
     0
 42
0.000000001
 43
0.0000000001
 40
0.0
 40
0.0
 40
0.0
 40
0.0
 40
0.2102247495888073
 40
0.4146771562040888
 40
0.6140026119667346
 40
0.8088771189509504
 40
1.0
 40
1.0
 40
1.0
 40
1.0
 10
831.7783308488495
 20
679.2691289437516
 30
0.0
 10
831.7521966112893
 20
679.2537721521962
 30
0.0
 10
831.7006457568078
 20
679.2234808909029
 30
0.0
 10
831.6288652909443
 20
679.1828507701525
 30
0.0
 10
831.5626757573156
 20
679.1469978586138
 30
0.0
 10
831.5023711441408
 20
679.1164449293538
 30
0.0
 10
831.4656626197796
 20
679.0995509205259
 30
0.0
 10
831.4483577467715
 20
679.0921150081717
 30
0.0
  0
ARC
  5
CE
330
C5
100
AcDbEntity
  8
DV2_Default
  6
Continuous
 62
     7
100
AcDbCircle
 10
827.8934665309474
 20
676.0232421675911
 30
0.0
 40
4.178573143688531
100
AcDbArc
 50
46.56798065260193
 51
48.74655957896125
  0
SPLINE
  5
CF
330
C5
100
AcDbEntity
  8
DV2_Default
  6
Continuous
 62
     7
100
AcDbSpline
210
0.0
220
0.0
230
1.0
 70
     8
 71
     3
 72
    10
 73
     6
 74
     0
 42
0.000000001
 43
0.0000000001
 40
0.0
 40
0.0
 40
0.0
 40
0.0
 40
0.0522796038054234
 40
0.5307734345185251
 40
1.0
 40
1.0
 40
1.0
 40
1.0
 10
833.7351831975997
 20
679.0645653944617
 30
0.0
 10
833.7341916487838
 20
679.0637441256584
 30
0.0
 10
833.7237493004964
 20
679.055728370775
 30
0.0
 10
833.6969344326771
 20
679.0468185807331
 30
0.0
 10
833.6563289813058
 20
679.0541397844588
 30
0.0
 10
833.6362247854236
 20
679.0577645911985
 30
0.0
  0
ARC
  5
D0
330
C5
100
AcDbEntity
  8
DV2_Default
  6
Continuous
 62
     7
100
AcDbCircle
 10
836.5377007788312
 20
680.7061865582296
 30
0.0
 40
1.650319760849454
100
AcDbArc
 50
270.6809958510568
 51
299.4511395392028
  0
SPLINE
  5
D1
330
C5
100
AcDbEntity
  8
DV2_Default
  6
Continuous
 62
     7
100
AcDbSpline
210
0.0
220
0.0
230
1.0
 70
     8
 71
     3
 72
    15
 73
    11
 74
     0
 42
0.000000001
 43
0.0000000001
 40
0.0
 40
0.0
 40
0.0
 40
0.0
 40
0.1137108222318871
 40
0.2239658868617159
 40
0.331159469822843
 40
0.4357063874054813
 40
0.5380370983550216
 40
0.6957123522155963
 40
0.8490862407260518
 40
1.0
 40
1.0
 40
1.0
 40
1.0
 10
836.4518084645764
 20
679.2691288628707
 30
0.0
 10
836.450913645241
 20
679.2529075230196
 30
0.0
 10
836.4491515187767
 20
679.2209582088046
 30
0.0
 10
836.4359366580654
 20
679.1784613311566
 30
0.0
 10
836.4153817822003
 20
679.1413838034803
 30
0.0
 10
836.3871525579369
 20
679.1102953303334
 30
0.0
 10
836.3453954911864
 20
679.0806801102432
 30
0.0
 10
836.2849281258966
 20
679.0578460884113
 30
0.0
 10
836.2018304951863
 20
679.0471228448615
 30
0.0
 10
836.1358282089362
 20
679.0542365136575
 30
0.0
 10
836.1030938890076
 20
679.0577647763624
 30
0.0
  0
SPLINE
  5
D2
330
C5
100
AcDbEntity
  8
DV2_Default
  6
Continuous
 62
     7
100
AcDbSpline
210
0.0
220
0.0
230
1.0
 70
     8
 71
     3
 72
    10
 73
     6
 74
     0
 42
0.000000001
 43
0.0000000001
 40
0.0
 40
0.0
 40
0.0
 40
0.0
 40
0.1141565018134158
 40
0.5614093010468326
 40
1.0
 40
1.0
 40
1.0
 40
1.0
 10
838.2146262560494
 20
679.0680269341082
 30
0.0
 10
838.2049034602328
 20
679.0659108304205
 30
0.0
 10
838.1562765806853
 20
679.0563507305171
 30
0.0
 10
838.0628650060454
 20
679.0468185802758
 30
0.0
 10
837.9709344957738
 20
679.0541397840228
 30
0.0
 10
837.9254187056396
 20
679.0577645911985
 30
0.0
  0
ARC
  5
D3
330
C5
100
AcDbEntity
  8
DV2_Default
  6
Continuous
 62
     7
100
AcDbCircle
 10
839.141975354215
 20
680.5829640597263
 30
0.0
 40
1.531476214172553
100
AcDbArc
 50
270.8086376451295
 51
300.9197219651733
  0
ARC
  5
D4
330
C5
100
AcDbEntity
  8
DV2_Default
  6
Continuous
 62
     7
100
AcDbCircle
 10
839.0701280396982
 20
680.1447556885492
 30
0.0
 40
1.096660760053584
100
AcDbArc
 50
262.3857563611849
 51
286.2829294870701
  0
ARC
  5
D5
330
C5
100
AcDbEntity
  8
DV2_Default
  6
Continuous
 62
     7
100
AcDbCircle
 10
836.529435569494
 20
680.7410098257904
 30
0.0
 40
1.684735955893253
100
AcDbArc
 50
275.3828985961431
 51
299.1135989202417
  0
SPLINE
  5
D6
330
C5
100
AcDbEntity
  8
DV2_Default
  6
Continuous
 62
     7
100
AcDbSpline
210
0.0
220
0.0
230
1.0
 70
     8
 71
     3
 72
    15
 73
    11
 74
     0
 42
0.000000001
 43
0.0000000001
 40
0.0
 40
0.0
 40
0.0
 40
0.0
 40
0.1075113982366776
 40
0.2120707221674085
 40
0.3140080331314055
 40
0.413669046978936
 40
0.5114114063219051
 40
0.6788887089716164
 40
0.841014290993969
 40
1.0
 40
1.0
 40
1.0
 40
1.0
 10
834.8233691752655
 20
679.2691288524852
 30
0.0
 10
834.7923337110611
 20
679.2537721429582
 30
0.0
 10
834.7311151711787
 20
679.2234808701155
 30
0.0
 10
834.6421862049767
 20
679.1828507426595
 30
0.0
 10
834.5573045515854
 20
679.1469978362089
 30
0.0
 10
834.476685320053
 20
679.1164449196972
 30
0.0
 10
834.3818222021338
 20
679.0852180238713
 30
0.0
 10
834.277564614187
 20
679.0596665923445
 30
0.0
 10
834.1700548632855
 20
679.0468185794507
 30
0.0
 10
834.1126054165806
 20
679.054139783215
 30
0.0
 10
834.0841615677605
 20
679.0577645911985
 30
0.0
  0
ARC
  5
D7
330
C5
100
AcDbEntity
  8
DV2_Default
  6
Continuous
 62
     7
100
AcDbCircle
 10
835.9206066917982
 20
679.2263079348462
 30
0.0
 40
0.5329249058541965
100
AcDbArc
 50
4.608728444694681
 51
87.90433900508869
  0
SPLINE
  5
D8
330
C5
100
AcDbEntity
  8
DV2_Default
  6
Continuous
 62
     7
100
AcDbSpline
210
0.0
220
0.0
230
1.0
 70
     8
 71
     3
 72
    16
 73
    12
 74
     0
 42
0.000000001
 43
0.0000000001
 40
0.0
 40
0.0
 40
0.0
 40
0.0
 40
0.0828336709997956
 40
0.1680740846711352
 40
0.2566189950436808
 40
0.3492647747123634
 40
0.4467008921073425
 40
0.5495131232891218
 40
0.6581921371011511
 40
0.8252806149743745
 40
1.0
 40
1.0
 40
1.0
 40
1.0
 10
838.3570603782326
 20
679.7588764527768
 30
0.0
 10
838.3719526573973
 20
679.758003190914
 30
0.0
 10
838.4021699127602
 20
679.7562312944556
 30
0.0
 10
838.4425219937742
 20
679.7438272428404
 30
0.0
 10
838.4795223222537
 20
679.7245145371645
 30
0.0
 10
838.5124012458911
 20
679.6977800368376
 30
0.0
 10
838.5407806739618
 20
679.6641816858537
 30
0.0
 10
838.5640506292379
 20
679.6241214751356
 30
0.0
 10
838.5842300710834
 20
679.5708221327581
 30
0.0
 10
838.596399477343
 20
679.5035873134233
 30
0.0
 10
838.5945819115384
 20
679.4515839120195
 30
0.0
 10
838.5910452002326
 20
679.4251360910434
 30
0.0
  0
ARC
  5
D9
330
C5
100
AcDbEntity
  8
DV2_Default
  6
Continuous
 62
     7
100
AcDbCircle
 10
839.1519461756759
 20
680.6008854208947
 30
0.0
 40
1.541829682613585
100
AcDbArc
 50
300.2596368724905
 51
326.8994341957269
  0
SPLINE
  5
DA
330
C5
100
AcDbEntity
  8
DV2_Default
  6
Continuous
 62
     7
100
AcDbSpline
210
0.0
220
0.0
230
1.0
 70
     8
 71
     3
 72
    10
 73
     6
 74
     0
 42
0.000000001
 43
0.0000000001
 40
0.0
 40
0.0
 40
0.0
 40
0.0
 40
0.2433181418627424
 40
0.6210382308373505
 40
1.0
 40
1.0
 40
1.0
 40
1.0
 10
835.2125640682924
 20
679.4775007381863
 30
0.0
 10
835.1807549351521
 20
679.4600622411842
 30
0.0
 10
835.09962780339
 20
679.415414661456
 30
0.0
 10
834.9692758693205
 20
679.3441354223372
 30
0.0
 10
834.872058018688
 20
679.2941583043918
 30
0.0
 10
834.8233691752655
 20
679.2691288524852
 30
0.0
  0
SPLINE
  5
DB
330
C5
100
AcDbEntity
  8
DV2_Default
  6
Continuous
 62
     7
100
AcDbSpline
210
0.0
220
0.0
230
1.0
 70
     8
 71
     3
 72
    12
 73
     8
 74
     0
 42
0.000000001
 43
0.0000000001
 40
0.0
 40
0.0
 40
0.0
 40
0.0
 40
0.0307863745537555
 40
0.2621410022848549
 40
0.504064201249827
 40
0.7516253733134438
 40
1.0
 40
1.0
 40
1.0
 40
1.0
 10
832.3310347787328
 20
679.5882484505881
 30
0.0
 10
832.3248562775072
 20
679.5850765173037
 30
0.0
 10
832.2723775856886
 20
679.5579200289612
 30
0.0
 10
832.173544390398
 20
679.5035867355506
 30
0.0
 10
832.0376999735096
 20
679.4243814427561
 30
0.0
 10
831.9039805752325
 20
679.3441353946565
 30
0.0
 10
831.8202600678056
 20
679.2941583227645
 30
0.0
 10
831.7783308488495
 20
679.2691289437516
 30
0.0
  0
ARC
  5
DC
330
C5
100
AcDbEntity
  8
DV2_Default
  6
Continuous
 62
     7
100
AcDbCircle
 10
819.8821186782133
 20
680.5977653953447
 30
0.0
 40
1.537638875375579
100
AcDbArc
 50
213.0635929820918
 51
239.7773403481818
  0
SPLINE
  5
DD
330
C5
100
AcDbEntity
  8
DV2_Default
  6
Continuous
 62
     7
100
AcDbSpline
210
0.0
220
0.0
230
1.0
 70
     8
 71
     3
 72
    18
 73
    14
 74
     0
 42
0.000000001
 43
0.0000000001
 40
0.0
 40
0.0
 40
0.0
 40
0.0
 40
0.0609892161110489
 40
0.1237504132565093
 40
0.188944589772179
 40
0.2571581009103981
 40
0.3288985919636616
 40
0.4045973624637728
 40
0.4846156867960084
 40
0.6076398441258315
 40
0.7362832128096814
 40
0.8679250363446126
 40
1.0
 40
1.0
 40
1.0
 40
1.0
 10
819.1281860442325
 20
679.7588764527736
 30
0.0
 10
819.1367712594438
 20
679.7580031644055
 30
0.0
 10
819.1541911247526
 20
679.7562312151407
 30
0.0
 10
819.1864593072537
 20
679.7438271096739
 30
0.0
 10
819.2236869646379
 20
679.7245143644915
 30
0.0
 10
819.2666498521404
 20
679.6977798431209
 30
0.0
 10
819.315655970781
 20
679.6641814872957
 30
0.0
 10
819.3712836273844
 20
679.6241212895759
 30
0.0
 10
819.4442235912294
 20
679.5708219588092
 30
0.0
 10
819.5379079099039
 20
679.5035870214306
 30
0.0
 10
819.6558188085194
 20
679.4243817395302
 30
0.0
 10
819.7856661850416
 20
679.3441355470193
 30
0.0
 10
819.8809399124236
 20
679.2941583719603
 30
0.0
 10
819.9286549666005
 20
679.2691288564367
 30
0.0
  0
SPLINE
  5
DE
330
C5
100
AcDbEntity
  8
DV2_Default
  6
Continuous
 62
     7
100
AcDbSpline
210
0.0
220
0.0
230
1.0
 70
     8
 71
     3
 72
    19
 73
    15
 74
     0
 42
0.000000001
 43
0.0000000001
 40
0.0
 40
0.0
 40
0.0
 40
0.0
 40
0.0093494100417369
 40
0.0186988200831784
 40
0.0373976401660613
 40
0.0747952803318272
 40
0.112192920497593
 40
0.1495905606633589
 40
0.2243858409948906
 40
0.2991811213264224
 40
0.4487716819894859
 40
0.5983622426525495
 40
0.8975433639786764
 40
1.0
 40
1.0
 40
1.0
 40
1.0
 10
820.6799735695327
 20
679.7588764527771
 30
0.0
 10
820.6782074945429
 20
679.7588607652779
 30
0.0
 10
820.6746987732801
 20
679.7587962521784
 30
0.0
 10
820.6677744797689
 20
679.7585364037904
 30
0.0
 10
820.6558999943997
 20
679.7577428063476
 30
0.0
 10
820.639622335276
 20
679.7556668513391
 30
0.0
 10
820.6211593243942
 20
679.7517512882143
 30
0.0
 10
820.5979329910775
 20
679.7447415825274
 30
0.0
 10
820.5714379480291
 20
679.7328362231194
 30
0.0
 10
820.534185435005
 20
679.7079460714736
 30
0.0
 10
820.4966143315186
 20
679.6676844797831
 30
0.0
 10
820.4545747532877
 20
679.5890894436747
 30
0.0
 10
820.4385687041366
 20
679.5054794060993
 30
0.0
 10
820.443341375209
 20
679.4417839453605
 30
0.0
 10
820.4456793526256
 20
679.4254501318402
 30
0.0
  0
SPLINE
  5
DF
330
C5
100
AcDbEntity
  8
DV2_Default
  6
Continuous
 62
     7
100
AcDbSpline
210
0.0
220
0.0
230
1.0
 70
     8
 71
     3
 72
    18
 73
    14
 74
     0
 42
0.000000001
 43
0.0000000001
 40
0.0
 40
0.0
 40
0.0
 40
0.0
 40
0.0609907598935911
 40
0.1237535962382093
 40
0.1889495523741707
 40
0.2571650212974723
 40
0.3289076786653335
 40
0.4046088476248985
 40
0.4846298204163359
 40
0.6076517738054023
 40
0.7362926084130806
 40
0.8679254408375062
 40
1.0
 40
1.0
 40
1.0
 40
1.0
 10
820.6799735695327
 20
679.7588764527771
 30
0.0
 10
820.6957548657324
 20
679.7580031176594
 30
0.0
 10
820.7277759810864
 20
679.7562310728169
 30
0.0
 10
820.7811241798857
 20
679.7438263512503
 30
0.0
 10
820.8390225399471
 20
679.7245126654818
 30
0.0
 10
820.9020890783227
 20
679.6977768651451
 30
0.0
 10
820.9705414804091
 20
679.6641769388562
 30
0.0
 10
821.0448266377605
 20
679.6241149206852
 30
0.0
 10
821.1382818522736
 20
679.5708144926956
 30
0.0
 10
821.2530623251394
 20
679.5035796438543
 30
0.0
 10
821.390612998632
 20
679.4243773041398
 30
0.0
 10
821.5360245277068
 20
679.344133421354
 30
0.0
 10
821.6372198421435
 20
679.2941582058367
 30
0.0
 10
821.6879023082015
 20
679.2691288544507
 30
0.0
  0
ARC
  5
E0
330
C5
100
AcDbEntity
  8
DV2_Default
  6
Continuous
 62
     7
100
AcDbCircle
 10
823.1142192812166
 20
679.2286153279292
 30
0.0
 40
0.5305426072428519
100
AcDbArc
 50
91.86647561677784
 51
175.620491267927
  0
SPLINE
  5
E1
330
C5
100
AcDbEntity
  8
DV2_Default
  6
Continuous
 62
     7
100
AcDbSpline
210
0.0
220
0.0
230
1.0
 70
     8
 71
     3
 72
    18
 73
    14
 74
     0
 42
0.000000001
 43
0.0000000001
 40
0.0
 40
0.0
 40
0.0
 40
0.0
 40
0.0609893534496508
 40
0.123750646504477
 40
0.1889448758257112
 40
0.257158396536458
 40
0.328898854955762
 40
0.4045975524049935
 40
0.4846157654987952
 40
0.6076397862586024
 40
0.7362834735768223
 40
0.8679253634411287
 40
1.0
 40
1.0
 40
1.0
 40
1.0
 10
823.0969393050015
 20
679.7588764527744
 30
0.0
 10
823.1183711682163
 20
679.7580031470897
 30
0.0
 10
823.1618575601622
 20
679.7562311633427
 30
0.0
 10
823.2310608859906
 20
679.7438270229185
 30
0.0
 10
823.3039591909289
 20
679.7245142522465
 30
0.0
 10
823.3809521755397
 20
679.6977797175805
 30
0.0
 10
823.4621458512087
 20
679.6641813591365
 30
0.0
 10
823.5478118725348
 20
679.6241211705895
 30
0.0
 10
823.6526316036826
 20
679.5708218460908
 30
0.0
 10
823.7772732645948
 20
679.5035868299948
 30
0.0
 10
823.9210079748009
 20
679.4243815330145
 30
0.0
 10
824.0677580784472
 20
679.344135422335
 30
0.0
 10
824.1649759290798
 20
679.2941583043901
 30
0.0
 10
824.2136647724985
 20
679.2691288524853
 30
0.0
  0
SPLINE
  5
E2
330
C5
100
AcDbEntity
  8
DV2_Default
  6
Continuous
 62
     7
100
AcDbSpline
210
0.0
220
0.0
230
1.0
 70
     8
 71
     3
 72
    17
 73
    13
 74
     0
 42
0.000000001
 43
0.0000000001
 40
0.0
 40
0.0
 40
0.0
 40
0.0
 40
0.0656848960203048
 40
0.1332112393463213
 40
0.2033796335785061
 40
0.2768997818440126
 40
0.3763100633625958
 40
0.4846431903081452
 40
0.6077011142739341
 40
0.7363409091831824
 40
0.8679079274154176
 40
1.0
 40
1.0
 40
1.0
 40
1.0
 10
826.1424938044616
 20
679.758876452776
 30
0.0
 10
826.1694142887623
 20
679.7578893176758
 30
0.0
 10
826.2240099613554
 20
679.7558873735728
 30
0.0
 10
826.3083069409276
 20
679.7417733664848
 30
0.0
 10
826.3951426625213
 20
679.7198036528571
 30
0.0
 10
826.4935531459659
 20
679.686439342173
 30
0.0
 10
826.6045521616703
 20
679.6393835532324
 30
0.0
 10
826.7307639266519
 20
679.5765192840787
 30
0.0
 10
826.8635161689903
 20
679.5035630812242
 30
0.0
 10
826.9993581099225
 20
679.4243651123822
 30
0.0
 10
827.1330656651219
 20
679.3441344504627
 30
0.0
 10
827.2167681480658
 20
679.2941638343729
 30
0.0
 10
827.2587030989177
 20
679.2691289437516
 30
0.0
  0
ARC
  5
E3
330
C5
100
AcDbEntity
  8
DV2_Default
  6
Continuous
 62
     7
100
AcDbCircle
 10
828.259112056698
 20
679.1477824501749
 30
0.0
 40
0.0907668134366692
100
AcDbArc
 50
277.3654769181555
 51
353.5360786729169
  0
SPLINE
  5
E4
330
C5
100
AcDbEntity
  8
DV2_Default
  6
Continuous
 62
     7
100
AcDbSpline
210
0.0
220
0.0
230
1.0
 70
     8
 71
     3
 72
    13
 73
     9
 74
     0
 42
0.000000001
 43
0.0000000001
 40
0.0
 40
0.0
 40
0.0
 40
0.0
 40
0.0931668529528579
 40
0.1929148753119117
 40
0.3879956716004904
 40
0.5865419427299803
 40
0.7868574594910229
 40
1.0
 40
1.0
 40
1.0
 40
1.0
 10
829.5185266066651
 20
679.7963096912898
 30
0.0
 10
829.4772430350926
 20
679.7934354580288
 30
0.0
 10
829.3917596811965
 20
679.7874839598987
 30
0.0
 10
829.2261434496666
 20
679.7445122169474
 30
0.0
 10
829.0329639558574
 20
679.6576849218336
 30
0.0
 10
828.8308288236381
 20
679.5298083348002
 30
0.0
 10
828.6513461705268
 20
679.3939392883839
 30
0.0
 10
828.5504440902007
 20
679.3108233688606
 30
0.0
 10
828.5057820028759
 20
679.2730197294887
 30
0.0
  0
ARC
  5
E5
330
C5
100
AcDbEntity
  8
DV2_Default
  6
Continuous
 62
     7
100
AcDbCircle
 10
831.0871201452671
 20
676.0877372702138
 30
0.0
 40
4.092927037074344
100
AcDbArc
 50
131.2569790473475
 51
133.478892518849
  0
ARC
  5
E6
330
C5
100
AcDbEntity
  8
DV2_Default
  6
Continuous
 62
     7
100
AcDbCircle
 10
819.9686290385244
 20
680.1513227615394
 30
0.0
 40
1.102944622227973
100
AcDbArc
 50
252.9559670909765
 51
277.4803167366694
  0
ARC
  5
E7
330
C5
100
AcDbEntity
  8
DV2_Default
  6
Continuous
 62
     7
100
AcDbCircle
 10
819.8960207704937
 20
680.5871767324735
 30
0.0
 40
1.535585181795274
100
AcDbArc
 50
239.1302470896344
 51
269.1611175648143
  0
SPLINE
  5
E8
330
C5
100
AcDbEntity
  8
DV2_Default
  6
Continuous
 62
     7
100
AcDbSpline
210
0.0
220
0.0
230
1.0
 70
     8
 71
     3
 72
    14
 73
    10
 74
     0
 42
0.000000001
 43
0.0000000001
 40
0.0
 40
0.0
 40
0.0
 40
0.0
 40
0.1533442517522848
 40
0.4355628421708043
 40
0.7177814325893236
 40
0.8588907277985832
 40
0.9294453754032129
 40
0.9647226992055278
 40
0.9999999999999998
 40
0.9999999999999998
 40
0.9999999999999998
 40
0.9999999999999998
 10
820.7382971640274
 20
679.0921063039137
 30
0.0
 10
820.7539865803134
 20
679.0863819749794
 30
0.0
 10
820.8000799332838
 20
679.0717038615079
 30
0.0
 10
820.8831316965801
 20
679.0550898062392
 30
0.0
 10
820.9734580468257
 20
679.0494142128482
 30
0.0
 10
821.041097174918
 20
679.0514842151736
 30
0.0
 10
821.0759990459054
 20
679.0540898982677
 30
0.0
 10
821.096249431785
 20
679.0560358034801
 30
0.0
 10
821.10647629995
 20
679.0571624762982
 30
0.0
 10
821.1116152421256
 20
679.0577645911985
 30
0.0
  0
ARC
  5
E9
330
C5
100
AcDbEntity
  8
DV2_Default
  6
Continuous
 62
     7
100
AcDbCircle
 10
820.7712638910166
 20
680.8132520142711
 30
0.0
 40
1.759063991464244
100
AcDbArc
 50
241.3792483056106
 51
273.6542957281308
  0
SPLINE
  5
EA
330
C5
100
AcDbEntity
  8
DV2_Default
  6
Continuous
 62
     7
100
AcDbSpline
210
0.0
220
0.0
230
1.0
 70
     8
 71
     3
 72
    13
 73
     9
 74
     0
 42
0.000000001
 43
0.0000000001
 40
0.0
 40
0.0
 40
0.0
 40
0.0
 40
0.1991544070930985
 40
0.5995772181238531
 40
0.7997886236392306
 40
0.8998943263969188
 40
0.9499471777757634
 40
1.0
 40
1.0
 40
1.0
 40
1.0
 10
822.7358864814844
 20
679.0653421231205
 30
0.0
 10
822.7463864352623
 20
679.0621238353002
 30
0.0
 10
822.7795925394714
 20
679.0539472218049
 30
0.0
 10
822.8302786548743
 20
679.0494135870501
 30
0.0
 10
822.8802585562892
 20
679.0514840177082
 30
0.0
 10
822.9066371542595
 20
679.0540898322636
 30
0.0
 10
822.9221067216585
 20
679.0560357820741
 30
0.0
 10
822.9299734367588
 20
679.0571624715506
 30
0.0
 10
822.9339400698385
 20
679.0577645912004
 30
0.0
  0
ARC
  5
EB
330
C5
100
AcDbEntity
  8
DV2_Default
  6
Continuous
 62
     7
100
AcDbCircle
 10
822.5075749067883
 20
680.740910932045
 30
0.0
 40
1.684638137049585
100
AcDbArc
 50
240.8854620428717
 51
272.411410337357
  0
SPLINE
  5
EC
330
C5
100
AcDbEntity
  8
DV2_Default
  6
Continuous
 62
     7
100
AcDbSpline
210
0.0
220
0.0
230
1.0
 70
     8
 71
     3
 72
    13
 73
     9
 74
     0
 42
0.000000001
 43
0.0000000001
 40
0.0
 40
0.0
 40
0.0
 40
0.0
 40
0.1798128878997165
 40
0.5899064606918257
 40
0.7949532470878803
 40
0.8974766402859078
 40
0.9487383368849211
 40
0.9999999999999998
 40
0.9999999999999998
 40
0.9999999999999998
 40
0.9999999999999998
 10
825.3021586536251
 20
679.0642224678482
 30
0.0
 10
825.3055749862284
 20
679.0614902098533
 30
0.0
 10
825.318238168988
 20
679.0538149930438
 30
0.0
 10
825.3417916073543
 20
679.0494142128389
 30
0.0
 10
825.3692271015728
 20
679.0514842159784
 30
0.0
 10
825.3844984042311
 20
679.0540898989054
 30
0.0
 10
825.3936699796808
 20
679.0560358038267
 30
0.0
 10
825.39840437703
 20
679.0571624764242
 30
0.0
 10
825.4008091623425
 20
679.0577645911985
 30
0.0
  0
SPLINE
  5
ED
330
C5
100
AcDbEntity
  8
DV2_Default
  6
Continuous
 62
     7
100
AcDbSpline
210
0.0
220
0.0
230
1.0
 70
     8
 71
     3
 72
    15
 73
    11
 74
     0
 42
0.000000001
 43
0.0000000001
 40
0.0
 40
0.0
 40
0.0
 40
0.0
 40
0.107511398239411
 40
0.2120707221715143
 40
0.3140080331355418
 40
0.4136690469818036
 40
0.511411406322234
 40
0.6788887089756993
 40
0.8410142909979885
 40
1.0
 40
1.0
 40
1.0
 40
1.0
 10
824.2136647724985
 20
679.2691288524853
 30
0.0
 10
824.244700236705
 20
679.2537721429576
 30
0.0
 10
824.3059187765885
 20
679.2234808701145
 30
0.0
 10
824.3948477427917
 20
679.1828507426583
 30
0.0
 10
824.4797293961829
 20
679.1469978362077
 30
0.0
 10
824.5603486277142
 20
679.1164449196966
 30
0.0
 10
824.6552117456328
 20
679.0852180238706
 30
0.0
 10
824.7594693335791
 20
679.0596665923441
 30
0.0
 10
824.8669790844809
 20
679.0468185794508
 30
0.0
 10
824.9244285311853
 20
679.054139783215
 30
0.0
 10
824.9528723800045
 20
679.0577645911985
 30
0.0
  0
SPLINE
  5
EE
330
C5
100
AcDbEntity
  8
DV2_Default
  6
Continuous
 62
     7
100
AcDbSpline
210
0.0
220
0.0
230
1.0
 70
     8
 71
     3
 72
    15
 73
    11
 74
     0
 42
0.000000001
 43
0.0000000001
 40
0.0
 40
0.0
 40
0.0
 40
0.0
 40
0.1074951150746977
 40
0.2120477551632942
 40
0.3139881048264596
 40
0.4136619435058457
 40
0.5114269051142696
 40
0.6790033865995156
 40
0.8411234497817435
 40
1.0
 40
1.0
 40
1.0
 40
1.0
 10
827.2587030989177
 20
679.2691289437516
 30
0.0
 10
827.2848324668641
 20
679.2537742246983
 30
0.0
 10
827.3363760542579
 20
679.2234858070501
 30
0.0
 10
827.4081471167031
 20
679.1828563081359
 30
0.0
 10
827.4743327010186
 20
679.1470004845439
 30
0.0
 10
827.5346390943772
 20
679.1164426136118
 30
0.0
 10
827.6025074554333
 20
679.0852046360763
 30
0.0
 10
827.6716627196933
 20
679.0596538776854
 30
0.0
 10
827.735018590365
 20
679.0468203177693
 30
0.0
 10
827.7612321130016
 20
679.0541411578852
 30
0.0
 10
827.7742064369405
 20
679.0577645911985
 30
0.0
  0
ARC
  5
EF
330
C5
100
AcDbEntity
  8
DV2_Default
  6
Continuous
 62
     7
100
AcDbCircle
 10
827.0809537759291
 20
677.7278137167477
 30
0.0
 40
1.93659645664971
100
AcDbArc
 50
101.6688234111916
 51
119.7593273588757
  0
ARC
  5
F0
330
C5
100
AcDbEntity
  8
DV2_Default
  6
Continuous
 62
     7
100
AcDbCircle
 10
829.5161824919137
 20
678.2634365200291
 30
0.0
 40
1.386840674412911
100
AcDbArc
 50
101.088523674478
 51
124.3069812190071
  0
ARC
  5
F1
330
C5
100
AcDbEntity
  8
DV2_Default
  6
Continuous
 62
     7
100
AcDbCircle
 10
829.539168921198
 20
678.4017142519653
 30
0.0
 40
1.315262247849807
100
AcDbArc
 50
90.89968221081319
 51
125.222223474545
  0
SPLINE
  5
F2
330
C5
100
AcDbEntity
  8
DV2_Default
  6
Continuous
 62
     7
100
AcDbSpline
210
0.0
220
0.0
230
1.0
 70
     8
 71
     3
 72
    16
 73
    12
 74
     0
 42
0.000000001
 43
0.0000000001
 40
0.0
 40
0.0
 40
0.0
 40
0.0
 40
0.0625000000000004
 40
0.1250000000000001
 40
0.2499999999999996
 40
0.3749999999999991
 40
0.4999999999999986
 40
0.7499999999999976
 40
0.8749999999999969
 40
0.9374999999999966
 40
1.0
 40
1.0
 40
1.0
 40
1.0
 10
828.7805924442313
 20
679.4761799374165
 30
0.0
 10
828.7816293891728
 20
679.4735618180951
 30
0.0
 10
828.7833391602603
 20
679.4683402761233
 30
0.0
 10
828.785412237284
 20
679.4579920218005
 30
0.0
 10
828.7856579224811
 20
679.4453607574667
 30
0.0
 10
828.7827237101687
 20
679.4317031784251
 30
0.0
 10
828.7747657484862
 20
679.4161197798871
 30
0.0
 10
828.7623375792136
 20
679.4061312355195
 30
0.0
 10
828.7488442862063
 20
679.4046754754292
 30
0.0
 10
828.7407704736494
 20
679.4062680217678
 30
0.0
 10
828.7366226913832
 20
679.4079407716515
 30
0.0
 10
828.7345220579011
 20
679.4090080027856
 30
0.0
  0
ARC
  5
F3
330
C5
100
AcDbEntity
  8
DV2_Default
  6
Continuous
 62
     7
100
AcDbCircle
 10
831.6147886261171
 20
675.1241690544459
 30
0.0
 40
5.162923621088282
100
AcDbArc
 50
123.9089742495216
 51
129.2227864603058
  0
ARC
  5
F4
330
C5
100
AcDbEntity
  8
DV2_Default
  6
Continuous
 62
     7
100
AcDbCircle
 10
826.9853481576518
 20
678.0873651092415
 30
0.0
 40
1.630988963575612
100
AcDbArc
 50
102.7203414553835
 51
121.6229480712963
  0
SPLINE
  5
F5
330
C5
100
AcDbEntity
  8
DV2_Default
  6
Continuous
 62
     7
100
AcDbSpline
210
0.0
220
0.0
230
1.0
 70
     8
 71
     3
 72
    16
 73
    12
 74
     0
 42
0.000000001
 43
0.0000000001
 40
0.0
 40
0.0
 40
0.0
 40
0.0
 40
0.0625000000000023
 40
0.125000000000002
 40
0.2500000000000013
 40
0.3750000000000007
 40
0.5
 40
0.7499999999999988
 40
0.874999999999998
 40
0.9374999999999978
 40
1.0
 40
1.0
 40
1.0
 40
1.0
 10
826.1301766120856
 20
679.4761799374168
 30
0.0
 10
826.1314003050657
 20
679.4735618180821
 30
0.0
 10
826.1336344289025
 20
679.4683402760873
 30
0.0
 10
826.1373043748349
 20
679.45799202173
 30
0.0
 10
826.1404678754255
 20
679.4453607573688
 30
0.0
 10
826.1420451779267
 20
679.431703178286
 30
0.0
 10
826.1411893575802
 20
679.4161197797928
 30
0.0
 10
826.1364199856791
 20
679.4061312354379
 30
0.0
 10
826.1289956301295
 20
679.404675475399
 30
0.0
 10
826.1239638029842
 20
679.406268021755
 30
0.0
 10
826.121174327352
 20
679.4079407716464
 30
0.0
 10
826.1197089535755
 20
679.4090080027856
 30
0.0
  0
ARC
  5
F6
330
C5
100
AcDbEntity
  8
DV2_Default
  6
Continuous
 62
     7
100
AcDbCircle
 10
824.1685196650038
 20
682.4855386696594
 30
0.0
 40
3.59226084205464
100
AcDbArc
 50
291.2517975476689
 51
303.0984055813407
  0
ARC
  5
F7
330
C5
100
AcDbEntity
  8
DV2_Default
  6
Continuous
 62
     7
100
AcDbCircle
 10
824.1809266451474
 20
682.4658504640141
 30
0.0
 40
3.619829094341875
100
AcDbArc
 50
289.6942047813242
 51
302.3846456792875
  0
SPLINE
  5
F8
330
C5
100
AcDbEntity
  8
DV2_Default
  6
Continuous
 62
     7
100
AcDbSpline
210
0.0
220
0.0
230
1.0
 70
     8
 71
     3
 72
    16
 73
    12
 74
     0
 42
0.000000001
 43
0.0000000001
 40
0.0
 40
0.0
 40
0.0
 40
0.0
 40
0.0624999999999974
 40
0.1249999999999968
 40
0.2499999999999955
 40
0.3749999999999942
 40
0.4999999999999928
 40
0.7499999999999904
 40
0.8749999999999889
 40
0.9374999999999882
 40
1.0
 40
1.0
 40
1.0
 40
1.0
 10
823.8114351425076
 20
679.4761799374165
 30
0.0
 10
823.8127257997673
 20
679.4735618172681
 30
0.0
 10
823.8152655844261
 20
679.4683402738682
 30
0.0
 10
823.8201731588921
 20
679.4579920172881
 30
0.0
 10
823.8259448091625
 20
679.4453607508484
 30
0.0
 10
823.8318792290346
 20
679.4317031709981
 30
0.0
 10
823.8382093238001
 20
679.416119772916
 30
0.0
 10
823.8415656092019
 20
679.4061312305046
 30
0.0
 10
823.8409369389536
 20
679.404675473223
 30
0.0
 10
823.8394396477874
 20
679.4062680208156
 30
0.0
 10
823.8382815322106
 20
679.4079407713187
 30
0.0
 10
823.8375948591656
 20
679.4090080027856
 30
0.0
  0
ARC
  5
F9
330
C5
100
AcDbEntity
  8
DV2_Default
  6
Continuous
 62
     7
100
AcDbCircle
 10
822.2976422203043
 20
681.9865985867343
 30
0.0
 40
2.931513398597304
100
AcDbArc
 50
283.6234408761119
 51
301.0901523712661
  0
ARC
  5
FA
330
C5
100
AcDbEntity
  8
DV2_Default
  6
Continuous
 62
     7
100
AcDbCircle
 10
822.2568297169278
 20
682.1378393594539
 30
0.0
 40
3.15362315568159
100
AcDbArc
 50
282.398438403532
 51
300.0829760531734
  0
ARC
  5
FB
330
C5
100
AcDbEntity
  8
DV2_Default
  6
Continuous
 62
     7
100
AcDbCircle
 10
820.6882333881113
 20
681.7425518302432
 30
0.0
 40
2.644713273104328
100
AcDbArc
 50
279.9432560049994
 51
290.974150919509
  0
ARC
  5
FC
330
C5
100
AcDbEntity
  8
DV2_Default
  6
Continuous
 62
     7
100
AcDbCircle
 10
820.6563031664286
 20
681.9529954124829
 30
0.0
 40
2.930813981608353
100
AcDbArc
 50
278.9372960068665
 51
290.0014455792767
  0
ARC
  5
FD
330
C5
100
AcDbEntity
  8
DV2_Default
  6
Continuous
 62
     7
100
AcDbCircle
 10
819.8173283794657
 20
681.4904512302091
 30
0.0
 40
2.450494502156267
100
AcDbArc
 50
276.9116227120103
 51
283.1168598484031
  0
SPLINE
  5
FE
330
C5
100
AcDbEntity
  8
DV2_Default
  6
Continuous
 62
     7
100
AcDbSpline
210
0.0
220
0.0
230
1.0
 70
     8
 71
     3
 72
    10
 73
     6
 74
     0
 42
0.000000001
 43
0.0000000001
 40
0.0
 40
0.0
 40
0.0
 40
0.0
 40
0.2294668458537199
 40
0.658922803279031
 40
0.9999999999999998
 40
0.9999999999999998
 40
0.9999999999999998
 40
0.9999999999999998
 10
822.6159841437869
 20
679.1588160274129
 30
0.0
 10
822.6275718267226
 20
679.162256282632
 30
0.0
 10
822.6598389469732
 20
679.1729642993225
 30
0.0
 10
822.7049601641454
 20
679.1920150634305
 30
0.0
 10
822.7359017845612
 20
679.2092496574273
 30
0.0
 10
822.7488335482801
 20
679.2173347357306
 30
0.0
  0
SPLINE
  5
FF
330
C5
100
AcDbEntity
  8
DV2_Default
  6
Continuous
 62
     7
100
AcDbSpline
210
0.0
220
0.0
230
1.0
 70
     8
 71
     3
 72
     8
 73
     4
 74
     0
 42
0.000000001
 43
0.0000000001
 40
0.0
 40
0.0
 40
0.0
 40
0.0
 40
1.0
 40
1.0
 40
1.0
 40
1.0
 10
819.2108634839909
 20
679.7099119915277
 30
0.0
 10
819.2104809550386
 20
679.6928738345642
 30
0.0
 10
819.2122222359628
 20
679.6741833824821
 30
0.0
 10
819.2159788700678
 20
679.6544779177613
 30
0.0
  0
SPLINE
  5
100
330
C5
100
AcDbEntity
  8
DV2_Default
  6
Continuous
 62
     7
100
AcDbSpline
210
0.0
220
0.0
230
1.0
 70
     8
 71
     3
 72
     9
 73
     5
 74
     0
 42
0.000000001
 43
0.0000000001
 40
0.0
 40
0.0
 40
0.0
 40
0.0
 40
0.5140749914253023
 40
0.9999999999999998
 40
0.9999999999999998
 40
0.9999999999999998
 40
0.9999999999999998
 10
819.6622598554554
 20
679.1892318043319
 30
0.0
 10
819.7296340606223
 20
679.163830529102
 30
0.0
 10
819.8749376356923
 20
679.1268673404807
 30
0.0
 10
820.0407646994872
 20
679.1340660916808
 30
0.0
 10
820.1213442168835
 20
679.1375641449194
 30
0.0
  0
SPLINE
  5
101
330
C5
100
AcDbEntity
  8
DV2_Default
  6
Continuous
 62
     7
100
AcDbSpline
210
0.0
220
0.0
230
1.0
 70
     8
 71
     3
 72
    10
 73
     6
 74
     0
 42
0.000000001
 43
0.0000000001
 40
0.0
 40
0.0
 40
0.0
 40
0.0
 40
0.373991554023212
 40
0.754600465551645
 40
1.0
 40
1.0
 40
1.0
 40
1.0
 10
820.6746328163042
 20
679.7528606772102
 30
0.0
 10
820.6410075475211
 20
679.7269474814669
 30
0.0
 10
820.5904540909591
 20
679.6576726184441
 30
0.0
 10
820.5667818815623
 20
679.5453601383996
 30
0.0
 10
820.5720012003721
 20
679.4732612804549
 30
0.0
 10
820.5773495276224
 20
679.4454304967419
 30
0.0
  0
SPLINE
  5
102
330
C5
100
AcDbEntity
  8
DV2_Default
  6
Continuous
 62
     7
100
AcDbSpline
210
0.0
220
0.0
230
1.0
 70
     8
 71
     3
 72
    11
 73
     7
 74
     0
 42
0.000000001
 43
0.0000000001
 40
0.0
 40
0.0
 40
0.0
 40
0.0
 40
0.1295883249828922
 40
0.4119661550647948
 40
0.6968625595671125
 40
1.0
 40
1.0
 40
1.0
 40
1.0
 10
822.9156376298336
 20
679.7049518514707
 30
0.0
 10
822.8937220634076
 20
679.6892702622914
 30
0.0
 10
822.8294872225202
 20
679.6352860217831
 30
0.0
 10
822.7496397486351
 20
679.5297937404155
 30
0.0
 10
822.6942318613888
 20
679.3939310184242
 30
0.0
 10
822.6905569337931
 20
679.31082448132
 30
0.0
 10
822.6986094639237
 20
679.2730237391296
 30
0.0
  0
SPLINE
  5
103
330
C5
100
AcDbEntity
  8
DV2_Default
  6
Continuous
 62
     7
100
AcDbSpline
210
0.0
220
0.0
230
1.0
 70
     8
 71
     3
 72
    14
 73
    10
 74
     0
 42
0.000000001
 43
0.0000000001
 40
0.0
 40
0.0
 40
0.0
 40
0.0
 40
0.0776592775498117
 40
0.1608030465084832
 40
0.3234005641681187
 40
0.4888751549735292
 40
0.6558262533699648
 40
0.9844750293904663
 40
0.9999999999999998
 40
0.9999999999999998
 40
0.9999999999999998
 40
0.9999999999999998
 10
826.1886994620466
 20
679.7963078867788
 30
0.0
 10
826.1498049600414
 20
679.7934329702532
 30
0.0
 10
826.0692691295261
 20
679.7874801034432
 30
0.0
 10
825.9200605734669
 20
679.7445040907152
 30
0.0
 10
825.7555047773905
 20
679.6576732999177
 30
0.0
 10
825.5983564542082
 20
679.5297937921086
 30
0.0
 10
825.438315393478
 20
679.3537066534034
 30
0.0
 10
825.3752606071826
 20
679.2360779654171
 30
0.0
 10
825.3718450784853
 20
679.1845236998208
 30
0.0
 10
825.3717731514994
 20
679.1822588043783
 30
0.0
  0
SPLINE
  5
104
330
C5
100
AcDbEntity
  8
DV2_Default
  6
Continuous
 62
     7
100
AcDbSpline
210
0.0
220
0.0
230
1.0
 70
     8
 71
     3
 72
    16
 73
    12
 74
     0
 42
0.000000001
 43
0.0000000001
 40
0.0
 40
0.0
 40
0.0
 40
0.0
 40
0.2137429852414339
 40
0.2850427972598891
 40
0.4124022410106396
 40
0.5230356694670247
 40
0.6103272263439338
 40
0.7232225499308758
 40
0.8251398676590547
 40
0.9169862402742818
 40
1.0
 40
1.0
 40
1.0
 40
1.0
 10
830.5312017584386
 20
679.2732345063313
 30
0.0
 10
830.48652255187
 20
679.3110686751906
 30
0.0
 10
830.4169418083848
 20
679.3677445765888
 30
0.0
 10
830.3026945001699
 20
679.4574009343055
 30
0.0
 10
830.2091853459042
 20
679.5253718546049
 30
0.0
 10
830.1017836907178
 20
679.5957202851266
 30
0.0
 10
829.991830440073
 20
679.6595586901022
 30
0.0
 10
829.8768560510302
 20
679.7148608398932
 30
0.0
 10
829.7517438424392
 20
679.7594511435301
 30
0.0
 10
829.6329205709247
 20
679.7887596312781
 30
0.0
 10
829.5553518664345
 20
679.7938792053545
 30
0.0
 10
829.5185266066651
 20
679.7963096912898
 30
0.0
  0
SPLINE
  5
105
330
C5
100
AcDbEntity
  8
DV2_Default
  6
Continuous
 62
     7
100
AcDbSpline
210
0.0
220
0.0
230
1.0
 70
     8
 71
     3
 72
    17
 73
    13
 74
     0
 42
0.000000001
 43
0.0000000001
 40
0.0
 40
0.0
 40
0.0
 40
0.0
 40
0.0312499999974556
 40
0.0624999999975997
 40
0.1249999999978879
 40
0.2499999999984644
 40
0.3749999999990409
 40
0.4999999999996174
 40
0.7500000000007705
 40
0.8750000000013468
 40
0.9375000000016353
 40
1.0
 40
1.0
 40
1.0
 40
1.0
 10
830.6877309078435
 20
679.1375662557563
 30
0.0
 10
830.6877169159067
 20
679.1364578566316
 30
0.0
 10
830.6877751817999
 20
679.1342251049242
 30
0.0
 10
830.6882237057571
 20
679.1297061637798
 30
0.0
 10
830.6898459666864
 20
679.1216849684955
 30
0.0
 10
830.6943608353886
 20
679.1100587339484
 30
0.0
 10
830.7026877536076
 20
679.0965579643242
 30
0.0
 10
830.7168454266646
 20
679.0799303636704
 30
0.0
 10
830.7343590788489
 20
679.0666311529317
 30
0.0
 10
830.7504697228674
 20
679.0600854092692
 30
0.0
 10
830.7595935246865
 20
679.0581104602639
 30
0.0
 10
830.7640766350214
 20
679.0577645916129
 30
0.0
 10
830.7662857625585
 20
679.0577645911985
 30
0.0
  0
SPLINE
  5
106
330
C5
100
AcDbEntity
  8
DV2_Default
  6
Continuous
 62
     7
100
AcDbSpline
210
0.0
220
0.0
230
1.0
 70
     8
 71
     3
 72
    16
 73
    12
 74
     0
 42
0.000000001
 43
0.0000000001
 40
0.0
 40
0.0
 40
0.0
 40
0.0
 40
0.0625000000008413
 40
0.1250000000007839
 40
0.2500000000006691
 40
0.3750000000005542
 40
0.5000000000004395
 40
0.7500000000002097
 40
0.8750000000000948
 40
0.9375000000000374
 40
1.0
 40
1.0
 40
1.0
 40
1.0
 10
835.2255988052576
 20
679.4761799374166
 30
0.0
 10
835.2243081478277
 20
679.4735618169225
 30
0.0
 10
835.2217683628596
 20
679.4683402729003
 30
0.0
 10
835.2168607878921
 20
679.4579920153315
 30
0.0
 10
835.2110891372015
 20
679.4453607480996
 30
0.0
 10
835.2051547171102
 20
679.4317031678943
 30
0.0
 10
835.1988246223736
 20
679.4161197699784
 30
0.0
 10
835.1954683373923
 20
679.4061312284625
 30
0.0
 10
835.1960970081941
 20
679.4046754722002
 30
0.0
 10
835.1975942997073
 20
679.4062680203851
 30
0.0
 10
835.1987524154639
 20
679.4079407711777
 30
0.0
 10
835.1994390885986
 20
679.4090080027856
 30
0.0
  0
SPLINE
  5
107
330
C5
100
AcDbEntity
  8
DV2_Default
  6
Continuous
 62
     7
100
AcDbSpline
210
0.0
220
0.0
230
1.0
 70
     8
 71
     3
 72
    10
 73
     6
 74
     0
 42
0.000000001
 43
0.0000000001
 40
0.0
 40
0.0
 40
0.0
 40
0.0
 40
0.122075055327148
 40
0.5707397608214472
 40
1.0
 40
1.0
 40
1.0
 40
1.0
 10
836.2881717910171
 20
679.2169019382567
 30
0.0
 10
836.2955547095916
 20
679.2122906517751
 30
0.0
 10
836.3311726444397
 20
679.1913851554843
 30
0.0
 10
836.4023798531343
 20
679.1601555528227
 30
0.0
 10
836.4797790890541
 20
679.1449848036505
 30
0.0
 10
836.5176233429677
 20
679.1375670859314
 30
0.0
  0
ARC
  5
108
330
C5
100
AcDbEntity
  8
DV2_Default
  6
Continuous
 62
     7
100
AcDbCircle
 10
839.2208936540981
 20
681.4938282318113
 30
0.0
 40
2.453990056823732
100
AcDbArc
 50
252.8844674816814
 51
263.0703276535556
  0
SPLINE
  5
109
330
C5
100
AcDbEntity
  8
DV2_Default
  6
Continuous
 62
     7
100
AcDbSpline
210
0.0
220
0.0
230
1.0
 70
     8
 71
     3
 72
     8
 73
     4
 74
     0
 42
0.000000001
 43
0.0000000001
 40
0.0
 40
0.0
 40
0.0
 40
0.0
 40
1.0
 40
1.0
 40
1.0
 40
1.0
 10
839.8208339131265
 20
679.653427794203
 30
0.0
 10
839.8247602059216
 20
679.6734362441732
 30
0.0
 10
839.826664552868
 20
679.6922780372701
 30
0.0
 10
839.8263019342357
 20
679.7093498494592
 30
0.0
  0
ARC
  5
10A
330
C5
100
AcDbEntity
  8
DV2_Default
  6
Continuous
 62
     7
100
AcDbCircle
 10
838.3870231072922
 20
681.970909015397
 30
0.0
 40
2.949489627014165
100
AcDbArc
 50
247.9592666743075
 51
260.9960158770899
  0
ARC
  5
10B
330
C5
100
AcDbEntity
  8
DV2_Default
  6
Continuous
 62
     7
100
AcDbCircle
 10
838.3518513926903
 20
681.7507208462386
 30
0.0
 40
2.653286571611368
100
AcDbArc
 50
246.4231963515811
 51
260.022087834242
  0
SPLINE
  5
10C
330
C5
100
AcDbEntity
  8
DV2_Default
  6
Continuous
 62
     7
100
AcDbSpline
210
0.0
220
0.0
230
1.0
 70
     8
 71
     3
 72
    12
 73
     8
 74
     0
 42
0.000000001
 43
0.0000000001
 40
0.0
 40
0.0
 40
0.0
 40
0.0
 40
0.2382419912971744
 40
0.4452412597768573
 40
0.6085562651392049
 40
0.8197807403456238
 40
1.0
 40
1.0
 40
1.0
 40
1.0
 10
838.4594643430968
 20
679.4452658429774
 30
0.0
 10
838.4648055511892
 20
679.4730568882843
 30
0.0
 10
838.4689251323321
 20
679.5253556992979
 30
0.0
 10
838.459561113742
 20
679.5957013969748
 30
0.0
 10
838.4384483512629
 20
679.659542003552
 30
0.0
 10
838.4059608066117
 20
679.7138207265576
 30
0.0
 10
838.3730602417438
 20
679.7444488873879
 30
0.0
 10
838.3558512149553
 20
679.7566726549322
 30
0.0
  0
ARC
  5
10D
330
C5
100
AcDbEntity
  8
DV2_Default
  6
Continuous
 62
     7
100
AcDbCircle
 10
836.8169244906914
 20
682.232312139862
 30
0.0
 40
3.253813929990827
100
AcDbArc
 50
240.1913838372689
 51
257.3272193054064
  0
SPLINE
  5
10E
330
C5
100
AcDbEntity
  8
DV2_Default
  6
Continuous
 62
     7
100
AcDbSpline
210
0.0
220
0.0
230
1.0
 70
    12
 71
     3
 72
     8
 73
     4
 74
     0
 42
0.000000001
 43
0.0000000001
 40
0.0
 40
0.0
 40
0.0
 40
0.0
 40
1.0
 40
1.0
 40
1.0
 40
1.0
 10
836.0488997519126
 20
679.1375658231924
 30
0.0
 41
1.577083436267903
 10
836.0459651924548
 20
679.0952456223944
 30
0.0
 41
1.123341374539763
 10
836.0650145101294
 20
679.0579281958352
 30
0.0
 41
0.9371713556596583
 10
836.1030938890076
 20
679.0577647763624
 30
0.0
 41
1.018573379627595
  0
ARC
  5
10F
330
C5
100
AcDbEntity
  8
DV2_Default
  6
Continuous
 62
     7
100
AcDbCircle
 10
836.7476872686875
 20
682.0067739200217
 30
0.0
 40
2.953076209059156
100
AcDbArc
 50
238.9741523068155
 51
256.3122529740605
  0
SPLINE
  5
110
330
C5
100
AcDbEntity
  8
DV2_Default
  6
Continuous
 62
     7
100
AcDbSpline
210
0.0
220
0.0
230
1.0
 70
    12
 71
     3
 72
     8
 73
     4
 74
     0
 42
0.000000001
 43
0.0000000001
 40
0.0
 40
0.0
 40
0.0
 40
0.0
 40
1.0
 40
1.0
 40
1.0
 40
1.0
 10
835.1994391055436
 20
679.4090080259141
 30
0.0
 41
1.220044308188051
 10
835.1835403474654
 20
679.3842980508619
 30
0.0
 41
0.873777263663063
 10
835.1977077495906
 20
679.4196024724525
 30
0.0
 41
0.9361808652163571
 10
835.2255988079155
 20
679.4761799553374
 30
0.0
 41
1.407255112847912
  0
ARC
  5
111
330
C5
100
AcDbEntity
  8
DV2_Default
  6
Continuous
 62
     7
100
AcDbCircle
 10
834.9474702442073
 20
682.6528455718796
 30
0.0
 40
3.82674429650536
100
AcDbArc
 50
237.9597420992051
 51
249.9614074402437
  0
ARC
  5
112
330
C5
100
AcDbEntity
  8
DV2_Default
  6
Continuous
 62
     7
100
AcDbCircle
 10
834.8902950277491
 20
682.5279624524301
 30
0.0
 40
3.639698009075022
100
AcDbArc
 50
236.9790486003853
 51
248.6705627810375
  0
SPLINE
  5
113
330
C5
100
AcDbEntity
  8
DV2_Default
  6
Continuous
 62
     7
100
AcDbSpline
210
0.0
220
0.0
230
1.0
 70
     8
 71
     3
 72
    18
 73
    14
 74
     0
 42
0.000000001
 43
0.0000000001
 40
0.0
 40
0.0
 40
0.0
 40
0.0
 40
0.0172523088546648
 40
0.1677953243020193
 40
0.3456451411067525
 40
0.404999586533993
 40
0.5109683609166732
 40
0.6030440432804777
 40
0.6756874455198223
 40
0.7696418899530392
 40
0.8544630467868788
 40
0.9309056616366431
 40
1.0
 40
1.0
 40
1.0
 40
1.0
 10
833.66512162931
 20
679.1823364049573
 30
0.0
 10
833.6650960004011
 20
679.184773774879
 30
0.0
 10
833.6638501018429
 20
679.2092531283773
 30
0.0
 10
833.6415646329276
 20
679.2750960364339
 30
0.0
 10
833.5791961414205
 20
679.3677317061617
 30
0.0
 10
833.5049808448699
 20
679.4573781829599
 30
0.0
 10
833.4390895535488
 20
679.5253506543428
 30
0.0
 10
833.3574890783197
 20
679.5956961645853
 30
0.0
 10
833.26953994763
 20
679.6595375563351
 30
0.0
 10
833.1733633718984
 20
679.714841733414
 30
0.0
 10
833.0638913790268
 20
679.7594364466174
 30
0.0
 10
832.9562482701543
 20
679.7887506178359
 30
0.0
 10
832.8830898489769
 20
679.7938760244955
 30
0.0
 10
832.8483575518156
 20
679.7963093348966
 30
0.0
  0
ARC
  5
114
330
C5
100
AcDbEntity
  8
DV2_Default
  6
Continuous
 62
     7
100
AcDbCircle
 10
832.0681379925975
 20
678.1409890521928
 30
0.0
 40
1.576764039558379
100
AcDbArc
 50
57.86442545423574
 51
74.32239697719871
  0
ARC
  5
115
330
C5
100
AcDbEntity
  8
DV2_Default
  6
Continuous
 62
     7
100
AcDbCircle
 10
831.249816888646
 20
679.1503782794327
 30
0.0
 40
0.0935231069701957
100
AcDbArc
 50
277.9967343417924
 51
352.1248054113535
  0
SPLINE
  5
116
330
C5
100
AcDbEntity
  8
DV2_Default
  6
Continuous
 62
     7
100
AcDbSpline
210
0.0
220
0.0
230
1.0
 70
     8
 71
     3
 72
    15
 73
    11
 74
     0
 42
0.000000001
 43
0.0000000001
 40
0.0
 40
0.0
 40
0.0
 40
0.0
 40
0.0594399338503759
 40
0.1230769808193438
 40
0.2475253491474295
 40
0.374175254397503
 40
0.5019547746987103
 40
0.7534922025546824
 40
0.8802161271223637
 40
1.0
 40
1.0
 40
1.0
 40
1.0
 10
832.8483575518156
 20
679.7963093348966
 30
0.0
 10
832.8087172364051
 20
679.7934339989032
 30
0.0
 10
832.7266375633067
 20
679.7874802965692
 30
0.0
 10
832.5608062282727
 20
679.7445034642334
 30
0.0
 10
832.3579122644529
 20
679.6576720993316
 30
0.0
 10
832.1305912941927
 20
679.5297932929713
 30
0.0
 10
831.8481822475451
 20
679.3537079862565
 30
0.0
 10
831.5940573616579
 20
679.2015495522039
 30
0.0
 10
831.4125577905278
 20
679.1268673026993
 30
0.0
 10
831.3653818529555
 20
679.1340660877883
 30
0.0
 10
831.3424579675146
 20
679.1375641449165
 30
0.0
  0
SPLINE
  5
117
330
C5
100
AcDbEntity
  8
DV2_Default
  6
Continuous
 62
     7
100
AcDbSpline
210
0.0
220
0.0
230
1.0
 70
     8
 71
     3
 72
    13
 73
     9
 74
     0
 42
0.000000001
 43
0.0000000001
 40
0.0
 40
0.0
 40
0.0
 40
0.0
 40
0.1114830551759996
 40
0.2484297864084077
 40
0.3975637787432891
 40
0.5645635572086625
 40
0.8759084708872151
 40
0.9999999999999998
 40
0.9999999999999998
 40
0.9999999999999998
 40
0.9999999999999998
 10
835.8522061462156
 20
679.7963093612213
 30
0.0
 10
835.7942168199144
 20
679.7890131370068
 30
0.0
 10
835.6649927314339
 20
679.7727541609496
 30
0.0
 10
835.4466032017333
 20
679.6755295177242
 30
0.0
 10
835.2019215085514
 20
679.5410371505542
 30
0.0
 10
834.8626375455792
 20
679.3476608469716
 30
0.0
 10
834.534390161682
 20
679.1889898338265
 30
0.0
 10
834.3358186740474
 20
679.1390908164685
 30
0.0
 10
834.2863454999008
 20
679.1342472397632
 30
0.0
  0
SPLINE
  5
118
330
C5
100
AcDbEntity
  8
DV2_Default
  6
Continuous
 62
     7
100
AcDbSpline
210
0.0
220
0.0
230
1.0
 70
     8
 71
     3
 72
    13
 73
     9
 74
     0
 42
0.000000001
 43
0.0000000001
 40
0.0
 40
0.0
 40
0.0
 40
0.0
 40
0.2990804931905694
 40
0.4037442150111508
 40
0.5770501240395792
 40
0.7338604009341044
 40
0.8563031507035303
 40
1.0
 40
1.0
 40
1.0
 40
1.0
 10
836.3387445325454
 20
679.2722355279182
 30
0.0
 10
836.3468407133682
 20
679.3097273688628
 30
0.0
 10
836.3442315842672
 20
679.3665511964239
 30
0.0
 10
836.3178269835815
 20
679.4551032760383
 30
0.0
 10
836.2864015920012
 20
679.5227254187059
 30
0.0
 10
836.2397201599636
 20
679.592161173816
 30
0.0
 10
836.1849449012995
 20
679.6542716708549
 30
0.0
 10
836.1433329757604
 20
679.6896654964623
 30
0.0
 10
836.1186576714136
 20
679.7070491098142
 30
0.0
  0
SPLINE
  5
119
330
C5
100
AcDbEntity
  8
DV2_Default
  6
Continuous
 62
     7
100
AcDbSpline
210
0.0
220
0.0
230
1.0
 70
     8
 71
     3
 72
     8
 73
     4
 74
     0
 42
0.000000001
 43
0.0000000001
 40
0.0
 40
0.0
 40
0.0
 40
0.0
 40
1.0
 40
1.0
 40
1.0
 40
1.0
 10
836.7206628127389
 20
679.1374976711781
 30
0.0
 10
836.6494537254856
 20
679.1305680999848
 30
0.0
 10
836.5835447598712
 20
679.1340661224547
 30
0.0
 10
836.5176357942566
 20
679.1375641449244
 30
0.0
  0
SPLINE
  5
11A
330
C5
100
AcDbEntity
  8
DV2_Default
  6
Continuous
 62
     7
100
AcDbSpline
210
0.0
220
0.0
230
1.0
 70
     8
 71
     3
 72
     9
 73
     5
 74
     0
 42
0.000000001
 43
0.0000000001
 40
0.0
 40
0.0
 40
0.0
 40
0.0
 40
0.1288993620320126
 40
1.0
 40
1.0
 40
1.0
 40
1.0
 10
838.7266798787381
 20
679.2009225548099
 30
0.0
 10
838.7142019102183
 20
679.1968907293799
 30
0.0
 10
838.6169436142695
 20
679.166643259667
 30
0.0
 10
838.5164082462919
 20
679.1448291492628
 30
0.0
 10
838.4310699980506
 20
679.1374979093514
 30
0.0
  0
LINE
  5
11B
330
C5
100
AcDbEntity
  8
DV2_Default
  6
Continuous
 62
     7
100
AcDbLine
 10
818.3185169738825
 20
681.5806247022954
 30
0.0
 11
818.3185169738825
 21
680.5546247022954
 31
0.0
  0
LINE
  5
11C
330
C5
100
AcDbEntity
  8
DV2_Default
  6
Continuous
 62
     7
100
AcDbLine
 10
840.7185169738825
 20
680.5546247022954
 30
0.0
 11
840.7185169738825
 21
681.5806247022954
 31
0.0
  0
ARC
  5
11D
330
C5
100
AcDbEntity
  8
DV2_Default
  6
Continuous
 62
     7
100
AcDbCircle
 10
839.2263950226626
 20
680.4506247022954
 30
0.0
 40
1.399999999999992
100
AcDbArc
 50
330.4067276589342
 51
340.6753270510553
  0
ARC
  5
11E
330
C5
100
AcDbEntity
  8
DV2_Default
  6
Continuous
 62
     7
100
AcDbCircle
 10
819.8106389251025
 20
680.4506247022954
 30
0.0
 40
1.400000000000254
100
AcDbArc
 50
199.3246729489504
 51
209.5727414788021
  0
LINE
  5
11F
330
C5
100
AcDbEntity
  8
DV2_Default
  6
Continuous
 62
     7
100
AcDbLine
 10
839.0629518594785
 20
679.0506247022955
 30
0.0
 11
839.1436111283477
 21
679.0506247022955
 31
0.0
  0
LINE
  5
120
330
C5
100
AcDbEntity
  8
DV2_Default
  6
Continuous
 62
     7
100
AcDbLine
 10
838.0478232573874
 20
679.0506247022955
 30
0.0
 11
838.2815355781668
 21
679.0506247022955
 31
0.0
  0
LINE
  5
121
330
C5
100
AcDbEntity
  8
DV2_Default
  6
Continuous
 62
     7
100
AcDbLine
 10
836.198029569798
 20
679.0506247022955
 30
0.0
 11
836.5616297920558
 21
679.0506247022955
 31
0.0
  0
LINE
  5
122
330
C5
100
AcDbEntity
  8
DV2_Default
  6
Continuous
 62
     7
100
AcDbLine
 10
833.6944096238632
 20
679.0506247022955
 30
0.0
 11
834.1522872738647
 21
679.0506247022955
 31
0.0
  0
LINE
  5
123
330
C5
100
AcDbEntity
  8
DV2_Default
  6
Continuous
 62
     7
100
AcDbLine
 10
830.7821458880788
 20
679.0506247022955
 30
0.0
 11
831.2893781894544
 21
679.0506247022955
 31
0.0
  0
LINE
  5
124
330
C5
100
AcDbEntity
  8
DV2_Default
  6
Continuous
 62
     7
100
AcDbLine
 10
827.746209270986
 20
679.0506247022955
 30
0.0
 11
828.2531563005083
 21
679.0506247022955
 31
0.0
  0
LINE
  5
125
330
C5
100
AcDbEntity
  8
DV2_Default
  6
Continuous
 62
     7
100
AcDbLine
 10
824.8837004392582
 20
679.0506247022953
 30
0.0
 11
825.3408256395736
 21
679.0506247022953
 31
0.0
  0
LINE
  5
126
330
C5
100
AcDbEntity
  8
DV2_Default
  6
Continuous
 62
     7
100
AcDbLine
 10
822.4747826196132
 20
679.0506247022953
 30
0.0
 11
822.8374456784285
 21
679.0506247022953
 31
0.0
  0
LINE
  5
127
330
C5
100
AcDbEntity
  8
DV2_Default
  6
Continuous
 62
     7
100
AcDbLine
 10
820.7552446200979
 20
679.0506247022953
 30
0.0
 11
820.9880355880205
 21
679.0506247022953
 31
0.0
  0
LINE
  5
128
330
C5
100
AcDbEntity
  8
DV2_Default
  6
Continuous
 62
     7
100
AcDbLine
 10
819.8933877534583
 20
679.0506247022953
 30
0.0
 11
819.9735935018104
 21
679.0506247022953
 31
0.0
  0
ARC
  5
129
330
C5
100
AcDbEntity
  8
DV2_Default
  6
Continuous
 62
     7
100
AcDbCircle
 10
836.6785169738827
 20
681.3441108233644
 30
0.0
 40
4.100000000000066
100
AcDbArc
 50
340.6753270510525
 51
345.7153084057442
  0
ARC
  5
12A
330
C5
100
AcDbEntity
  8
DV2_Default
  6
Continuous
 62
     7
100
AcDbCircle
 10
822.3585169738825
 20
681.3441108233644
 30
0.0
 40
4.099999999999113
100
AcDbArc
 50
194.2846915942554
 51
199.3246729489471
  0
ARC
  5
12B
330
C5
100
AcDbEntity
  8
DV2_Default
  6
Continuous
 62
     7
100
AcDbCircle
 10
840.9230947784024
 20
680.2633891841925
 30
0.0
 40
0.2800000000007674
100
AcDbArc
 50
150.9618068832152
 51
165.7153084057984
  0
ARC
  5
12C
330
C5
100
AcDbEntity
  8
DV2_Default
  6
Continuous
 62
     7
100
AcDbCircle
 10
818.1139391693625
 20
680.2633891841925
 30
0.0
 40
0.2799999999988007
100
AcDbArc
 50
14.28469159420898
 51
29.03819311677107
  0
ARC
  5
12D
330
C5
100
AcDbEntity
  8
DV2_Default
  6
Continuous
 62
     7
100
AcDbCircle
 10
840.3985169738826
 20
680.5546247022954
 30
0.0
 40
0.3200000000011158
100
AcDbArc
 50
330.9618068834654
 51
0.0
  0
ARC
  5
12E
330
C5
100
AcDbEntity
  8
DV2_Default
  6
Continuous
 62
     7
100
AcDbCircle
 10
818.6385169738825
 20
680.5546247022954
 30
0.0
 40
0.319999999999987
100
AcDbArc
 50
180.0
 51
209.0381931165443
  0
LINE
  5
12F
330
C5
100
AcDbEntity
  8
DV2_Default
  6
Continuous
 62
     7
100
AcDbLine
 10
820.5185169738825
 20
791.8806247022953
 30
0.0
 11
820.5185169738825
 21
791.5806247022953
 31
0.0
  0
LINE
  5
130
330
C5
100
AcDbEntity
  8
DV2_Default
  6
Continuous
 62
     7
100
AcDbLine
 10
838.5185169738825
 20
791.5806247022954
 30
0.0
 11
838.5185169738825
 21
791.8806247022954
 31
0.0
  0
LINE
  5
131
330
C5
100
AcDbEntity
  8
DV2_Default
  6
Continuous
 62
     7
100
AcDbLine
 10
815.8185169738825
 20
681.5806247022954
 30
0.0
 11
843.2185169738826
 21
681.5806247022954
 31
0.0
  0
LINE
  5
132
330
C5
100
AcDbEntity
  8
DV2_Default
  6
Continuous
 62
     7
100
AcDbLine
 10
816.0185169738827
 20
791.5806247022953
 30
0.0
 11
843.0185169738825
 21
791.5806247022953
 31
0.0
  0
LINE
  5
133
330
C5
100
AcDbEntity
  8
DV2_Default
  6
Continuous
 62
     7
100
AcDbLine
 10
829.0185169738826
 20
766.0806247022954
 30
0.0
 11
816.5185169738826
 21
766.0806247022954
 31
0.0
  0
ARC
  5
134
330
C5
100
AcDbEntity
  8
DV2_Default
  6
Continuous
 62
     7
100
AcDbCircle
 10
829.0185169738826
 20
766.5806247022954
 30
0.0
 40
0.4999999999999753
100
AcDbArc
 50
270.0
 51
0.0
  0
LINE
  5
135
330
C5
100
AcDbEntity
  8
DV2_Default
  6
Continuous
 62
     7
100
AcDbLine
 10
829.5185169738825
 20
766.5806247022954
 30
0.0
 11
829.5185169738825
 21
789.0806247022955
 31
0.0
  0
ARC
  5
136
330
C5
100
AcDbEntity
  8
DV2_Default
  6
Continuous
 62
     7
100
AcDbCircle
 10
829.0185169738824
 20
789.0806247022955
 30
0.0
 40
0.5000000000000148
100
AcDbArc
 50
0.0
 51
89.99999999998697
  0
LINE
  5
137
330
C5
100
AcDbEntity
  8
DV2_Default
  6
Continuous
 62
     7
100
AcDbLine
 10
829.0185169738826
 20
789.5806247022954
 30
0.0
 11
816.5185169738826
 21
789.5806247022954
 31
0.0
  0
LINE
  5
138
330
C5
100
AcDbEntity
  8
DV2_Default
  6
Continuous
 62
     7
100
AcDbLine
 10
843.5185169738826
 20
681.8806247022954
 30
0.0
 11
843.5185169738826
 21
791.0806247022954
 31
0.0
  0
LINE
  5
139
330
C5
100
AcDbEntity
  8
DV2_Default
  6
Continuous
 62
     7
100
AcDbLine
 10
815.5185169738825
 20
707.0905719705182
 30
0.0
 11
815.5185169738825
 21
681.8806247022953
 31
0.0
  0
LINE
  5
13A
330
C5
100
AcDbEntity
  8
DV2_Default
  6
Continuous
 62
     7
100
AcDbLine
 10
815.5185169738825
 20
765.0806247022954
 30
0.0
 11
815.5185169738825
 21
740.4878724528655
 31
0.0
  0
LINE
  5
13B
330
C5
100
AcDbEntity
  8
DV2_Default
  6
Continuous
 62
     7
100
AcDbLine
 10
815.5185169738825
 20
791.0806247022954
 30
0.0
 11
815.5185169738825
 21
790.5806247022955
 31
0.0
  0
SPLINE
  5
13C
330
C5
100
AcDbEntity
  8
DV2_Default
  6
Continuous
 62
     7
100
AcDbSpline
210
0.0
220
0.0
230
1.0
 70
     8
 71
     3
 72
    13
 73
     9
 74
     0
 42
0.000000001
 43
0.0000000001
 40
0.0
 40
0.0
 40
0.0
 40
0.0
 40
0.2425259712382422
 40
0.3721279022268261
 40
0.5000000000000937
 40
0.6278720977733724
 40
0.7574740287619343
 40
1.0
 40
1.0
 40
1.0
 40
1.0
 10
815.5185169738825
 20
681.8806247022954
 30
0.0
 10
815.5194058286221
 20
681.8373900138531
 30
0.0
 10
815.522144504378
 20
681.7808269939646
 30
0.0
 10
815.5537333031956
 20
681.7041143365338
 30
0.0
 10
815.5913551056979
 20
681.6534628341104
 30
0.0
 10
815.6420066081212
 20
681.6158410316084
 30
0.0
 10
815.7187192655518
 20
681.5842522327906
 30
0.0
 10
815.7752822854405
 20
681.581513557035
 30
0.0
 10
815.8185169738827
 20
681.5806247022954
 30
0.0
  0
SPLINE
  5
13D
330
C5
100
AcDbEntity
  8
DV2_Default
  6
Continuous
 62
     7
100
AcDbSpline
210
0.0
220
0.0
230
1.0
 70
     8
 71
     3
 72
    13
 73
     9
 74
     0
 42
0.000000001
 43
0.0000000001
 40
0.0
 40
0.0
 40
0.0
 40
0.0
 40
0.242525971238046
 40
0.3721279022266228
 40
0.4999999999998945
 40
0.6278720977731439
 40
0.7574740287617207
 40
1.0
 40
1.0
 40
1.0
 40
1.0
 10
843.2185169738826
 20
681.5806247022954
 30
0.0
 10
843.2617516623245
 20
681.5815135570349
 30
0.0
 10
843.3183146822134
 20
681.5842522327906
 30
0.0
 10
843.3950273396437
 20
681.6158410316083
 30
0.0
 10
843.4456788420677
 20
681.6534628341105
 30
0.0
 10
843.4833006445694
 20
681.7041143365339
 30
0.0
 10
843.5148894433874
 20
681.7808269939645
 30
0.0
 10
843.5176281191429
 20
681.8373900138531
 30
0.0
 10
843.5185169738826
 20
681.8806247022954
 30
0.0
  0
ARC
  5
13E
330
C5
100
AcDbEntity
  8
DV2_Default
  6
Continuous
 62
     7
100
AcDbCircle
 10
802.664761137273
 20
715.4231031505485
 30
0.0
 40
15.23223451481863
100
AcDbArc
 50
327.7056443721073
 51
357.9914039762024
  0
SPLINE
  5
13F
330
C5
100
AcDbEntity
  8
DV2_Default
  6
Continuous
 62
     7
100
AcDbSpline
210
0.0
220
0.0
230
1.0
 70
     8
 71
     3
 72
     9
 73
     5
 74
     0
 42
0.000000001
 43
0.0000000001
 40
0.0
 40
0.0
 40
0.0
 40
0.0
 40
0.8392280892373435
 40
1.0
 40
1.0
 40
1.0
 40
1.0
 10
815.5409145596022
 20
707.2849881043954
 30
0.0
 10
815.5609901336401
 20
707.3387429342768
 30
0.0
 10
815.5828119950164
 20
707.39303505687
 30
0.0
 10
815.6219570286843
 20
707.4410581918754
 30
0.0
 10
815.6286147021761
 20
707.4485477002327
 30
0.0
  0
ARC
  5
140
330
C5
100
AcDbEntity
  8
DV2_Default
  6
Continuous
 62
     7
100
AcDbCircle
 10
816.1681776598463
 20
707.1145136714721
 30
0.0
 40
0.6501473740455158
100
AcDbArc
 50
164.8393609249858
 51
182.2286645690203
  0
ARC
  5
141
330
C5
100
AcDbEntity
  8
DV2_Default
  6
Continuous
 62
     7
100
AcDbCircle
 10
816.1681775695637
 20
740.463930760151
 30
0.0
 40
0.6501472835742569
100
AcDbArc
 50
177.7713356782173
 51
195.1606385264124
  0
ARC
  5
142
330
C5
100
AcDbEntity
  8
DV2_Default
  6
Continuous
 62
     7
100
AcDbCircle
 10
802.663639617312
 20
732.1555065570171
 30
0.0
 40
15.2333495359131
100
AcDbArc
 50
2.007824958472742
 51
32.29492371375715
  0
LINE
  5
143
330
C5
100
AcDbEntity
  8
DV2_Default
  6
Continuous
 62
     7
100
AcDbLine
 10
817.8865535887151
 20
732.6892219552783
 30
0.0
 11
817.8865535887151
 21
714.8892219552752
 31
0.0
  0
ARC
  5
144
330
C5
100
AcDbEntity
  8
DV2_Default
  6
Continuous
 62
     7
100
AcDbCircle
 10
843.0185169738825
 20
791.0806247022954
 30
0.0
 40
0.5000000000000005
100
AcDbArc
 50
0.0
 51
90.0
  0
ARC
  5
145
330
C5
100
AcDbEntity
  8
DV2_Default
  6
Continuous
 62
     7
100
AcDbCircle
 10
816.0185169738824
 20
791.0806247022954
 30
0.0
 40
0.5000000000000005
100
AcDbArc
 50
90.0
 51
180.0
  0
ARC
  5
146
330
C5
100
AcDbEntity
  8
DV2_Default
  6
Continuous
 62
     7
100
AcDbCircle
 10
816.5185169738826
 20
790.5806247022955
 30
0.0
 40
1.0
100
AcDbArc
 50
180.0
 51
270.0
  0
ARC
  5
147
330
C5
100
AcDbEntity
  8
DV2_Default
  6
Continuous
 62
     7
100
AcDbCircle
 10
816.5185169738826
 20
765.0806247022954
 30
0.0
 40
1.0
100
AcDbArc
 50
90.0
 51
180.0
  0
ARC
  5
148
330
C5
100
AcDbEntity
  8
DV2_Default
  6
Continuous
 62
     7
100
AcDbCircle
 10
818.9685169738824
 20
789.0806247022955
 30
0.0
 40
0.5000000000000005
100
AcDbArc
 50
39.93041656382477
 51
90.0
  0
LINE
  5
149
330
C5
100
AcDbEntity
  8
DV2_Default
  6
Continuous
 62
     7
100
AcDbLine
 10
817.8181387530525
 20
714.9306247015845
 30
0.0
 11
817.8865535887151
 21
714.9306247016059
 31
0.0
  0
LINE
  5
14A
330
C5
100
AcDbEntity
  8
DV2_Default
  6
Continuous
 62
     7
100
AcDbLine
 10
817.8181387530523
 20
732.7306247022955
 30
0.0
 11
816.9077667183586
 21
732.7306247022955
 31
0.0
  0
ELLIPSE
  5
14B
330
C5
100
AcDbEntity
  8
DV2_Default
  6
Continuous
 62
     7
100
AcDbEllipse
 10
817.8181377180726
 20
714.9328480416975
 30
0.0
 11
0.9999995266006253
 21
-0.0010100814730185
 31
0.0
210
0.0
220
0.0
230
1.0
 40
0.0022238760011682
 41
3.568212384780533
 42
4.712392261110313
  0
ARC
  5
14C
330
C5
100
AcDbEntity
  8
DV2_Default
  6
Continuous
 62
     7
100
AcDbCircle
 10
816.5185194281745
 20
709.3641473993648
 30
0.0
 40
0.9999998304525481
100
AcDbArc
 50
180.0002401019989
 51
253.9966049290294
  0
ARC
  5
14D
330
C5
100
AcDbEntity
  8
DV2_Default
  6
Continuous
 62
     7
100
AcDbCircle
 10
816.5185194367746
 20
738.297101990316
 30
0.0
 40
0.9999998298598601
100
AcDbArc
 50
106.0033947256689
 51
179.9997590441945
  0
LINE
  5
14E
330
C5
100
AcDbEntity
  8
DV2_Default
  6
Continuous
 62
     7
100
AcDbLine
 10
815.5185169738825
 20
738.3037662173405
 30
0.0
 11
815.5185169738825
 21
709.3583490166662
 31
0.0
  0
LINE
  5
14F
330
C5
100
AcDbEntity
  8
DV2_Default
  6
Continuous
 62
     7
100
AcDbLine
 10
815.5185169738826
 20
791.8806247022953
 30
0.0
 11
843.5185169738826
 21
791.8806247022953
 31
0.0
  0
ARC
  5
150
330
C5
100
AcDbEntity
  8
DV2_Default
  6
Continuous
 62
     7
100
AcDbCircle
 10
802.9090782162167
 20
804.66067099072
 30
0.0
 40
13.49871704007829
100
AcDbArc
 50
344.6203627962262
 51
10.32738747648699
  0
LINE
  5
151
330
C5
100
AcDbEntity
  8
DV2_Default
  6
Continuous
 62
     7
100
AcDbLine
 10
575.5185169738827
 20
791.8306247022956
 30
0.0
 11
603.5185169738826
 21
791.8306247022956
 31
0.0
  0
LINE
  5
152
330
C5
100
AcDbEntity
  8
DV2_Default
  6
Continuous
 62
     7
100
AcDbLine
 10
577.0185169738827
 20
879.3806247022956
 30
0.0
 11
577.0185169738827
 21
826.0511057055175
 31
0.0
  0
LINE
  5
153
330
C5
100
AcDbEntity
  8
DV2_Default
  6
Continuous
 62
     7
100
AcDbLine
 10
602.0185169738828
 20
826.0511057055175
 30
0.0
 11
602.0185169738828
 21
879.3806247022956
 31
0.0
  0
ARC
  5
154
330
C5
100
AcDbEntity
  8
DV2_Default
  6
Continuous
 62
     7
100
AcDbCircle
 10
709.5185169738828
 20
879.3806247022954
 30
0.0
 40
107.5
100
AcDbArc
 50
0.0
 51
179.9999999999999
  0
ARC
  5
155
330
C5
100
AcDbEntity
  8
DV2_Default
  6
Continuous
 62
     7
100
AcDbCircle
 10
709.5185169738828
 20
879.3806247022954
 30
0.0
 40
132.5
100
AcDbArc
 50
0.0
 51
179.9999999999999
  0
LINE
  5
156
330
C5
100
AcDbEntity
  8
DV2_Default
  6
Continuous
 62
     7
100
AcDbLine
 10
842.0185169738827
 20
826.1011057055174
 30
0.0
 11
842.0185169738827
 21
879.3806247022953
 31
0.0
  0
LINE
  5
157
330
C5
100
AcDbEntity
  8
DV2_Default
  6
Continuous
 62
     7
100
AcDbLine
 10
817.0185169738827
 20
879.3806247022954
 30
0.0
 11
817.0185169738827
 21
826.1011057055174
 31
0.0
  0
LINE
  5
158
330
C5
100
AcDbEntity
  8
DV2_Default
  6
Continuous
 62
     7
100
AcDbLine
 10
843.5185169738826
 20
791.8806247022953
 30
0.0
 11
842.0282346245071
 21
825.6603579548094
 31
0.0
  0
LINE
  5
159
330
C5
100
AcDbEntity
  8
DV2_Default
  6
Continuous
 62
     7
100
AcDbLine
 10
815.9260835746961
 20
801.118800987399
 30
0.0
 11
815.5185169738826
 21
791.8806247022954
 31
0.0
  0
LINE
  5
15A
330
C5
100
AcDbEntity
  8
DV2_Default
  6
Continuous
 62
     7
100
AcDbLine
 10
817.0087993232582
 20
825.6603579548096
 30
0.0
 11
816.1877848219015
 21
807.0506959240528
 31
0.0
  0
ARC
  5
15B
330
C5
100
AcDbEntity
  8
DV2_Default
  6
Continuous
 62
     7
100
AcDbCircle
 10
852.0185169738828
 20
826.1011057055174
 30
0.0
 40
10.00000000000004
100
AcDbArc
 50
180.0
 51
182.5261169116193
  0
ARC
  5
15C
330
C5
100
AcDbEntity
  8
DV2_Default
  6
Continuous
 62
     7
100
AcDbCircle
 10
807.0185169738827
 20
826.1011057055174
 30
0.0
 40
9.99999999999998
100
AcDbArc
 50
357.47388308838
 51
0.0
  0
LINE
  5
15D
330
C5
100
AcDbEntity
  8
DV2_Default
  6
Continuous
 62
     7
100
AcDbLine
 10
603.5185169738826
 20
791.8306247022957
 30
0.0
 11
602.0282346245071
 21
825.6103579548097
 31
0.0
  0
LINE
  5
15E
330
C5
100
AcDbEntity
  8
DV2_Default
  6
Continuous
 62
     7
100
AcDbLine
 10
577.0087993232583
 20
825.6103579548097
 30
0.0
 11
575.5185169738827
 21
791.8306247022957
 31
0.0
  0
ARC
  5
15F
330
C5
100
AcDbEntity
  8
DV2_Default
  6
Continuous
 62
     7
100
AcDbCircle
 10
612.0185169738828
 20
826.0511057055175
 30
0.0
 40
10.0
100
AcDbArc
 50
180.0
 51
182.52611691162
  0
ARC
  5
160
330
C5
100
AcDbEntity
  8
DV2_Default
  6
Continuous
 62
     7
100
AcDbCircle
 10
567.0185169738827
 20
826.0511057055175
 30
0.0
 40
9.999999999999998
100
AcDbArc
 50
357.47388308838
 51
0.0
  0
LINE
  5
161
330
C5
100
AcDbEntity
  8
DV2_Default
  6
Continuous
 62
     7
100
AcDbLine
 10
600.7685169738826
 20
791.3712569562027
 30
0.0
 11
600.7685169738826
 21
791.8306247022956
 31
0.0
  0
LINE
  5
162
330
C5
100
AcDbEntity
  8
DV2_Default
  6
Continuous
 62
     7
100
AcDbLine
 10
578.2685169738827
 20
791.8306247022957
 30
0.0
 11
578.2685169738827
 21
791.3712569562027
 31
0.0
  0
LINE
  5
163
330
C5
100
AcDbEntity
  8
DV2_Default
  6
Continuous
 62
     7
100
AcDbLine
 10
610.8896967909422
 20
681.3306247022956
 30
0.0
 11
568.2422435795695
 21
681.3306247022956
 31
0.0
  0
SPLINE
  5
164
330
C5
100
AcDbEntity
  8
DV2_Default
  6
Continuous
 62
     7
100
AcDbSpline
210
0.0
220
0.0
230
1.0
 70
     8
 71
     3
 72
    28
 73
    24
 74
     0
 42
0.000000001
 43
0.0000000001
 40
0.0
 40
0.0
 40
0.0
 40
0.0
 40
0.015625
 40
0.015625
 40
0.0312500000000001
 40
0.0312500000000001
 40
0.0625000000000001
 40
0.0625000000000001
 40
0.0937500000000001
 40
0.0937500000000001
 40
0.1250000000000002
 40
0.1250000000000002
 40
0.1875000000000002
 40
0.1875000000000002
 40
0.2500000000000003
 40
0.2500000000000003
 40
0.3125000000000004
 40
0.3125000000000004
 40
0.3750000000000005
 40
0.3750000000000005
 40
0.5000000000000007
 40
0.5000000000000007
 40
1.0
 40
1.0
 40
1.0
 40
1.0
 10
808.6738771814031
 20
766.2809304675962
 30
0.0
 10
807.6143391219513
 20
766.3030412997748
 30
0.0
 10
806.554749074003
 20
766.3139578079778
 30
0.0
 10
804.43549843864
 20
766.3205477005921
 30
0.0
 10
803.3758645376892
 20
766.3219893261913
 30
0.0
 10
800.1969538324589
 20
766.3243687731966
 30
0.0
 10
798.0776610620554
 20
766.322104487118
 30
0.0
 10
793.8390839451268
 20
766.3163749941026
 30
0.0
 10
791.7197955054611
 20
766.3130452878667
 30
0.0
 10
787.481217493394
 20
766.31082517819
 30
0.0
 10
785.3619280397575
 20
766.3114691285313
 30
0.0
 10
779.0040592742384
 20
766.3149866790271
 30
0.0
 10
774.7654800173525
 20
766.3180759865415
 30
0.0
 10
766.2883226448667
 20
766.3162776573275
 30
0.0
 10
762.0497441045761
 20
766.3140008637912
 30
0.0
 10
753.5725865123815
 20
766.3142766028202
 30
0.0
 10
749.3340076157593
 20
766.3157034205035
 30
0.0
 10
740.8568498734259
 20
766.3160576920107
 30
0.0
 10
736.6182709920734
 20
766.3153046963519
 30
0.0
 10
723.9025343642721
 20
766.3145301839476
 30
0.0
 10
715.4253766293131
 20
766.3155578575908
 30
0.0
 10
673.0395878848364
 20
766.3143331726258
 30
0.0
 10
639.1309568900289
 20
766.3153340043329
 30
0.0
 10
605.2223258948369
 20
766.315287298682
 30
0.0
  0
ARC
  5
165
330
C5
100
AcDbEntity
  8
DV2_Default
  6
Continuous
 62
     7
100
AcDbCircle
 10
814.2239251285937
 20
1132.229041985913
 30
0.0
 40
365.9901957102661
100
AcDbArc
 50
269.1311064717469
 51
270.701612315637
  0
LINE
  5
166
330
C5
100
AcDbEntity
  8
DV2_Default
  6
Continuous
 62
     7
100
AcDbLine
 10
817.5343563837971
 20
789.2712569562027
 30
0.0
 11
818.7197746598169
 21
789.2712569562027
 31
0.0
  0
LINE
  5
167
330
C5
100
AcDbEntity
  8
DV2_Default
  6
Continuous
 62
     7
100
AcDbLine
 10
818.7197746598169
 20
789.2712569562027
 30
0.0
 11
828.8847967207765
 21
789.2712569562027
 31
0.0
  0
ARC
  5
168
330
C5
100
AcDbEntity
  8
DV2_Default
  6
Continuous
 62
     7
100
AcDbCircle
 10
561.935341465625
 20
780.7812569599441
 30
0.0
 40
14.01272775972277
100
AcDbArc
 50
346.5891576778966
 51
13.41084348283341
  0
ARC
  5
169
330
C5
100
AcDbEntity
  8
DV2_Default
  6
Continuous
 62
     7
100
AcDbCircle
 10
824.0977776551945
 20
590.6211377090057
 30
0.0
 40
175.6392034871258
100
AcDbArc
 50
88.97960359152371
 51
92.31323406576306
  0
LINE
  5
16A
330
C5
100
AcDbEntity
  8
DV2_Default
  6
Continuous
 62
     7
100
AcDbLine
 10
828.8927541216311
 20
766.1953428486949
 30
0.0
 11
828.8834282233885
 21
766.1951316552366
 31
0.0
  0
ARC
  5
16B
330
C5
100
AcDbEntity
  8
DV2_Default
  6
Continuous
 62
     7
100
AcDbCircle
 10
828.8836182379231
 20
766.3462469996698
 30
0.0
 40
0.1511804456685161
100
AcDbArc
 50
273.4645134874029
 51
0.2919644515945382
  0
LINE
  5
16C
330
C5
100
AcDbEntity
  8
DV2_Default
  6
Continuous
 62
     7
100
AcDbLine
 10
829.0347967207766
 20
766.7073005984601
 30
0.0
 11
829.0347967207766
 21
766.357483494055
 31
0.0
  0
LINE
  5
16D
330
C5
100
AcDbEntity
  8
DV2_Default
  6
Continuous
 62
     7
100
AcDbLine
 10
829.0347967207766
 20
788.7712569562027
 30
0.0
 11
829.0347967207766
 21
766.7073005984601
 31
0.0
  0
LINE
  5
16E
330
C5
100
AcDbEntity
  8
DV2_Default
  6
Continuous
 62
     7
100
AcDbLine
 10
829.0347967207766
 20
789.1212569562027
 30
0.0
 11
829.0347967207766
 21
788.7712569562028
 31
0.0
  0
ELLIPSE
  5
16F
330
C5
100
AcDbEntity
  8
DV2_Default
  6
Continuous
 62
     7
100
AcDbEllipse
 10
828.8847967207766
 20
766.3574834940549
 30
0.0
 11
-0.1500000000000667
 21
0.0000000000084377
 31
0.0
210
0.0
220
0.0
230
1.0
 40
0.999910413638981
 41
1.560224214541143
 42
3.141592653646049
  0
ARC
  5
170
330
C5
100
AcDbEntity
  8
DV2_Default
  6
Continuous
 62
     7
100
AcDbCircle
 10
828.8847967207766
 20
789.1212569562027
 30
0.0
 40
0.150000000000039
100
AcDbArc
 50
0.0
 51
90.0
  0
ARC
  5
171
330
C5
100
AcDbEntity
  8
DV2_Default
  6
Continuous
 62
     7
100
AcDbCircle
 10
817.3920596202226
 20
791.6282781106714
 30
0.0
 40
2.361312578109224
100
AcDbArc
 50
249.4169296724452
 51
273.4548355521296
  0
ARC
  5
172
330
C5
100
AcDbEntity
  8
DV2_Default
  6
Continuous
 62
     7
100
AcDbCircle
 10
605.7500040783819
 20
821.1594505052476
 30
0.0
 40
29.9430380482866
100
AcDbArc
 50
264.2131706887339
 51
267.83741558833
  0
SPLINE
  5
173
330
C5
100
AcDbEntity
  8
DV2_Default
  6
Continuous
 62
     7
100
AcDbSpline
210
0.0
220
0.0
230
1.0
 70
     8
 71
     3
 72
    17
 73
    13
 74
     0
 42
0.000000001
 43
0.0000000001
 40
0.0
 40
0.0
 40
0.0
 40
0.0
 40
0.015625
 40
0.015625
 40
0.03125
 40
0.03125
 40
0.0625
 40
0.125
 40
0.25
 40
0.5000000000000002
 40
0.5000000000000002
 40
1.0
 40
1.0
 40
1.0
 40
1.0
 10
604.6200958400219
 20
791.2377387404768
 30
0.0
 10
605.6820695199839
 20
791.1741895646922
 30
0.0
 10
606.7443046681384
 20
791.129605020218
 30
0.0
 10
608.869357784604
 20
791.083157761709
 30
0.0
 10
609.932259373368
 20
791.0874428737593
 30
0.0
 10
613.1207883189562
 20
791.0874428737593
 30
0.0
 10
619.4978462101325
 20
791.0874428737593
 30
0.0
 10
634.3776479562105
 20
791.0874428737593
 30
0.0
 10
664.1372514483666
 20
791.0874428737593
 30
0.0
 10
689.645483013072
 20
791.0874428737593
 30
0.0
 10
740.6619461424824
 20
791.0874428737593
 30
0.0
 10
774.6729215620892
 20
791.0874014541309
 30
0.0
 10
808.6838969816964
 20
791.0874428742474
 30
0.0
  0
LINE
  5
174
330
C5
100
AcDbEntity
  8
DV2_Default
  6
Continuous
 62
     7
100
AcDbLine
 10
602.7128269864079
 20
791.3712569562027
 30
0.0
 11
602.7309194328429
 21
791.3690047975344
 31
0.0
  0
ARC
  5
175
330
C5
100
AcDbEntity
  8
DV2_Default
  6
Continuous
 62
     7
100
AcDbCircle
 10
827.9681600783936
 20
806.819410672419
 30
0.0
 40
20.80677949844728
100
AcDbArc
 50
230.7356069903629
 51
236.7564565763519
  0
ELLIPSE
  5
176
330
C5
100
AcDbEntity
  8
DV2_Default
  6
Continuous
 62
     7
100
AcDbEllipse
 10
814.4615685425293
 20
790.3565478082635
 30
0.0
 11
-0.3127410570995249
 21
-0.3901192525424535
 31
0.0
210
0.0
220
0.0
230
1.0
 40
0.3795373389759627
 41
2.915358318799999
 42
3.141592653589111
  0
LINE
  5
177
330
C5
100
AcDbEntity
  8
DV2_Default
  6
Continuous
 62
     7
100
AcDbLine
 10
602.2432963863669
 20
791.3712569562027
 30
0.0
 11
602.7128269864079
 21
791.3712569562027
 31
0.0
  0
LINE
  5
178
330
C5
100
AcDbEntity
  8
DV2_Default
  6
Continuous
 62
     7
100
AcDbLine
 10
602.2432963863669
 20
791.3712569562027
 30
0.0
 11
576.0659701852558
 21
791.3712569562027
 31
0.0
  0
SPLINE
  5
179
330
C5
100
AcDbEntity
  8
DV2_Default
  6
Continuous
 62
     7
100
AcDbSpline
210
0.0
220
0.0
230
1.0
 70
     8
 71
     3
 72
    10
 73
     6
 74
     0
 42
0.000000001
 43
0.0000000001
 40
0.0
 40
0.0
 40
0.0
 40
0.0
 40
0.5
 40
0.5
 40
1.0
 40
1.0
 40
1.0
 40
1.0
 10
602.7309194328429
 20
791.3690047975343
 30
0.0
 10
602.8249885611468
 20
791.3572346997272
 30
0.0
 10
602.9122366596707
 20
791.2986178583707
 30
0.0
 10
603.033961545904
 20
791.1165520914776
 30
0.0
 10
603.0669234823887
 20
790.9935627060753
 30
0.0
 10
603.0638331675235
 20
790.8712569562026
 30
0.0
  0
ELLIPSE
  5
17A
330
C5
100
AcDbEntity
  8
DV2_Default
  6
Continuous
 62
     7
100
AcDbEllipse
 10
814.4615685425295
 20
790.3565478082595
 30
0.0
 11
-0.1595201807124691
 21
-0.4738705645440656
 31
0.0
210
0.0
220
0.0
230
1.0
 40
0.8944253508697013
 41
3.104241797890702
 42
3.141592653589793
  0
LINE
  5
17B
330
C5
100
AcDbEntity
  8
DV2_Default
  6
Continuous
 62
     7
100
AcDbLine
 10
568.0422435795693
 20
686.3868694997477
 30
0.0
 11
568.0422435795693
 21
681.5306247022958
 31
0.0
  0
LINE
  5
17C
330
C5
100
AcDbEntity
  8
DV2_Default
  6
Continuous
 62
     7
100
AcDbLine
 10
611.0896967909425
 20
681.5306247022956
 30
0.0
 11
611.0896967909425
 21
686.3868694997476
 31
0.0
  0
SPLINE
  5
17D
330
C5
100
AcDbEntity
  8
DV2_Default
  6
Continuous
 62
     7
100
AcDbSpline
210
0.0
220
0.0
230
1.0
 70
     8
 71
     3
 72
    27
 73
    23
 74
     0
 42
0.000000001
 43
0.0000000001
 40
0.0
 40
0.0
 40
0.0
 40
0.0
 40
0.0508835720677785
 40
0.1081866618382934
 40
0.1594725552928893
 40
0.2079823270342173
 40
0.2569618042692809
 40
0.3096470074085707
 40
0.3692505531774377
 40
0.4389181731854048
 40
0.5132497378532804
 40
0.5874928663539762
 40
0.611639934738606
 40
0.6350565008517928
 40
0.6575610750917712
 40
0.6789721808219244
 40
0.6957835028670755
 40
0.7048470974510167
 40
0.7139446581125171
 40
0.8023942708461911
 40
0.8969134838204453
 40
1.0
 40
1.0
 40
1.0
 40
1.0
 10
575.5612279590693
 20
766.363158502471
 30
0.0
 10
575.5612705838834
 20
764.8620607635349
 30
0.0
 10
575.5566050815741
 20
762.1690034231062
 30
0.0
 10
575.4740819766696
 20
757.8027097808204
 30
0.0
 10
575.2948900666176
 20
753.6150658674163
 30
0.0
 10
575.005337866333
 20
749.6295443221956
 30
0.0
 10
574.5926518843581
 20
745.6242040019376
 30
0.0
 10
574.0454685208893
 20
741.3332323756931
 30
0.0
 10
573.3542793036751
 20
736.502638921836
 30
0.0
 10
572.5409026427911
 20
731.1031191944985
 30
0.0
 10
571.6460997024503
 20
725.3189398840693
 30
0.0
 10
570.9300185489409
 20
720.7424372129338
 30
0.0
 10
570.4255113325151
 20
717.514923485049
 30
0.0
 10
570.1360306037249
 20
715.6582132522888
 30
0.0
 10
569.8586575556305
 20
713.8738711856898
 30
0.0
 10
569.6111047684878
 20
712.2641857334534
 30
0.0
 10
569.4172115347813
 20
711.010908833257
 30
0.0
 10
569.281516387087
 20
710.0829035575086
 30
0.0
 10
568.8918485912783
 20
707.2497002490885
 30
0.0
 10
568.4011181112452
 20
702.1484881073253
 30
0.0
 10
568.0803650633737
 20
694.3334412340232
 30
0.0
 10
568.048411322755
 20
689.4279810388308
 30
0.0
 10
568.0422435795692
 20
686.3868694997477
 30
0.0
  0
SPLINE
  5
17E
330
C5
100
AcDbEntity
  8
DV2_Default
  6
Continuous
 62
     7
100
AcDbSpline
210
0.0
220
0.0
230
1.0
 70
     8
 71
     3
 72
    26
 73
    22
 74
     0
 42
0.000000001
 43
0.0000000001
 40
0.0
 40
0.0
 40
0.0
 40
0.0
 40
0.0766028786584802
 40
0.1483688123145935
 40
0.2161970934296686
 40
0.3013163503088741
 40
0.3143739645523925
 40
0.3422131717968261
 40
0.3742454961122811
 40
0.4081359349531862
 40
0.4433721145046991
 40
0.511972647010472
 40
0.5800815680740824
 40
0.6442187468122182
 40
0.7013289435854647
 40
0.7520402643514083
 40
0.7988839831744593
 40
0.8526106336667995
 40
0.9087311969655129
 40
0.9714527845173993
 40
1.0
 40
1.0
 40
1.0
 40
1.0
 10
611.0896967909425
 20
686.3868694997477
 30
0.0
 10
611.0853929487277
 20
688.5833454773593
 30
0.0
 10
611.0695880523845
 20
692.1645202837266
 30
0.0
 10
610.9205018765591
 20
697.9067723893238
 30
0.0
 10
610.5912444459383
 20
703.7272756372907
 30
0.0
 10
610.1487708310671
 20
708.0430741210941
 30
0.0
 10
609.6732814611059
 20
711.2930372124504
 30
0.0
 10
609.3808515577791
 20
713.1715383311675
 30
0.0
 10
609.0075933810457
 20
715.5869200643024
 30
0.0
 10
608.6005803572211
 20
718.1922304591555
 30
0.0
 10
608.0459220576091
 20
721.7392423114618
 30
0.0
 10
607.3540184455043
 20
726.1676120575835
 30
0.0
 10
606.5552822196869
 20
731.3417668168308
 30
0.0
 10
605.8202142686377
 20
736.2227240473599
 30
0.0
 10
605.1811236131449
 20
740.6592652233062
 30
0.0
 10
604.6571888166801
 20
744.6573888096105
 30
0.0
 10
604.2242883193891
 20
748.5756378064731
 30
0.0
 10
603.8916917667261
 20
752.6545748160307
 30
0.0
 10
603.6777222380553
 20
757.1182673917718
 30
0.0
 10
603.5883590388482
 20
761.0623003005949
 30
0.0
 10
603.5824477181168
 20
763.2886354742596
 30
0.0
 10
603.5812284904891
 20
764.1071859640975
 30
0.0
  0
ARC
  5
17F
330
C5
100
AcDbEntity
  8
DV2_Default
  6
Continuous
 62
     7
100
AcDbCircle
 10
568.2422435795692
 20
681.5306247022956
 30
0.0
 40
0.2000000000000023
100
AcDbArc
 50
180.0
 51
270.0
  0
ARC
  5
180
330
C5
100
AcDbEntity
  8
DV2_Default
  6
Continuous
 62
     7
100
AcDbCircle
 10
610.8896967909425
 20
681.5306247022956
 30
0.0
 40
0.2000000000000057
100
AcDbArc
 50
270.0
 51
0.0
  0
LINE
  5
181
330
C5
100
AcDbEntity
  8
DV2_Default
  6
Continuous
 62
     7
100
AcDbLine
 10
605.5706649073947
 20
766.1172124280636
 30
0.0
 11
817.0411316690191
 21
766.1172124280628
 31
0.0
  0
ARC
  5
182
330
C5
100
AcDbEntity
  8
DV2_Default
  6
Continuous
 62
     7
100
AcDbCircle
 10
605.5716624744814
 20
764.1172124283236
 30
0.0
 40
2.000000000060008
100
AcDbArc
 50
90.00724834458216
 51
180.2665943474813
  0
LINE
  5
183
330
C5
100
AcDbEntity
  8
DV2_Default
  6
Continuous
 62
     7
100
AcDbLine
 10
813.2551512478899
 20
791.3712569562028
 30
0.0
 11
602.7128269864079
 21
791.3712569562028
 31
0.0
  0
LINE
  5
184
330
C5
100
AcDbEntity
  8
DV2_Default
  6
Continuous
 62
     7
100
AcDbLine
 10
575.5659701852558
 20
777.5742497710527
 30
0.0
 11
575.5659701852558
 21
766.3628779838638
 31
0.0
  0
LINE
  5
185
330
C5
100
AcDbEntity
  8
DV2_Default
  6
Continuous
 62
     7
100
AcDbLine
 10
575.5659701852558
 20
790.8712569562026
 30
0.0
 11
575.5659701852558
 21
784.0312569562026
 31
0.0
  0
ARC
  5
186
330
C5
100
AcDbEntity
  8
DV2_Default
  6
Continuous
 62
     7
100
AcDbCircle
 10
576.0659701852558
 20
790.8712569562026
 30
0.0
 40
0.500000000000056
100
AcDbArc
 50
90.0
 51
180.0
  0
ARC
  5
187
330
C5
100
AcDbEntity
  8
DV2_Default
  6
Continuous
 62
     7
100
AcDbCircle
 10
814.4615685425293
 20
790.3565478082635
 30
0.0
 40
0.4999999999999675
100
AcDbArc
 50
51.28241789179657
 51
71.39510005656861
  0
LINE
  5
188
330
C5
100
AcDbEntity
  8
DV2_Default
  6
Continuous
 62
     7
100
AcDbLine
 10
814.4224434406265
 20
790.910259640362
 30
0.0
 11
814.418419055932
 21
790.9117004796382
 31
0.0
  0
SPLINE
  5
189
330
C5
100
AcDbEntity
  8
DV2_Default
  6
Continuous
 62
     7
100
AcDbSpline
210
0.0
220
0.0
230
1.0
 70
     8
 71
     3
 72
    13
 73
     9
 74
     0
 42
0.000000001
 43
0.0000000001
 40
0.0
 40
0.0
 40
0.0
 40
0.0
 40
0.0938652789809652
 40
0.431057089152079
 40
0.7303414101706031
 40
0.8846601147581953
 40
0.9740310459730455
 40
0.9999999999999998
 40
0.9999999999999998
 40
0.9999999999999998
 40
0.9999999999999998
 10
814.565648119685
 20
790.857429219778
 30
0.0
 10
814.4980188146703
 20
790.8781198778041
 30
0.0
 10
814.2340807268976
 20
790.958619741726
 30
0.0
 10
813.874175304771
 20
791.1229077538207
 30
0.0
 10
813.6117846605422
 20
791.2464802730084
 30
0.0
 10
813.5086737426059
 20
791.29980596279
 30
0.0
 10
813.4879182264745
 20
791.3102133293592
 30
0.0
 10
813.4845175359728
 20
791.3119701385648
 30
0.0
 10
813.484603970201
 20
791.311923519199
 30
0.0
  0
LINE
  5
18A
330
C5
100
AcDbEntity
  8
DV2_Default
  6
Continuous
 62
     7
100
AcDbLine
 10
814.6419059257382
 20
790.8334979171645
 30
0.0
 11
814.565648119685
 21
790.8574292197782
 31
0.0
  0
LINE
  5
18B
330
C5
100
AcDbEntity
  8
DV2_Default
  6
Continuous
 62
     7
100
AcDbLine
 10
575.4685169738826
 20
783.3812569562027
 30
0.0
 11
575.4685169738826
 21
778.1812569562028
 31
0.0
  0
ARC
  5
18C
330
C5
100
AcDbEntity
  8
DV2_Default
  6
Continuous
 62
     7
100
AcDbCircle
 10
575.7685169738826
 20
778.1812569562028
 30
0.0
 40
0.3000000000000016
100
AcDbArc
 50
180.0
 51
246.0788651219386
  0
ARC
  5
18D
330
C5
100
AcDbEntity
  8
DV2_Default
  6
Continuous
 62
     7
100
AcDbCircle
 10
575.7685169738826
 20
783.3812569562027
 30
0.0
 40
0.3000000000000225
100
AcDbArc
 50
113.9975287049679
 51
180.0
  0
LINE
  5
18E
330
C5
100
AcDbEntity
  8
DV2_Default
  6
Continuous
 62
     7
100
AcDbLine
 10
828.2564665933431
 20
789.2794360156841
 30
0.0
 11
827.3039997383644
 21
789.2712569562027
 31
0.0
  0
LINE
  5
18F
330
C5
100
AcDbEntity
  8
DV2_Default
  6
Continuous
 62
     7
100
AcDbLine
 10
829.0541600587129
 20
789.4862231907396
 30
0.0
 11
817.2567780193624
 21
789.3832689974051
 31
0.0
  0
LINE
  5
190
330
C5
100
AcDbEntity
  8
DV2_Default
  6
Continuous
 62
     7
100
AcDbLine
 10
828.4126368252042
 20
766.0806247022954
 30
0.0
 11
819.1511671751699
 21
766.1614483234794
 31
0.0
  0
ARC
  5
191
330
C5
100
AcDbEntity
  8
DV2_Default
  6
Continuous
 62
     7
100
AcDbCircle
 10
829.0585233264621
 20
788.9862422292075
 30
0.0
 40
0.4999999999999055
100
AcDbArc
 50
27.51010760297914
 51
90.5000000000046
  0
ARC
  5
192
330
C5
100
AcDbEntity
  8
DV2_Default
  6
Continuous
 62
     7
100
AcDbCircle
 10
817.2585233264621
 20
789.1832766127921
 30
0.0
 40
0.1999999999999807
100
AcDbArc
 50
90.49999999999826
 51
145.5760520150732
  0
LINE
  5
193
330
C5
100
AcDbEntity
  8
DV2_Default
  6
Continuous
 62
     7
100
AcDbLine
 10
610.8422435795691
 20
681.0306247022956
 30
0.0
 11
568.1947903681962
 21
681.0306247022956
 31
0.0
  0
SPLINE
  5
194
330
C5
100
AcDbEntity
  8
DV2_Default
  6
Continuous
 62
     7
100
AcDbSpline
210
0.0
220
0.0
230
1.0
 70
     8
 71
     3
 72
    16
 73
    12
 74
     0
 42
0.000000001
 43
0.0000000001
 40
0.0
 40
0.0
 40
0.0
 40
0.0
 40
0.2062651576002282
 40
0.2062651576002282
 40
0.4125303152004564
 40
0.4125303152004564
 40
0.6187954728006844
 40
0.6187954728006844
 40
0.8250606304009126
 40
0.8250606304009126
 40
1.0
 40
1.0
 40
1.0
 40
1.0
 10
576.313804253888
 20
485.8941813527505
 30
0.0
 10
575.0928948559878
 20
485.8941892986848
 30
0.0
 10
573.9779873283269
 20
485.8941982035018
 30
0.0
 10
571.9515057394178
 20
485.8942178532622
 30
0.0
 10
571.0317716580844
 20
485.894228729688
 30
0.0
 10
569.4565296857726
 20
485.8942517511083
 30
0.0
 10
568.8006489679576
 20
485.8942638342724
 30
0.0
 10
567.7500075572878
 20
485.8942891358934
 30
0.0
 10
567.3566151465378
 20
485.8943024437449
 30
0.0
 10
566.907085049704
 20
485.8943270650571
 30
0.0
 10
566.8036657259192
 20
485.8943384657258
 30
0.0
 10
566.8052042265942
 20
485.894349970137
 30
0.0
  0
SPLINE
  5
195
330
C5
100
AcDbEntity
  8
DV2_Default
  6
Continuous
 62
     7
100
AcDbSpline
210
0.0
220
0.0
230
1.0
 70
     8
 71
     3
 72
    28
 73
    24
 74
     0
 42
0.000000001
 43
0.0000000001
 40
0.0
 40
0.0
 40
0.0
 40
0.0
 40
0.0149715843064026
 40
0.0149715843064026
 40
0.1045196220967297
 40
0.1045196220967297
 40
0.1940676598870564
 40
0.1940676598870564
 40
0.2836156976773831
 40
0.2836156976773831
 40
0.4627117732580372
 40
0.4627117732580372
 40
0.5522598110483646
 40
0.5522598110483646
 40
0.6418078488386917
 40
0.6418078488386917
 40
0.731355886629019
 40
0.731355886629019
 40
0.820903924419346
 40
0.820903924419346
 40
0.9104519622096733
 40
0.9104519622096733
 40
1.0
 40
1.0
 40
1.0
 40
1.0
 10
612.231842042213
 20
485.8943499693371
 30
0.0
 10
612.2320562688335
 20
485.8943477147439
 30
0.0
 10
612.2282378234634
 20
485.894345460127
 30
0.0
 10
612.1736099998513
 20
485.8943297200313
 30
0.0
 10
611.9787937430719
 20
485.8943160852706
 30
0.0
 10
611.3050742997649
 20
485.8942896697002
 30
0.0
 10
610.8307158042252
 20
485.894276900435
 30
0.0
 10
609.6085239850938
 20
485.8942522335959
 30
0.0
 10
608.853759844966
 20
485.894240299362
 30
0.0
 10
606.2683772561118
 20
485.8942073708749
 30
0.0
 10
604.0454223764806
 20
485.8941883779016
 30
0.0
 10
600.27955846503
 20
485.8941669940094
 30
0.0
 10
598.9368290721555
 20
485.8941609331673
 30
0.0
 10
596.1424167318944
 20
485.8941513267784
 30
0.0
 10
594.7126380728392
 20
485.894147831783
 30
0.0
 10
591.7894542920634
 20
485.8941433968011
 30
0.0
 10
590.280562641846
 20
485.8941424772393
 30
0.0
 10
587.3134436648381
 20
485.894143336017
 30
0.0
 10
585.8463837936453
 20
485.8941450736353
 30
0.0
 10
582.9455615912762
 20
485.8941511891915
 30
0.0
 10
581.5180962246162
 20
485.8941555903662
 30
0.0
 10
578.8208204689519
 20
485.8941666853208
 30
0.0
 10
577.5347136517882
 20
485.8941734068162
 30
0.0
 10
576.313804253888
 20
485.8941813527505
 30
0.0
  0
LINE
  5
196
330
C5
100
AcDbEntity
  8
DV2_Default
  6
Continuous
 62
     7
100
AcDbLine
 10
613.7185169738825
 20
481.8787571717328
 30
0.0
 11
565.3185169738829
 21
481.8787571717328
 31
0.0
  0
LINE
  5
197
330
C5
100
AcDbEntity
  8
DV2_Default
  6
Continuous
 62
     7
100
AcDbLine
 10
567.9947903681961
 20
680.8306247022957
 30
0.0
 11
567.9947903681961
 21
487.0943040775321
 31
0.0
  0
LINE
  5
198
330
C5
100
AcDbEntity
  8
DV2_Default
  6
Continuous
 62
     7
100
AcDbLine
 10
611.0422435795692
 20
487.0943040649287
 30
0.0
 11
611.0422435795692
 21
680.8306247022957
 31
0.0
  0
ARC
  5
199
330
C5
100
AcDbEntity
  8
DV2_Default
  6
Continuous
 62
     7
100
AcDbCircle
 10
568.1947903681961
 20
680.8306247022957
 30
0.0
 40
0.2000000000000057
100
AcDbArc
 50
90.0
 51
180.0
  0
ARC
  5
19A
330
C5
100
AcDbEntity
  8
DV2_Default
  6
Continuous
 62
     7
100
AcDbCircle
 10
610.8422435795692
 20
680.8306247022957
 30
0.0
 40
0.1999999999999988
100
AcDbArc
 50
0.0
 51
90.0
  0
LINE
  5
19B
330
C5
100
AcDbEntity
  8
DV2_Default
  6
Continuous
 62
     7
100
AcDbLine
 10
613.5228802416317
 20
485.8830825279674
 30
0.0
 11
612.2258921046664
 21
485.8944011719649
 31
0.0
  0
LINE
  5
19C
330
C5
100
AcDbEntity
  8
DV2_Default
  6
Continuous
 62
     7
100
AcDbLine
 10
566.8813294279202
 20
485.8950136897382
 30
0.0
 11
565.5141537061336
 21
485.8830825279675
 31
0.0
  0
LINE
  5
19D
330
C5
100
AcDbEntity
  8
DV2_Default
  6
Continuous
 62
     7
100
AcDbLine
 10
614.0185169738827
 20
482.1787571717329
 30
0.0
 11
614.0185169738827
 21
485.3831015664353
 31
0.0
  0
LINE
  5
19E
330
C5
100
AcDbEntity
  8
DV2_Default
  6
Continuous
 62
     7
100
AcDbLine
 10
565.0185169738826
 20
485.3831015664353
 30
0.0
 11
565.0185169738826
 21
482.1787571717329
 31
0.0
  0
SPLINE
  5
19F
330
C5
100
AcDbEntity
  8
DV2_Default
  6
Continuous
 62
     7
100
AcDbSpline
210
0.0
220
0.0
230
1.0
 70
     8
 71
     3
 72
    13
 73
     9
 74
     0
 42
0.000000001
 43
0.0000000001
 40
0.0
 40
0.0
 40
0.0
 40
0.0
 40
0.0744190635104506
 40
0.2602581523703816
 40
0.4714185470896438
 40
0.7117885266477125
 40
0.9743128639080993
 40
1.0
 40
1.0
 40
1.0
 40
1.0
 10
611.9982810989082
 20
485.9260947413361
 30
0.0
 10
611.954065640196
 20
485.93274693094
 30
0.0
 10
611.8218650780037
 20
485.9537856366237
 30
0.0
 10
611.5809837538447
 20
486.0727527121238
 30
0.0
 10
611.3102702027571
 20
486.2970626519427
 30
0.0
 10
611.1098918589191
 20
486.6302599374716
 30
0.0
 10
611.0138408273281
 20
486.9311403471421
 30
0.0
 10
611.0394095629157
 20
487.0783248190657
 30
0.0
 10
611.0420826076217
 20
487.0935258588963
 30
0.0
  0
SPLINE
  5
1A0
330
C5
100
AcDbEntity
  8
DV2_Default
  6
Continuous
 62
     7
100
AcDbSpline
210
0.0
220
0.0
230
1.0
 70
     8
 71
     3
 72
    13
 73
     9
 74
     0
 42
0.000000001
 43
0.0000000001
 40
0.0
 40
0.0
 40
0.0
 40
0.0
 40
0.1045007262387657
 40
0.3660072594649849
 40
0.5760958807610392
 40
0.7532250047475309
 40
0.9015901910384419
 40
1.0
 40
1.0
 40
1.0
 40
1.0
 10
567.9875791732971
 20
487.0908585832553
 30
0.0
 10
567.9931126763981
 20
487.0311315504637
 30
0.0
 10
568.007970101184
 20
486.8510089743556
 30
0.0
 10
567.8942153036477
 20
486.5508771839208
 30
0.0
 10
567.699839355248
 20
486.273675575174
 30
0.0
 10
567.4841170866057
 20
486.0935741145483
 30
0.0
 10
567.2834251161411
 20
485.9858475104669
 30
0.0
 10
567.1679081277925
 20
485.9518679906754
 30
0.0
 10
567.1135506321498
 20
485.9365060043822
 30
0.0
  0
ARC
  5
1A1
330
C5
100
AcDbEntity
  8
DV2_Default
  6
Continuous
 62
     7
100
AcDbCircle
 10
565.5185169738826
 20
485.3831015664353
 30
0.0
 40
0.5000000000000008
100
AcDbArc
 50
90.49999999999151
 51
180.0
  0
ARC
  5
1A2
330
C5
100
AcDbEntity
  8
DV2_Default
  6
Continuous
 62
     7
100
AcDbCircle
 10
613.5185169738825
 20
485.3831015664353
 30
0.0
 40
0.5000000000000005
100
AcDbArc
 50
0.0
 51
89.5000000000085
  0
ARC
  5
1A3
330
C5
100
AcDbEntity
  8
DV2_Default
  6
Continuous
 62
     7
100
AcDbCircle
 10
613.7185169738827
 20
482.1787571717329
 30
0.0
 40
0.299999999999999
100
AcDbArc
 50
270.0
 51
0.0
  0
ARC
  5
1A4
330
C5
100
AcDbEntity
  8
DV2_Default
  6
Continuous
 62
     7
100
AcDbCircle
 10
565.3185169738826
 20
482.1787571717329
 30
0.0
 40
0.3000000000000016
100
AcDbArc
 50
180.0
 51
270.0
  0
ARC
  5
1A5
330
C5
100
AcDbEntity
  8
DV2_Default
  6
Continuous
 62
     7
100
AcDbCircle
 10
570.0185169738826
 20
682.0306247022956
 30
0.0
 40
1.0
100
AcDbArc
 50
270.0
 51
315.5729959991908
  0
ARC
  5
1A6
330
C5
100
AcDbEntity
  8
DV2_Default
  6
Continuous
 62
     7
100
AcDbCircle
 10
609.0185169738827
 20
682.0306247022956
 30
0.0
 40
1.0
100
AcDbArc
 50
224.4270040008092
 51
270.0
  0
LINE
  5
1A7
330
C5
100
AcDbEntity
  8
DV2_Default
  6
Continuous
 62
     7
100
AcDbLine
 10
636.3315227316662
 20
739.6612616197775
 30
0.0
 11
642.9999183408064
 21
735.8112616197776
 31
0.0
  0
LINE
  5
1A8
330
C5
100
AcDbEntity
  8
DV2_Default
  6
Continuous
 62
     7
100
AcDbLine
 10
610.5928800067131
 20
681.0306247022957
 30
0.0
 11
610.7660850874699
 21
681.3306247022957
 31
0.0
  0
LINE
  5
1A9
330
C5
100
AcDbEntity
  8
DV2_Default
  6
Continuous
 62
     7
100
AcDbLine
 10
611.0896967909425
 20
681.891136614634
 30
0.0
 11
626.9484180810127
 21
709.3592476321099
 31
0.0
  0
LINE
  5
1AA
330
C5
100
AcDbEntity
  8
DV2_Default
  6
Continuous
 62
     7
100
AcDbLine
 10
621.4491567669815
 20
712.5342476321098
 30
0.0
 11
610.9889894534052
 21
694.4167063893245
 31
0.0
  0
LINE
  5
1AB
330
C5
100
AcDbEntity
  8
DV2_Default
  6
Continuous
 62
     7
100
AcDbLine
 10
624.2953035777861
 20
718.9822548156337
 30
0.0
 11
622.2791039523437
 21
714.2034220233462
 31
0.0
  0
LINE
  5
1AC
330
C5
100
AcDbEntity
  8
DV2_Default
  6
Continuous
 62
     7
100
AcDbLine
 10
627.9789919144885
 20
710.9125901740512
 30
0.0
 11
631.1094827003265
 21
715.0480866649286
 31
0.0
  0
LINE
  5
1AD
330
C5
100
AcDbEntity
  8
DV2_Default
  6
Continuous
 62
     7
100
AcDbLine
 10
632.1400565338024
 20
716.6014292068698
 30
0.0
 11
643.0731234215633
 21
735.5380565390206
 31
0.0
  0
LINE
  5
1AE
330
C5
100
AcDbEntity
  8
DV2_Default
  6
Continuous
 62
     7
100
AcDbLine
 10
636.0583176509093
 20
739.5880565390206
 30
0.0
 11
625.1252507631484
 21
720.6514292068699
 31
0.0
  0
ARC
  5
1AF
330
C5
100
AcDbEntity
  8
DV2_Default
  6
Continuous
 62
     7
100
AcDbCircle
 10
619.1496754770358
 20
724.1014292068699
 30
0.0
 40
15.00000000000001
100
AcDbArc
 50
322.8749836510984
 51
329.9999999999995
  0
ARC
  5
1B0
330
C5
100
AcDbEntity
  8
DV2_Default
  6
Continuous
 62
     7
100
AcDbCircle
 10
638.115631819915
 20
713.1514292068698
 30
0.0
 40
15.00000000000001
100
AcDbArc
 50
149.9999999999997
 51
157.1250163489017
  0
ARC
  5
1B1
330
C5
100
AcDbEntity
  8
DV2_Default
  6
Continuous
 62
     7
100
AcDbCircle
 10
639.9387991377793
 20
701.8592476321099
 30
0.0
 40
15.0
100
AcDbArc
 50
142.8749836510981
 51
150.0000000000001
  0
ARC
  5
1B2
330
C5
100
AcDbEntity
  8
DV2_Default
  6
Continuous
 62
     7
100
AcDbCircle
 10
608.458775710215
 20
720.0342476321099
 30
0.0
 40
15.0
100
AcDbArc
 50
330.0000000000001
 51
337.1250163489017
  0
ARC
  5
1B3
330
C5
100
AcDbEntity
  8
DV2_Default
  6
Continuous
 62
     7
100
AcDbCircle
 10
642.8999183408063
 20
735.6380565390205
 30
0.0
 40
0.1999999999999904
100
AcDbArc
 50
330.0000000000003
 51
60.00000000000032
  0
ARC
  5
1B4
330
C5
100
AcDbEntity
  8
DV2_Default
  6
Continuous
 62
     7
100
AcDbCircle
 10
636.2315227316661
 20
739.4880565390206
 30
0.0
 40
0.1999999999999733
100
AcDbArc
 50
60.00000000000034
 51
149.999999999984
  0
ENDBLK
  5
1B6
330
C5
100
AcDbEntity
  8
0
100
AcDbBlockEnd
  0
BLOCK
  5
2A2
330
1B7
100
AcDbEntity
  8
0
100
AcDbBlockBegin
  2
SE2
 70
     0
 10
0.0
 20
0.0
 30
0.0
  3
SE2
  1

  0
ARC
  5
1BA
330
1B7
100
AcDbEntity
  8
DV3_Default
  6
Continuous
 62
     7
100
AcDbCircle
 10
298.0483841292811
 20
681.4904519695998
 30
0.0
 40
2.450495267477398
100
AcDbArc
 50
276.9116266699841
 51
283.1168070356599
  0
ARC
  5
1BB
330
1B7
100
AcDbEntity
  8
DV3_Default
  6
Continuous
 62
     7
100
AcDbCircle
 10
317.3011839927942
 20
680.1447559710765
 30
0.0
 40
1.096661032557053
100
AcDbArc
 50
262.3857612609596
 51
286.2829239506677
  0
ARC
  5
1BC
330
1B7
100
AcDbEntity
  8
DV3_Default
  6
Continuous
 62
     7
100
AcDbCircle
 10
317.3730360815378
 20
680.5829433254591
 30
0.0
 40
1.531455991559121
100
AcDbArc
 50
270.8070542401709
 51
300.9199745816281
  0
ARC
  5
1BD
330
1B7
100
AcDbEntity
  8
DV3_Default
  6
Continuous
 62
     7
100
AcDbCircle
 10
298.1996850486026
 20
680.1513227745122
 30
0.0
 40
1.10294463507326
100
AcDbArc
 50
252.9486763830369
 51
277.4803166429616
  0
ARC
  5
1BE
330
1B7
100
AcDbEntity
  8
DV3_Default
  6
Continuous
 62
     7
100
AcDbCircle
 10
298.1270719580424
 20
680.5871556561471
 30
0.0
 40
1.535564622179383
100
AcDbArc
 50
239.1299971415479
 51
269.1595333987457
  0
SPLINE
  5
1BF
330
1B7
100
AcDbEntity
  8
DV3_Default
  6
Continuous
 62
     7
100
AcDbSpline
210
0.0
220
0.0
230
1.0
 70
     8
 71
     3
 72
    11
 73
     7
 74
     0
 42
0.000000001
 43
0.0000000001
 40
0.0
 40
0.0
 40
0.0
 40
0.0
 40
0.3353904115180696
 40
0.5876714553958911
 40
0.8399524992737127
 40
1.0
 40
1.0
 40
1.0
 40
1.0
 10
299.0496905385004
 20
679.0687601665455
 30
0.0
 10
299.0709931135744
 20
679.0640107092507
 30
0.0
 10
299.1096989461069
 20
679.0572350670889
 30
0.0
 10
299.1683897349181
 20
679.051685488733
 30
0.0
 10
299.2170827539001
 20
679.0502094360124
 30
0.0
 10
299.2484152107684
 20
679.0508324784298
 30
0.0
 10
299.260744421171
 20
679.0513117907383
 30
0.0
  0
ARC
  5
1C0
330
1B7
100
AcDbEntity
  8
DV3_Default
  6
Continuous
 62
     7
100
AcDbCircle
 10
299.0023200521249
 20
680.8132527119468
 30
0.0
 40
1.759064678086818
100
AcDbArc
 50
252.582527557179
 51
270.4768455322591
  0
SPLINE
  5
1C1
330
1B7
100
AcDbEntity
  8
DV3_Default
  6
Continuous
 62
     7
100
AcDbSpline
210
0.0
220
0.0
230
1.0
 70
     8
 71
     3
 72
    10
 73
     6
 74
     0
 42
0.000000001
 43
0.0000000001
 40
0.0
 40
0.0
 40
0.0
 40
0.0
 40
0.3062836917317143
 40
0.8902158820282041
 40
1.0
 40
1.0
 40
1.0
 40
1.0
 10
300.9652022948392
 20
679.0658763840371
 30
0.0
 10
300.9762173690511
 20
679.0624242869052
 30
0.0
 10
301.0099470270069
 20
679.0540103567328
 30
0.0
 10
301.0534158864624
 20
679.0501225084457
 30
0.0
 10
301.0865623290149
 20
679.0506744956886
 30
0.0
 10
301.0918827350897
 20
679.0508444360965
 30
0.0
  0
ARC
  5
1C2
330
1B7
100
AcDbEntity
  8
DV3_Default
  6
Continuous
 62
     7
100
AcDbCircle
 10
300.7376436509935
 20
680.7367527267715
 30
0.0
 40
1.680525368615497
100
AcDbArc
 50
240.8458890632082
 51
269.1498444490973
  0
SPLINE
  5
1C3
330
1B7
100
AcDbEntity
  8
DV3_Default
  6
Continuous
 62
     7
100
AcDbSpline
210
0.0
220
0.0
230
1.0
 70
     8
 71
     3
 72
    10
 73
     6
 74
     0
 42
0.000000001
 43
0.0000000001
 40
0.0
 40
0.0
 40
0.0
 40
0.0
 40
0.2664273764381368
 40
0.8740310622021848
 40
0.9999999999999998
 40
0.9999999999999998
 40
0.9999999999999998
 40
0.9999999999999998
 10
303.5332141600707
 20
679.0642228658111
 30
0.0
 10
303.5366306093189
 20
679.0614904404222
 30
0.0
 10
303.5492938955823
 20
679.0538150457465
 30
0.0
 10
303.5692913723505
 20
679.0500786642179
 30
0.0
 10
303.5873882273279
 20
679.0506933010493
 30
0.0
 10
303.5905971636585
 20
679.0508994217629
 30
0.0
  0
SPLINE
  5
1C4
330
1B7
100
AcDbEntity
  8
DV3_Default
  6
Continuous
 62
     7
100
AcDbSpline
210
0.0
220
0.0
230
1.0
 70
     8
 71
     3
 72
    10
 73
     6
 74
     0
 42
0.000000001
 43
0.0000000001
 40
0.0
 40
0.0
 40
0.0
 40
0.0
 40
0.1880285886882533
 40
0.7695015682626054
 40
1.0
 40
1.0
 40
1.0
 40
1.0
 10
302.9527487885856
 20
679.0697581405891
 30
0.0
 10
302.9652901048231
 20
679.066960954543
 30
0.0
 10
303.0158415564619
 20
679.0566411736545
 30
0.0
 10
303.0771932196299
 20
679.0493093095303
 30
0.0
 10
303.1204435851642
 20
679.0511923974527
 30
0.0
 10
303.1324060795919
 20
679.0521031815321
 30
0.0
  0
ARC
  5
1C5
330
1B7
100
AcDbEntity
  8
DV3_Default
  6
Continuous
 62
     7
100
AcDbCircle
 10
309.3053679113098
 20
676.102363726855
 30
0.0
 40
4.073499742420055
100
AcDbArc
 50
132.4401943961885
 51
133.2923806081758
  0
ARC
  5
1C6
330
1B7
100
AcDbEntity
  8
DV3_Default
  6
Continuous
 62
     7
100
AcDbCircle
 10
309.3053679113098
 20
676.102363726855
 30
0.0
 40
4.073499742420055
100
AcDbArc
 50
133.489726289047
 51
133.6345928582638
  0
SPLINE
  5
1C7
330
1B7
100
AcDbEntity
  8
DV3_Default
  6
Continuous
 62
     7
100
AcDbSpline
210
0.0
220
0.0
230
1.0
 70
     8
 71
     3
 72
    10
 73
     6
 74
     0
 42
0.000000001
 43
0.0000000001
 40
0.0
 40
0.0
 40
0.0
 40
0.0
 40
0.216320256446321
 40
0.8487333619420649
 40
1.0
 40
1.0
 40
1.0
 40
1.0
 10
305.875745741818
 20
679.0702459025233
 30
0.0
 10
305.8844049184656
 20
679.0672533726044
 30
0.0
 10
305.9172280701629
 20
679.0567208529795
 30
0.0
 10
305.9504627047705
 20
679.0499795609161
 30
0.0
 10
305.970480027885
 20
679.0508677103941
 30
0.0
 10
305.9741739854426
 20
679.0512129810315
 30
0.0
  0
SPLINE
  5
1C8
330
1B7
100
AcDbEntity
  8
DV3_Default
  6
Continuous
 62
     7
100
AcDbSpline
210
0.0
220
0.0
230
1.0
 70
     8
 71
     3
 72
    10
 73
     6
 74
     0
 42
0.000000001
 43
0.0000000001
 40
0.0
 40
0.0
 40
0.0
 40
0.0
 40
0.4321347150016458
 40
0.9846977152201253
 40
1.0
 40
1.0
 40
1.0
 40
1.0
 10
309.6268021803995
 20
679.0713608243382
 30
0.0
 10
309.6099239257506
 20
679.0654083392322
 30
0.0
 10
309.5741349900753
 20
679.0545950208914
 30
0.0
 10
309.5443274366499
 20
679.0504864614318
 30
0.0
 10
309.5296441946766
 20
679.0505846861911
 30
0.0
 10
309.52925015634
 20
679.0505891024321
 30
0.0
  0
ARC
  5
1C9
330
1B7
100
AcDbEntity
  8
DV3_Default
  6
Continuous
 62
     7
100
AcDbCircle
 10
306.1055130610611
 20
676.0008501175449
 30
0.0
 40
4.207938583359704
100
AcDbArc
 50
46.47035941469474
 51
46.77538628355205
  0
SPLINE
  5
1CA
330
1B7
100
AcDbEntity
  8
DV3_Default
  6
Continuous
 62
     7
100
AcDbSpline
210
0.0
220
0.0
230
1.0
 70
     8
 71
     3
 72
    10
 73
     6
 74
     0
 42
0.000000001
 43
0.0000000001
 40
0.0
 40
0.0
 40
0.0
 40
0.0
 40
0.5550934548311358
 40
0.5550934548311358
 40
1.0
 40
1.0
 40
1.0
 40
1.0
 10
313.0544255478985
 20
679.2691288564367
 30
0.0
 10
312.9000678719648
 20
679.1916430798441
 30
0.0
 10
312.7560010786861
 20
679.1294540135311
 30
0.0
 10
312.5318671879537
 20
679.0621870945385
 30
0.0
 10
312.4430522705155
 20
679.0472023446007
 30
0.0
 10
312.3682083686645
 20
679.0512206159331
 30
0.0
  0
SPLINE
  5
1CB
330
1B7
100
AcDbEntity
  8
DV3_Default
  6
Continuous
 62
     7
100
AcDbSpline
210
0.0
220
0.0
230
1.0
 70
     8
 71
     3
 72
    10
 73
     6
 74
     0
 42
0.000000001
 43
0.0000000001
 40
0.0
 40
0.0
 40
0.0
 40
0.0
 40
0.0736546073451455
 40
0.7477996856278084
 40
1.0
 40
1.0
 40
1.0
 40
1.0
 10
311.9662390199186
 20
679.0645653496648
 30
0.0
 10
311.9652474945636
 20
679.0637440998985
 30
0.0
 10
311.9548051961866
 20
679.0557283678809
 30
0.0
 10
311.9357726049596
 20
679.0494043842357
 30
0.0
 10
311.9108294655147
 20
679.0511342498977
 30
0.0
 10
311.9037033857333
 20
679.0519530843599
 30
0.0
  0
ARC
  5
1CC
330
1B7
100
AcDbEntity
  8
DV3_Default
  6
Continuous
 62
     7
100
AcDbCircle
 10
314.7687567873737
 20
680.7061866137822
 30
0.0
 40
1.650319816272155
100
AcDbArc
 50
270.1079873831183
 51
284.1900543762567
  0
SPLINE
  5
1CD
330
1B7
100
AcDbEntity
  8
DV3_Default
  6
Continuous
 62
     7
100
AcDbSpline
210
0.0
220
0.0
230
1.0
 70
     8
 71
     3
 72
    10
 73
     6
 74
     0
 42
0.000000001
 43
0.0000000001
 40
0.0
 40
0.0
 40
0.0
 40
0.0
 40
0.1195053188672938
 40
0.888606148470089
 40
1.0
 40
1.0
 40
1.0
 40
1.0
 10
314.5328315769393
 20
679.0656224805267
 30
0.0
 10
314.5289608562543
 20
679.0644164299712
 30
0.0
 10
314.4996512238393
 20
679.0559250207465
 30
0.0
 10
314.4623221671164
 20
679.0503818166449
 30
0.0
 10
314.4251727289983
 20
679.0507682383496
 30
0.0
 10
314.420414444524
 20
679.0508889780746
 30
0.0
  0
ARC
  5
1CE
330
1B7
100
AcDbEntity
  8
DV3_Default
  6
Continuous
 62
     7
100
AcDbCircle
 10
316.501197310999
 20
680.7935079194164
 30
0.0
 40
1.739647727841926
100
AcDbArc
 50
269.8974416810095
 51
284.2201522667325
  0
SPLINE
  5
1CF
330
1B7
100
AcDbEntity
  8
DV3_Default
  6
Continuous
 62
     7
100
AcDbSpline
210
0.0
220
0.0
230
1.0
 70
     8
 71
     3
 72
    10
 73
     6
 74
     0
 42
0.000000001
 43
0.0000000001
 40
0.0
 40
0.0
 40
0.0
 40
0.0
 40
0.1553540554523488
 40
0.7640713132170553
 40
1.0
 40
1.0
 40
1.0
 40
1.0
 10
316.4456794960043
 20
679.0680263474326
 30
0.0
 10
316.4359575846289
 20
679.0659104737557
 30
0.0
 10
316.3873315865771
 20
679.0563506350915
 30
0.0
 10
316.3186977929665
 20
679.0493469183462
 30
0.0
 10
316.2562197185453
 20
679.0511689184286
 30
0.0
 10
316.2385555307515
 20
679.0520429395936
 30
0.0
  0
ARC
  5
1D0
330
1B7
100
AcDbEntity
  8
DV3_Default
  6
Continuous
 62
     7
100
AcDbCircle
 10
317.383007225125
 20
680.600880452068
 30
0.0
 40
1.541822838626031
100
AcDbArc
 50
300.2595735502457
 51
326.8994310298805
  0
ARC
  5
1D1
330
1B7
100
AcDbEntity
  8
DV3_Default
  6
Continuous
 62
     7
100
AcDbCircle
 10
298.1131320955395
 20
680.5977206210491
 30
0.0
 40
1.537578752543017
100
AcDbArc
 50
213.0630606128971
 51
239.7778710394996
  0
SPLINE
  5
1D2
330
1B7
100
AcDbEntity
  8
DV3_Default
  6
Continuous
 62
     7
100
AcDbSpline
210
0.0
220
0.0
230
1.0
 70
     8
 71
     3
 72
    12
 73
     8
 74
     0
 42
0.000000001
 43
0.0000000001
 40
0.0
 40
0.0
 40
0.0
 40
0.0
 40
0.5
 40
0.5
 40
0.75
 40
0.75
 40
1.0
 40
1.0
 40
1.0
 40
1.0
 10
314.1711506527095
 20
679.7588764527771
 30
0.0
 10
313.9967506011415
 20
679.757784021422
 30
0.0
 10
313.8162692918528
 20
679.6747592447287
 30
0.0
 10
313.5391980719559
 20
679.530886425823
 30
0.0
 10
313.4452445632468
 20
679.4786242051576
 30
0.0
 10
313.2515305802145
 20
679.3723312984681
 30
0.0
 10
313.151463959471
 20
679.3180305969695
 30
0.0
 10
313.0544255478985
 20
679.2691288564367
 30
0.0
  0
SPLINE
  5
1D3
330
1B7
100
AcDbEntity
  8
DV3_Default
  6
Continuous
 62
     7
100
AcDbSpline
210
0.0
220
0.0
230
1.0
 70
     8
 71
     3
 72
    11
 73
     7
 74
     0
 42
0.000000001
 43
0.0000000001
 40
0.0
 40
0.0
 40
0.0
 40
0.0
 40
0.4280848893813368
 40
0.7140424446912076
 40
0.8570212223461432
 40
1.0
 40
1.0
 40
1.0
 40
1.0
 10
318.0674441065925
 20
679.7189225690353
 30
0.0
 10
318.0797223303381
 20
679.7182561726174
 30
0.0
 10
318.1008511449099
 20
679.723004570798
 30
0.0
 10
318.1224740747239
 20
679.7372467219607
 30
0.0
 10
318.1336880381833
 20
679.7489562773913
 30
0.0
 10
318.1380637360398
 20
679.7554719493042
 30
0.0
 10
318.1399039134774
 20
679.758876452776
 30
0.0
  0
ARC
  5
1D4
330
1B7
100
AcDbEntity
  8
DV3_Default
  6
Continuous
 62
     7
100
AcDbCircle
 10
317.4519496674726
 20
681.49382824156
 30
0.0
 40
2.453990066915036
100
AcDbArc
 50
257.5741846251792
 51
263.0703276015296
  0
ARC
  5
1D5
330
1B7
100
AcDbEntity
  8
DV3_Default
  6
Continuous
 62
     7
100
AcDbCircle
 10
298.1261098828454
 20
680.5829433111344
 30
0.0
 40
1.531455977588913
100
AcDbArc
 50
266.1187369141697
 51
269.1929737151314
  0
SPLINE
  5
1D6
330
1B7
100
AcDbEntity
  8
DV3_Default
  6
Continuous
 62
     7
100
AcDbSpline
210
0.0
220
0.0
230
1.0
 70
     8
 71
     3
 72
     8
 73
     4
 74
     0
 42
0.000000001
 43
0.0000000001
 40
0.0
 40
0.0
 40
0.0
 40
0.0
 40
1.0
 40
1.0
 40
1.0
 40
1.0
 10
303.5911381277896
 20
679.0514984642866
 30
0.0
 10
303.6038763871044
 20
679.0527181807649
 30
0.0
 10
303.6178707796954
 20
679.0552413859816
 30
0.0
 10
303.6318651722865
 20
679.0577645911985
 30
0.0
  0
SPLINE
  5
1D7
330
1B7
100
AcDbEntity
  8
DV3_Default
  6
Continuous
 62
     7
100
AcDbSpline
210
0.0
220
0.0
230
1.0
 70
     8
 71
     3
 72
     8
 73
     4
 74
     0
 42
0.000000001
 43
0.0000000001
 40
0.0
 40
0.0
 40
0.0
 40
0.0
 40
1.0
 40
1.0
 40
1.0
 40
1.0
 10
301.0923759956087
 20
679.0514139617596
 30
0.0
 10
301.1158265499753
 20
679.0525978736146
 30
0.0
 10
301.1404113148714
 20
679.0551812324062
 30
0.0
 10
301.1649960797675
 20
679.0577645911975
 30
0.0
  0
SPLINE
  5
1D8
330
1B7
100
AcDbEntity
  8
DV3_Default
  6
Continuous
 62
     7
100
AcDbSpline
210
0.0
220
0.0
230
1.0
 70
     8
 71
     3
 72
     8
 73
     4
 74
     0
 42
0.000000001
 43
0.0000000001
 40
0.0
 40
0.0
 40
0.0
 40
0.0
 40
1.0
 40
1.0
 40
1.0
 40
1.0
 10
299.2611905891291
 20
679.0520727710886
 30
0.0
 10
299.2880262093109
 20
679.0534127442973
 30
0.0
 10
299.3153487306906
 20
679.0555886677479
 30
0.0
 10
299.3426712520705
 20
679.0577645911985
 30
0.0
  0
ARC
  5
1D9
330
1B7
100
AcDbEntity
  8
DV3_Default
  6
Continuous
 62
     7
100
AcDbCircle
 10
298.1979661121307
 20
680.1447717393984
 30
0.0
 40
1.09667611366204
100
AcDbArc
 50
270.8526650483626
 51
277.6139153357669
  0
ARC
  5
1DA
330
1B7
100
AcDbEntity
  8
DV3_Default
  6
Continuous
 62
     7
100
AcDbCircle
 10
317.3033149063225
 20
680.1366341222474
 30
0.0
 40
1.088897816471852
100
AcDbArc
 50
262.2179990460048
 51
267.9519706212263
  0
ARC
  5
1DB
330
1B7
100
AcDbEntity
  8
DV3_Default
  6
Continuous
 62
     7
100
AcDbCircle
 10
316.6180789787611
 20
681.97090862117
 30
0.0
 40
2.949489215973118
100
AcDbArc
 50
248.110356703895
 51
260.9960173354085
  0
ARC
  5
1DC
330
1B7
100
AcDbEntity
  8
DV3_Default
  6
Continuous
 62
     7
100
AcDbCircle
 10
316.5830048283364
 20
681.7509784735579
 30
0.0
 40
2.65355758801511
100
AcDbArc
 50
248.4388266159168
 51
260.0207783481181
  0
SPLINE
  5
1DD
330
1B7
100
AcDbEntity
  8
DV3_Default
  6
Continuous
 62
     7
100
AcDbSpline
210
0.0
220
0.0
230
1.0
 70
     8
 71
     3
 72
     9
 73
     5
 74
     0
 42
0.000000001
 43
0.0000000001
 40
0.0
 40
0.0
 40
0.0
 40
0.0
 40
0.2351023764144138
 40
1.0
 40
1.0
 40
1.0
 40
1.0
 10
316.697272487365
 20
679.52334843273
 30
0.0
 10
316.6972381420813
 20
679.5251602776756
 30
0.0
 10
316.69703520971
 20
679.5328631001591
 30
0.0
 10
316.6965904643884
 20
679.5405475988768
 30
0.0
 10
316.6961080869327
 20
679.5464075455392
 30
0.0
  0
ARC
  5
1DE
330
1B7
100
AcDbEntity
  8
DV3_Default
  6
Continuous
 62
     7
100
AcDbCircle
 10
315.0309655623067
 20
682.1885358496513
 30
0.0
 40
3.207379110251251
100
AcDbArc
 50
240.0663788744151
 51
257.4522066691516
  0
ARC
  5
1DF
330
1B7
100
AcDbEntity
  8
DV3_Default
  6
Continuous
 62
     7
100
AcDbCircle
 10
314.9823744642552
 20
682.0155990557797
 30
0.0
 40
2.96251074364569
100
AcDbArc
 50
239.0019444889704
 51
256.284269965046
  0
ARC
  5
1E0
330
1B7
100
AcDbEntity
  8
DV3_Default
  6
Continuous
 62
     7
100
AcDbCircle
 10
313.1785262545987
 20
682.6528455727906
 30
0.0
 40
3.826744297514201
100
AcDbArc
 50
237.9597421007907
 51
249.961407438636
  0
ARC
  5
1E1
330
1B7
100
AcDbEntity
  8
DV3_Default
  6
Continuous
 62
     7
100
AcDbCircle
 10
313.1209460519825
 20
682.527178236942
 30
0.0
 40
3.638819772700112
100
AcDbArc
 50
236.9776663492353
 51
248.6720824440143
  0
ARC
  5
1E2
330
1B7
100
AcDbEntity
  8
DV3_Default
  6
Continuous
 62
     7
100
AcDbCircle
 10
302.3995685560698
 20
682.4855525363493
 30
0.0
 40
3.592276346120001
100
AcDbArc
 50
291.2518232030304
 51
303.0983799250095
  0
ARC
  5
1E3
330
1B7
100
AcDbEntity
  8
DV3_Default
  6
Continuous
 62
     7
100
AcDbCircle
 10
302.4119826548908
 20
682.4658504644247
 30
0.0
 40
3.619829094796577
100
AcDbArc
 50
289.6942047822344
 51
302.384645678499
  0
ARC
  5
1E4
330
1B7
100
AcDbEntity
  8
DV3_Default
  6
Continuous
 62
     7
100
AcDbCircle
 10
300.5287040903799
 20
681.9865843385382
 30
0.0
 40
2.93149817098226
100
AcDbArc
 50
283.6233951562251
 51
301.090198090936
  0
ARC
  5
1E5
330
1B7
100
AcDbEntity
  8
DV3_Default
  6
Continuous
 62
     7
100
AcDbCircle
 10
300.4878857268715
 20
682.1378393594614
 30
0.0
 40
3.153623155689197
100
AcDbArc
 50
282.3984384035245
 51
300.082976053138
  0
ARC
  5
1E6
330
1B7
100
AcDbEntity
  8
DV3_Default
  6
Continuous
 62
     7
100
AcDbCircle
 10
298.8835677006214
 20
681.8381746297234
 30
0.0
 40
2.745131424757412
100
AcDbArc
 50
280.3330118943009
 51
291.3973102699007
  0
ARC
  5
1E7
330
1B7
100
AcDbEntity
  8
DV3_Default
  6
Continuous
 62
     7
100
AcDbCircle
 10
298.8873541801131
 20
681.9530095995048
 30
0.0
 40
2.930828772572718
100
AcDbArc
 50
278.9373494078285
 51
291.8650251945578
  0
SPLINE
  5
1E8
330
1B7
100
AcDbEntity
  8
DV3_Default
  6
Continuous
 62
     7
100
AcDbSpline
210
0.0
220
0.0
230
1.0
 70
     8
 71
     3
 72
    11
 73
     7
 74
     0
 42
0.000000001
 43
0.0000000001
 40
0.0
 40
0.0
 40
0.0
 40
0.0
 40
0.4280848796116867
 40
0.7140424398063713
 40
0.8570212199037134
 40
1.0
 40
1.0
 40
1.0
 40
1.0
 10
297.4317127013025
 20
679.7189223963504
 30
0.0
 10
297.4194323194165
 20
679.7182560358597
 30
0.0
 10
297.3982996773283
 20
679.7230044868663
 30
0.0
 10
297.3766734056088
 20
679.737246684598
 30
0.0
 10
297.3654581708074
 20
679.7489562640071
 30
0.0
 10
297.3610822332492
 20
679.7554719453064
 30
0.0
 10
297.3592420541775
 20
679.7588764527779
 30
0.0
  0
SPLINE
  5
1E9
330
1B7
100
AcDbEntity
  8
DV3_Default
  6
Continuous
 62
     7
100
AcDbSpline
210
0.0
220
0.0
230
1.0
 70
     8
 71
     3
 72
    12
 73
     8
 74
     0
 42
0.000000001
 43
0.0000000001
 40
0.0
 40
0.0
 40
0.0
 40
0.0
 40
0.0365474052407009
 40
0.2595602239860341
 40
0.6753326725457384
 40
0.8410454773420561
 40
1.0
 40
1.0
 40
1.0
 40
1.0
 10
298.806452995604
 20
679.5702527696558
 30
0.0
 10
298.8050996647928
 20
679.5620563845748
 30
0.0
 10
298.7975014966401
 20
679.5035113134267
 30
0.0
 10
298.8146752552661
 20
679.3476608469716
 30
0.0
 10
298.9549489934948
 20
679.1889898338265
 30
0.0
 10
299.1877002100963
 20
679.1254504456432
 30
0.0
 10
299.3140832422838
 20
679.1335826720324
 30
0.0
 10
299.3759593624065
 20
679.1375641449263
 30
0.0
  0
LINE
  5
1EA
330
1B7
100
AcDbEntity
  8
DV3_Default
  6
Continuous
 62
     7
100
AcDbLine
 10
296.5495729838274
 20
681.5806247022954
 30
0.0
 11
296.5495729838274
 21
680.5546247022954
 31
0.0
  0
LINE
  5
1EB
330
1B7
100
AcDbEntity
  8
DV3_Default
  6
Continuous
 62
     7
100
AcDbLine
 10
318.9495729838275
 20
680.5546247022954
 30
0.0
 11
318.9495729838275
 21
681.5806247022954
 31
0.0
  0
ARC
  5
1EC
330
1B7
100
AcDbEntity
  8
DV3_Default
  6
Continuous
 62
     7
100
AcDbCircle
 10
317.4574510326075
 20
680.4506247022954
 30
0.0
 40
1.399999999999998
100
AcDbArc
 50
330.4069500779765
 51
340.6753270510546
  0
ARC
  5
1ED
330
1B7
100
AcDbEntity
  8
DV3_Default
  6
Continuous
 62
     7
100
AcDbCircle
 10
298.0416949350475
 20
680.4506247022954
 30
0.0
 40
1.400000000000269
100
AcDbArc
 50
199.3246729489511
 51
209.5797645168894
  0
LINE
  5
1EE
330
1B7
100
AcDbEntity
  8
DV3_Default
  6
Continuous
 62
     7
100
AcDbLine
 10
317.2925663775622
 20
679.0506247022955
 30
0.0
 11
317.3759740466052
 21
679.0506247022955
 31
0.0
  0
LINE
  5
1EF
330
1B7
100
AcDbEntity
  8
DV3_Default
  6
Continuous
 62
     7
100
AcDbLine
 10
316.2749543791765
 20
679.0506247022955
 30
0.0
 11
316.5177747048763
 21
679.0506247022955
 31
0.0
  0
LINE
  5
1F0
330
1B7
100
AcDbEntity
  8
DV3_Default
  6
Continuous
 62
     7
100
AcDbLine
 10
314.4197041977749
 20
679.0506247022955
 30
0.0
 11
314.8013173865623
 21
679.0506247022955
 31
0.0
  0
LINE
  5
1F1
330
1B7
100
AcDbEntity
  8
DV3_Default
  6
Continuous
 62
     7
100
AcDbLine
 10
311.9183896618185
 20
679.0506247022955
 30
0.0
 11
312.3917109509761
 21
679.0506247022955
 31
0.0
  0
LINE
  5
1F2
330
1B7
100
AcDbEntity
  8
DV3_Default
  6
Continuous
 62
     7
100
AcDbLine
 10
309.0024693840107
 20
679.0506247022955
 30
0.0
 11
309.5354318397901
 21
679.0506247022955
 31
0.0
  0
LINE
  5
1F3
330
1B7
100
AcDbEntity
  8
DV3_Default
  6
Continuous
 62
     7
100
AcDbLine
 10
305.966725761745
 20
679.0506247022955
 30
0.0
 11
306.4950643120896
 21
679.0506247022955
 31
0.0
  0
LINE
  5
1F4
330
1B7
100
AcDbEntity
  8
DV3_Default
  6
Continuous
 62
     7
100
AcDbLine
 10
303.1067451880773
 20
679.0506247022955
 30
0.0
 11
303.5817283454738
 21
679.0506247022955
 31
0.0
  0
LINE
  5
1F5
330
1B7
100
AcDbEntity
  8
DV3_Default
  6
Continuous
 62
     7
100
AcDbLine
 10
300.6969006557698
 20
679.0506247022955
 30
0.0
 11
301.0782268222111
 21
679.0506247022955
 31
0.0
  0
LINE
  5
1F6
330
1B7
100
AcDbEntity
  8
DV3_Default
  6
Continuous
 62
     7
100
AcDbLine
 10
298.9822384166499
 20
679.0506247022955
 30
0.0
 11
299.2237403471284
 21
679.0506247022955
 31
0.0
  0
LINE
  5
1F7
330
1B7
100
AcDbEntity
  8
DV3_Default
  6
Continuous
 62
     7
100
AcDbLine
 10
298.1229931278043
 20
679.0506247022955
 30
0.0
 11
298.2071502910248
 21
679.0506247022955
 31
0.0
  0
ARC
  5
1F8
330
1B7
100
AcDbEntity
  8
DV3_Default
  6
Continuous
 62
     7
100
AcDbCircle
 10
314.9095729838275
 20
681.3441108233644
 30
0.0
 40
4.100000000000084
100
AcDbArc
 50
340.6753270510525
 51
345.7153084057446
  0
ARC
  5
1F9
330
1B7
100
AcDbEntity
  8
DV3_Default
  6
Continuous
 62
     7
100
AcDbCircle
 10
300.5895729838275
 20
681.3441108233644
 30
0.0
 40
4.099999999999101
100
AcDbArc
 50
194.2846915942556
 51
199.3246729489471
  0
ARC
  5
1FA
330
1B7
100
AcDbEntity
  8
DV3_Default
  6
Continuous
 62
     7
100
AcDbCircle
 10
319.1541507883475
 20
680.2633891841925
 30
0.0
 40
0.2800000000008078
100
AcDbArc
 50
150.9618068832209
 51
165.7153084058013
  0
ARC
  5
1FB
330
1B7
100
AcDbEntity
  8
DV3_Default
  6
Continuous
 62
     7
100
AcDbCircle
 10
296.3449951793074
 20
680.2633891841925
 30
0.0
 40
0.2799999999987857
100
AcDbArc
 50
14.28469159420898
 51
29.03819311676542
  0
ARC
  5
1FC
330
1B7
100
AcDbEntity
  8
DV3_Default
  6
Continuous
 62
     7
100
AcDbCircle
 10
318.6295729838275
 20
680.5546247022954
 30
0.0
 40
0.320000000001111
100
AcDbArc
 50
330.9618068834556
 51
0.0
  0
ARC
  5
1FD
330
1B7
100
AcDbEntity
  8
DV3_Default
  6
Continuous
 62
     7
100
AcDbCircle
 10
296.8695729838275
 20
680.5546247022954
 30
0.0
 40
0.3200000000000008
100
AcDbArc
 50
180.0
 51
209.0381931165394
  0
ARC
  5
1FE
330
1B7
100
AcDbEntity
  8
DV3_Default
  6
Continuous
 62
     7
100
AcDbCircle
 10
305.3286893922834
 20
677.5961954923196
 30
0.0
 40
2.0548682349953
100
AcDbArc
 50
101.5628921007843
 51
117.8457996514288
  0
ARC
  5
1FF
330
1B7
100
AcDbEntity
  8
DV3_Default
  6
Continuous
 62
     7
100
AcDbCircle
 10
307.7352471388289
 20
678.2267038727154
 30
0.0
 40
1.410175524678689
100
AcDbArc
 50
56.9769615107597
 51
89.41792714353319
  0
ARC
  5
200
330
1B7
100
AcDbEntity
  8
DV3_Default
  6
Continuous
 62
     7
100
AcDbCircle
 10
307.5674507883787
 20
683.6624581694045
 30
0.0
 40
5.038448382494957
100
AcDbArc
 50
295.5710603220747
 51
300.8253641841463
  0
LINE
  5
201
330
1B7
100
AcDbEntity
  8
DV3_Default
  6
Continuous
 62
     7
100
AcDbLine
 10
309.602117992622
 20
679.0634879930717
 30
0.0
 11
309.6572348534932
 21
679.0847489137913
 31
0.0
  0
LINE
  5
202
330
1B7
100
AcDbEntity
  8
DV3_Default
  6
Continuous
 62
     7
100
AcDbLine
 10
309.6904322687871
 20
679.097554570781
 30
0.0
 11
309.7421971943734
 21
679.117522507299
 31
0.0
  0
ARC
  5
203
330
1B7
100
AcDbEntity
  8
DV3_Default
  6
Continuous
 62
     7
100
AcDbCircle
 10
310.2688523132676
 20
677.9044651261399
 30
0.0
 40
1.733345438946088
100
AcDbArc
 50
60.04020980252928
 51
77.45556823007794
  0
ARC
  5
204
330
1B7
100
AcDbEntity
  8
DV3_Default
  6
Continuous
 62
     7
100
AcDbCircle
 10
311.6674025967409
 20
682.0671691899081
 30
0.0
 40
3.128983320730701
100
AcDbArc
 50
289.3766604085805
 51
299.2066880509502
  0
ARC
  5
205
330
1B7
100
AcDbEntity
  8
DV3_Default
  6
Continuous
 62
     7
100
AcDbCircle
 10
314.5324349671018
 20
681.3595703651252
 30
0.0
 40
2.339080527166405
100
AcDbArc
 50
286.4683870166369
 51
295.0772261664004
  0
SPLINE
  5
206
330
1B7
100
AcDbEntity
  8
DV3_Default
  6
Continuous
 62
     7
100
AcDbSpline
210
0.0
220
0.0
230
1.0
 70
     8
 71
     3
 72
     8
 73
     4
 74
     0
 42
0.000000001
 43
0.0000000001
 40
0.0
 40
0.0
 40
0.0
 40
0.0
 40
0.9999999999999998
 40
0.9999999999999998
 40
0.9999999999999998
 40
0.9999999999999998
 10
304.8392226113927
 20
679.6086852571494
 30
0.0
 10
304.8573038075848
 20
679.600637557984
 30
0.0
 10
304.8753338420268
 20
679.5922919376121
 30
0.0
 10
304.8932789953452
 20
679.5837366155174
 30
0.0
  0
SPLINE
  5
207
330
1B7
100
AcDbEntity
  8
DV3_Default
  6
Continuous
 62
     7
100
AcDbSpline
210
0.0
220
0.0
230
1.0
 70
     8
 71
     3
 72
     8
 73
     4
 74
     0
 42
0.000000001
 43
0.0000000001
 40
0.0
 40
0.0
 40
0.0
 40
0.0
 40
0.9999999999999998
 40
0.9999999999999998
 40
0.9999999999999998
 40
0.9999999999999998
 10
305.8702848263446
 20
679.0738126025542
 30
0.0
 10
305.8803983409517
 20
679.0700052714799
 30
0.0
 10
305.8906235601585
 20
679.0661955300034
 30
0.0
 10
305.9010495713555
 20
679.0623214052264
 30
0.0
  0
SPLINE
  5
208
330
1B7
100
AcDbEntity
  8
DV3_Default
  6
Continuous
 62
     7
100
AcDbSpline
210
0.0
220
0.0
230
1.0
 70
     8
 71
     3
 72
     8
 73
     4
 74
     0
 42
0.000000001
 43
0.0000000001
 40
0.0
 40
0.0
 40
0.0
 40
0.0
 40
1.0
 40
1.0
 40
1.0
 40
1.0
 10
302.9533007314502
 20
679.0718279878278
 30
0.0
 10
302.9668945533195
 20
679.0683709391426
 30
0.0
 10
302.980687476756
 20
679.0649101968021
 30
0.0
 10
302.9947531214511
 20
679.0613961095963
 30
0.0
  0
SPLINE
  5
209
330
1B7
100
AcDbEntity
  8
DV3_Default
  6
Continuous
 62
     7
100
AcDbSpline
210
0.0
220
0.0
230
1.0
 70
     8
 71
     3
 72
     8
 73
     4
 74
     0
 42
0.000000001
 43
0.0000000001
 40
0.0
 40
0.0
 40
0.0
 40
0.0
 40
0.9999999999999998
 40
0.9999999999999998
 40
0.9999999999999998
 40
0.9999999999999998
 10
299.9738449418222
 20
679.2404429696958
 30
0.0
 10
300.0101756966312
 20
679.2240695640188
 30
0.0
 10
300.04678123614
 20
679.2083027289891
 30
0.0
 10
300.0832634867559
 20
679.1935190931278
 30
0.0
  0
SPLINE
  5
20A
330
1B7
100
AcDbEntity
  8
DV3_Default
  6
Continuous
 62
     7
100
AcDbSpline
210
0.0
220
0.0
230
1.0
 70
     8
 71
     3
 72
     8
 73
     4
 74
     0
 42
0.000000001
 43
0.0000000001
 40
0.0
 40
0.0
 40
0.0
 40
0.0
 40
0.9999999999999998
 40
0.9999999999999998
 40
0.9999999999999998
 40
0.9999999999999998
 10
300.5125594536392
 20
679.0693802894516
 30
0.0
 10
300.5267248201838
 20
679.0665040516053
 30
0.0
 10
300.5410995266518
 20
679.0636214188548
 30
0.0
 10
300.5557262228771
 20
679.0607017664714
 30
0.0
  0
ARC
  5
20B
330
1B7
100
AcDbEntity
  8
DV3_Default
  6
Continuous
 62
     7
100
AcDbCircle
 10
316.5212885496683
 20
679.5417118160417
 30
0.0
 40
0.1774808979329673
100
AcDbArc
 50
354.2052940057958
 51
86.67481092595208
  0
LINE
  5
20C
330
1B7
100
AcDbEntity
  8
DV3_Default
  6
Continuous
 62
     7
100
AcDbLine
 10
314.5150590117888
 20
679.4503534256599
 30
0.0
 11
314.5745535836004
 21
679.3269642677318
 31
0.0
  0
SPLINE
  5
20D
330
1B7
100
AcDbEntity
  8
DV3_Default
  6
Continuous
 62
     7
100
AcDbSpline
210
0.0
220
0.0
230
1.0
 70
     8
 71
     3
 72
    10
 73
     6
 74
     0
 42
0.000000001
 43
0.0000000001
 40
0.0
 40
0.0
 40
0.0
 40
0.0
 40
0.3125089588221372
 40
0.6433284830528232
 40
1.0
 40
1.0
 40
1.0
 40
1.0
 10
314.130085494527
 20
679.7188977851428
 30
0.0
 10
314.2019115209643
 20
679.7084007333664
 30
0.0
 10
314.3244368458442
 20
679.6894865875309
 30
0.0
 10
314.4748324060296
 20
679.5755552585047
 30
0.0
 10
314.5010444705587
 20
679.4990007454616
 30
0.0
 10
314.5150590117888
 20
679.4503534256599
 30
0.0
  0
ARC
  5
20E
330
1B7
100
AcDbEntity
  8
DV3_Default
  6
Continuous
 62
     7
100
AcDbCircle
 10
312.5202085994317
 20
677.7498283026901
 30
0.0
 40
1.893362036864683
100
AcDbArc
 50
61.33179202971307
 51
63.25552827161754
  0
ARC
  5
20F
330
1B7
100
AcDbEntity
  8
DV3_Default
  6
Continuous
 62
     7
100
AcDbCircle
 10
311.5731455748283
 20
679.0986348856897
 30
0.0
 40
0.3342936239505517
100
AcDbArc
 50
14.98634509898976
 51
45.84151801790396
  0
ARC
  5
210
330
1B7
100
AcDbEntity
  8
DV3_Default
  6
Continuous
 62
     7
100
AcDbCircle
 10
311.0481872721781
 20
678.7779373672495
 30
0.0
 40
0.9426098865604503
100
AcDbArc
 50
36.48783747911213
 51
86.60544102906378
  0
ARC
  5
211
330
1B7
100
AcDbEntity
  8
DV3_Default
  6
Continuous
 62
     7
100
AcDbCircle
 10
310.1704568838377
 20
677.5961965056302
 30
0.0
 40
2.054867194935952
100
AcDbArc
 50
62.1541947563165
 51
78.43711077177835
  0
SPLINE
  5
212
330
1B7
100
AcDbEntity
  8
DV3_Default
  6
Continuous
 62
     7
100
AcDbSpline
210
0.0
220
0.0
230
1.0
 70
     8
 71
     3
 72
    12
 73
     8
 74
     0
 42
0.000000001
 43
0.0000000001
 40
0.0
 40
0.0
 40
0.0
 40
0.0
 40
0.1067067040254711
 40
0.2228345948809276
 40
0.4712826879256549
 40
0.7366104281677791
 40
1.0
 40
1.0
 40
1.0
 40
1.0
 10
307.7495729831683
 20
679.7189464801556
 30
0.0
 10
307.8133953137474
 20
679.7135412422821
 30
0.0
 10
307.9268248519081
 20
679.7030942648966
 30
0.0
 10
308.1709463673562
 20
679.620623869679
 30
0.0
 10
308.4473523491698
 20
679.4686125401612
 30
0.0
 10
308.7268292841149
 20
679.2604189816363
 30
0.0
 10
308.8336675820335
 20
679.1758017961915
 30
0.0
 10
308.8927696217952
 20
679.1268852138413
 30
0.0
  0
ARC
  5
213
330
1B7
100
AcDbEntity
  8
DV3_Default
  6
Continuous
 62
     7
100
AcDbCircle
 10
309.1365247375343
 20
679.4047816087672
 30
0.0
 40
0.3703561251842875
100
AcDbArc
 50
226.0383117476788
 51
246.9975621005096
  0
ARC
  5
214
330
1B7
100
AcDbEntity
  8
DV3_Default
  6
Continuous
 62
     7
100
AcDbCircle
 10
306.0936978273181
 20
679.8008087466214
 30
0.0
 40
0.8453233474746179
100
AcDbArc
 50
299.2435614070976
 51
312.6925836631059
  0
SPLINE
  5
215
330
1B7
100
AcDbEntity
  8
DV3_Default
  6
Continuous
 62
     7
100
AcDbSpline
210
0.0
220
0.0
230
1.0
 70
     8
 71
     3
 72
    12
 73
     8
 74
     0
 42
0.000000001
 43
0.0000000001
 40
0.0
 40
0.0
 40
0.0
 40
0.0
 40
0.2553832442058965
 40
0.5170427312800902
 40
0.7650988487564355
 40
0.883309394559731
 40
1.0
 40
1.0
 40
1.0
 40
1.0
 10
306.6069405849313
 20
679.1290604919489
 30
0.0
 10
306.6641798026334
 20
679.1774239432418
 30
0.0
 10
306.7679840514208
 20
679.261925502374
 30
0.0
 10
307.0432399870581
 20
679.4650274796367
 30
0.0
 10
307.3127342949734
 20
679.6187306006377
 30
0.0
 10
307.560550288619
 20
679.7043266458972
 30
0.0
 10
307.6799501275297
 20
679.713881030231
 30
0.0
 10
307.7495729829201
 20
679.7188816412283
 30
0.0
  0
ARC
  5
216
330
1B7
100
AcDbEntity
  8
DV3_Default
  6
Continuous
 62
     7
100
AcDbCircle
 10
307.7637930684275
 20
678.2270555643585
 30
0.0
 40
1.409822897365765
100
AcDbArc
 50
90.57792008530956
 51
123.0271404046155
  0
ARC
  5
217
330
1B7
100
AcDbEntity
  8
DV3_Default
  6
Continuous
 62
     7
100
AcDbCircle
 10
307.735427833316
 20
678.217800796457
 30
0.0
 40
1.420018982448473
100
AcDbArc
 50
57.56129669722262
 51
89.42925391076533
  0
ARC
  5
218
330
1B7
100
AcDbEntity
  8
DV3_Default
  6
Continuous
 62
     7
100
AcDbCircle
 10
306.4857791774695
 20
680.7473081328782
 30
0.0
 40
1.783731803450672
100
AcDbArc
 50
240.0805072666184
 51
250.7538269661214
  0
SPLINE
  5
219
330
1B7
100
AcDbEntity
  8
DV3_Default
  6
Continuous
 62
     7
100
AcDbSpline
210
0.0
220
0.0
230
1.0
 70
     8
 71
     3
 72
    11
 73
     7
 74
     0
 42
0.000000001
 43
0.0000000001
 40
0.0
 40
0.0
 40
0.0
 40
0.0
 40
0.1806853379631887
 40
0.4613428722203327
 40
0.8623796617563364
 40
1.0
 40
1.0
 40
1.0
 40
1.0
 10
304.3951616283231
 20
679.7188943565125
 30
0.0
 10
304.483096514674
 20
679.709621923003
 30
0.0
 10
304.6777787274463
 20
679.6878356928937
 30
0.0
 10
305.0531588209759
 20
679.5095270693437
 30
0.0
 10
305.3831660785063
 20
679.3137194001579
 30
0.0
 10
305.5477096658776
 20
679.2270814808262
 30
0.0
 10
305.5960847196642
 20
679.201299427084
 30
0.0
  0
ARC
  5
21A
330
1B7
100
AcDbEntity
  8
DV3_Default
  6
Continuous
 62
     7
100
AcDbCircle
 10
305.3140133171415
 20
677.6686037240056
 30
0.0
 40
1.980016283503354
100
AcDbArc
 50
101.4562571019838
 51
118.6502085426531
  0
ARC
  5
21B
330
1B7
100
AcDbEntity
  8
DV3_Default
  6
Continuous
 62
     7
100
AcDbCircle
 10
303.3683304276419
 20
680.8240655781645
 30
0.0
 40
1.802071795146449
100
AcDbArc
 50
244.2476635001857
 51
257.8037155138043
  0
SPLINE
  5
21C
330
1B7
100
AcDbEntity
  8
DV3_Default
  6
Continuous
 62
     7
100
AcDbSpline
210
0.0
220
0.0
230
1.0
 70
     8
 71
     3
 72
    11
 73
     7
 74
     0
 42
0.000000001
 43
0.0000000001
 40
0.0
 40
0.0
 40
0.0
 40
0.0
 40
0.1808905636841626
 40
0.4621261354655007
 40
0.8639717048977351
 40
1.0
 40
1.0
 40
1.0
 40
1.0
 10
301.3690761060999
 20
679.718894356834
 30
0.0
 10
301.4439446663573
 20
679.709797175489
 30
0.0
 10
301.6109535597378
 20
679.6883184381947
 30
0.0
 10
301.9748103205025
 20
679.5091430168516
 30
0.0
 10
302.3250925832702
 20
679.312974094653
 30
0.0
 10
302.5264517385344
 20
679.2264533835663
 30
0.0
 10
302.585362693063
 20
679.2009746129162
 30
0.0
  0
LINE
  5
21D
330
1B7
100
AcDbEntity
  8
DV3_Default
  6
Continuous
 62
     7
100
AcDbLine
 10
298.7638739947629
 20
679.072877150207
 30
0.0
 11
298.8177713154238
 21
679.0605826116935
 31
0.0
  0
SPLINE
  5
21E
330
1B7
100
AcDbEntity
  8
DV3_Default
  6
Continuous
 62
     7
100
AcDbSpline
210
0.0
220
0.0
230
1.0
 70
     8
 71
     3
 72
    10
 73
     6
 74
     0
 42
0.000000001
 43
0.0000000001
 40
0.0
 40
0.0
 40
0.0
 40
0.0
 40
0.3474135006621465
 40
0.8890559038976252
 40
1.0
 40
1.0
 40
1.0
 40
1.0
 10
297.4256883645503
 20
679.7188950835653
 30
0.0
 10
297.4520090006272
 20
679.7102806083707
 30
0.0
 10
297.5130344699127
 20
679.6903453195519
 30
0.0
 10
297.6573568002094
 20
679.5781971579242
 30
0.0
 10
297.7640386773746
 20
679.5049063037241
 30
0.0
 10
297.7825483150745
 20
679.4924454602838
 30
0.0
  0
SPLINE
  5
21F
330
1B7
100
AcDbEntity
  8
DV3_Default
  6
Continuous
 62
     7
100
AcDbSpline
210
0.0
220
0.0
230
1.0
 70
     8
 71
     3
 72
    10
 73
     6
 74
     0
 42
0.000000001
 43
0.0000000001
 40
0.0
 40
0.0
 40
0.0
 40
0.0
 40
0.1227922119760529
 40
0.9748091806544081
 40
1.0
 40
1.0
 40
1.0
 40
1.0
 10
298.1157974057284
 20
679.2914233939058
 30
0.0
 10
298.1296228427049
 20
679.283920651496
 30
0.0
 10
298.2406447030593
 20
679.2243891265241
 30
0.0
 10
298.3650136776324
 20
679.1635970983061
 30
0.0
 10
298.4736701074913
 20
679.1390666641692
 30
0.0
 10
298.4772855094254
 20
679.1382509596535
 30
0.0
  0
ARC
  5
220
330
1B7
100
AcDbEntity
  8
DV3_Default
  6
Continuous
 62
     7
100
AcDbCircle
 10
298.9680117178519
 20
679.5563001396512
 30
0.0
 40
0.162654728938913
100
AcDbArc
 50
86.42832517199233
 51
176.2965651150201
  0
SPLINE
  5
221
330
1B7
100
AcDbEntity
  8
DV3_Default
  6
Continuous
 62
     7
100
AcDbSpline
210
0.0
220
0.0
230
1.0
 70
     8
 71
     3
 72
    11
 73
     7
 74
     0
 42
0.000000001
 43
0.0000000001
 40
0.0
 40
0.0
 40
0.0
 40
0.0
 40
0.2578382905116299
 40
0.4673703783652087
 40
0.8419994347343997
 40
1.0
 40
1.0
 40
1.0
 40
1.0
 10
298.96642987205
 20
679.7184110418251
 30
0.0
 10
299.0295771170696
 20
679.7068819019556
 30
0.0
 10
299.1301205116431
 20
679.6872748452685
 30
0.0
 10
299.368276283091
 20
679.5586396303624
 30
0.0
 10
299.6047494160249
 20
679.4194035300977
 30
0.0
 10
299.7729961115102
 20
679.3365410860474
 30
0.0
 10
299.8314361694583
 20
679.3076039131284
 30
0.0
  0
SPLINE
  5
222
330
1B7
100
AcDbEntity
  8
DV3_Default
  6
Continuous
 62
     7
100
AcDbSpline
210
0.0
220
0.0
230
1.0
 70
     8
 71
     3
 72
    10
 73
     6
 74
     0
 42
0.000000001
 43
0.0000000001
 40
0.0
 40
0.0
 40
0.0
 40
0.0
 40
0.2590144061985511
 40
0.6393640423846199
 40
1.0
 40
1.0
 40
1.0
 40
1.0
 10
301.0073968021452
 20
679.4990357349834
 30
0.0
 10
301.0174323220667
 20
679.5296579112943
 30
0.0
 10
301.0402208324915
 20
679.5922097206407
 30
0.0
 10
301.1760862275943
 20
679.6901672513468
 30
0.0
 10
301.2971893593257
 20
679.7086557130017
 30
0.0
 10
301.3690851601794
 20
679.7188709994121
 30
0.0
  0
LINE
  5
223
330
1B7
100
AcDbEntity
  8
DV3_Default
  6
Continuous
 62
     7
100
AcDbLine
 10
300.9246680828406
 20
679.3266134971044
 30
0.0
 11
301.0073968021452
 21
679.4990357349832
 31
0.0
  0
SPLINE
  5
224
330
1B7
100
AcDbEntity
  8
DV3_Default
  6
Continuous
 62
     7
100
AcDbSpline
210
0.0
220
0.0
230
1.0
 70
     8
 71
     3
 72
    12
 73
     8
 74
     0
 42
0.000000001
 43
0.0000000001
 40
0.0
 40
0.0
 40
0.0
 40
0.0
 40
0.1756186078546929
 40
0.4092942405527451
 40
0.6893177145061404
 40
0.8408657095954829
 40
1.0
 40
1.0
 40
1.0
 40
1.0
 10
303.6030053438804
 20
679.1837502966115
 30
0.0
 10
303.6084974102317
 20
679.2080798557847
 30
0.0
 10
303.622305915584
 20
679.2572211699648
 30
0.0
 10
303.7454211042774
 20
679.4187351593452
 30
0.0
 10
303.9365961485265
 20
679.5762777316115
 30
0.0
 10
304.1692686090253
 20
679.6937162668326
 30
0.0
 10
304.3103297100731
 20
679.709863392981
 30
0.0
 10
304.3951663998953
 20
679.7188710011346
 30
0.0
  0
SPLINE
  5
225
330
1B7
100
AcDbEntity
  8
DV3_Default
  6
Continuous
 62
     7
100
AcDbSpline
210
0.0
220
0.0
230
1.0
 70
     8
 71
     3
 72
    11
 73
     7
 74
     0
 42
0.000000001
 43
0.0000000001
 40
0.0
 40
0.0
 40
0.0
 40
0.0
 40
0.2522732823182132
 40
0.6504174616261215
 40
0.8298510741836306
 40
1.0
 40
1.0
 40
1.0
 40
1.0
 10
310.0912342348922
 20
679.3050573959232
 30
0.0
 10
310.1711721213674
 20
679.3512408394741
 30
0.0
 10
310.3510190175338
 20
679.4514224166227
 30
0.0
 10
310.6408422232836
 20
679.6091761480329
 30
0.0
 10
310.9160184534553
 20
679.7035788866337
 30
0.0
 10
311.0359347520257
 20
679.7137620682122
 30
0.0
 10
311.1039958894253
 20
679.7188700481974
 30
0.0
  0
ARC
  5
226
330
1B7
100
AcDbEntity
  8
DV3_Default
  6
Continuous
 62
     7
100
AcDbCircle
 10
308.7120852283613
 20
681.4846176367231
 30
0.0
 40
2.579250826401112
100
AcDbArc
 50
290.0911680849489
 51
302.3241885581104
  0
SPLINE
  5
227
330
1B7
100
AcDbEntity
  8
DV3_Default
  6
Continuous
 62
     7
100
AcDbSpline
210
0.0
220
0.0
230
1.0
 70
     8
 71
     3
 72
    11
 73
     7
 74
     0
 42
0.000000001
 43
0.0000000001
 40
0.0
 40
0.0
 40
0.0
 40
0.0
 40
0.2786110493235809
 40
0.6577921213025966
 40
0.8313337549959788
 40
1.0
 40
1.0
 40
1.0
 40
1.0
 10
313.0955040674788
 20
679.2869306121543
 30
0.0
 10
313.2007908249642
 20
679.3393129279442
 30
0.0
 10
313.4164027198919
 20
679.4435586324103
 30
0.0
 10
313.7137911539036
 20
679.6052672432888
 30
0.0
 10
313.9675477915162
 20
679.7026431350833
 30
0.0
 10
314.070941787425
 20
679.713374551326
 30
0.0
 10
314.1300737509222
 20
679.7188761648965
 30
0.0
  0
ARC
  5
228
330
1B7
100
AcDbEntity
  8
DV3_Default
  6
Continuous
 62
     7
100
AcDbCircle
 10
311.8698305734064
 20
681.5457511082071
 30
0.0
 40
2.569931039436585
100
AcDbArc
 50
288.8699818126911
 51
298.4849924186218
  0
LINE
  5
229
330
1B7
100
AcDbEntity
  8
DV3_Default
  6
Continuous
 62
     7
100
AcDbLine
 10
312.5037697714491
 20
679.0612919468891
 30
0.0
 11
312.7010020501535
 21
679.1139411806631
 31
0.0
  0
SPLINE
  5
22A
330
1B7
100
AcDbEntity
  8
DV3_Default
  6
Continuous
 62
     7
100
AcDbSpline
210
0.0
220
0.0
230
1.0
 70
     8
 71
     3
 72
    11
 73
     7
 74
     0
 42
0.000000001
 43
0.0000000001
 40
0.0
 40
0.0
 40
0.0
 40
0.0
 40
0.2917096158481802
 40
0.6696537216617271
 40
0.8396038448122414
 40
1.0
 40
1.0
 40
1.0
 40
1.0
 10
315.5802479899576
 20
679.274148247364
 30
0.0
 10
315.6979356990262
 20
679.3305279366369
 30
0.0
 10
315.9309097986092
 20
679.4392999335959
 30
0.0
 10
316.2057815646678
 20
679.6088498229037
 30
0.0
 10
316.4156850770045
 20
679.7038715253413
 30
0.0
 10
316.4899612328977
 20
679.7138818084794
 30
0.0
 10
316.5315703077319
 20
679.7188705612544
 30
0.0
  0
ARC
  5
22B
330
1B7
100
AcDbEntity
  8
DV3_Default
  6
Continuous
 62
     7
100
AcDbCircle
 10
314.6930155109217
 20
680.893267650778
 30
0.0
 40
1.846274387616091
100
AcDbArc
 50
285.1099896601136
 51
298.7215178733302
  0
LINE
  5
22C
330
1B7
100
AcDbEntity
  8
DV3_Default
  6
Continuous
 62
     7
100
AcDbLine
 10
314.9397358660869
 20
679.0602192595496
 30
0.0
 11
315.174289093811
 21
679.110824144582
 31
0.0
  0
SPLINE
  5
22D
330
1B7
100
AcDbEntity
  8
DV3_Default
  6
Continuous
 62
     7
100
AcDbSpline
210
0.0
220
0.0
230
1.0
 70
     8
 71
     3
 72
     9
 73
     5
 74
     0
 42
0.000000001
 43
0.0000000001
 40
0.0
 40
0.0
 40
0.0
 40
0.0
 40
0.4661570340098745
 40
0.9999999999999998
 40
0.9999999999999998
 40
0.9999999999999998
 40
0.9999999999999998
 10
317.9300461129435
 20
679.6468759090645
 30
0.0
 10
317.9596024423924
 20
679.6674468029022
 30
0.0
 10
318.0175771112713
 20
679.7049043103078
 30
0.0
 10
318.052365280357
 20
679.7139355180396
 30
0.0
 10
318.0734092186856
 20
679.7188702936511
 30
0.0
  0
ARC
  5
22E
330
1B7
100
AcDbEntity
  8
DV3_Default
  6
Continuous
 62
     7
100
AcDbCircle
 10
316.5929129523739
 20
680.4836048005052
 30
0.0
 40
1.414249707083765
100
AcDbArc
 50
283.7054072864985
 51
301.041038108734
  0
ARC
  5
22F
330
1B7
100
AcDbEntity
  8
DV3_Default
  6
Continuous
 62
     7
100
AcDbCircle
 10
315.7275605572082
 20
684.6412446600173
 30
0.0
 40
5.660376951300029
100
AcDbArc
 50
279.4852345454976
 51
282.2440414653451
  0
LINE
  5
230
330
1B7
100
AcDbEntity
  8
DV3_Default
  6
Continuous
 62
     7
100
AcDbLine
 10
298.7495729838274
 20
791.8806247022953
 30
0.0
 11
298.7495729838274
 21
791.5806247022953
 31
0.0
  0
LINE
  5
231
330
1B7
100
AcDbEntity
  8
DV3_Default
  6
Continuous
 62
     7
100
AcDbLine
 10
316.7495729838274
 20
791.5806247022954
 30
0.0
 11
316.7495729838274
 21
791.8806247022954
 31
0.0
  0
LINE
  5
232
330
1B7
100
AcDbEntity
  8
DV3_Default
  6
Continuous
 62
     7
100
AcDbLine
 10
294.049573145786
 20
681.5806247022954
 30
0.0
 11
321.4495731457861
 21
681.5806247022954
 31
0.0
  0
LINE
  5
233
330
1B7
100
AcDbEntity
  8
DV3_Default
  6
Continuous
 62
     7
100
AcDbLine
 10
321.2495731457861
 20
791.5806247022953
 30
0.0
 11
294.2495731457861
 21
791.5806247022953
 31
0.0
  0
LINE
  5
234
330
1B7
100
AcDbEntity
  8
DV3_Default
  6
Continuous
 62
     7
100
AcDbLine
 10
321.7495731457861
 20
790.4739443770012
 30
0.0
 11
321.7495731457861
 21
791.0806247022954
 31
0.0
  0
LINE
  5
235
330
1B7
100
AcDbEntity
  8
DV3_Default
  6
Continuous
 62
     7
100
AcDbLine
 10
321.7495731457861
 20
681.8806247022954
 30
0.0
 11
321.7495731457861
 21
765.1873050275898
 31
0.0
  0
LINE
  5
236
330
1B7
100
AcDbEntity
  8
DV3_Default
  6
Continuous
 62
     7
100
AcDbLine
 10
293.749573145786
 20
765.1676234065747
 30
0.0
 11
293.749573145786
 21
681.8806247022954
 31
0.0
  0
LINE
  5
237
330
1B7
100
AcDbEntity
  8
DV3_Default
  6
Continuous
 62
     7
100
AcDbLine
 10
293.749573145786
 20
791.0806247022954
 30
0.0
 11
293.749573145786
 21
790.4739443770012
 31
0.0
  0
SPLINE
  5
238
330
1B7
100
AcDbEntity
  8
DV3_Default
  6
Continuous
 62
     7
100
AcDbSpline
210
0.0
220
0.0
230
1.0
 70
     8
 71
     3
 72
    13
 73
     9
 74
     0
 42
0.000000001
 43
0.0000000001
 40
0.0
 40
0.0
 40
0.0
 40
0.0
 40
0.2425259712382504
 40
0.3721279022268412
 40
0.500000000000073
 40
0.6278720977733574
 40
0.7574740287619699
 40
1.0
 40
1.0
 40
1.0
 40
1.0
 10
293.749573145786
 20
681.8806247022954
 30
0.0
 10
293.7504620005256
 20
681.8373900138531
 30
0.0
 10
293.7532006762813
 20
681.7808269939648
 30
0.0
 10
293.7847894750991
 20
681.704114336534
 30
0.0
 10
293.8224112776012
 20
681.6534628341103
 30
0.0
 10
293.8730627800246
 20
681.6158410316086
 30
0.0
 10
293.9497754374553
 20
681.5842522327907
 30
0.0
 10
294.0063384573439
 20
681.581513557035
 30
0.0
 10
294.049573145786
 20
681.5806247022955
 30
0.0
  0
SPLINE
  5
239
330
1B7
100
AcDbEntity
  8
DV3_Default
  6
Continuous
 62
     7
100
AcDbSpline
210
0.0
220
0.0
230
1.0
 70
     8
 71
     3
 72
    13
 73
     9
 74
     0
 42
0.000000001
 43
0.0000000001
 40
0.0
 40
0.0
 40
0.0
 40
0.0
 40
0.2425259712380306
 40
0.3721279022266304
 40
0.4999999999999092
 40
0.6278720977731989
 40
0.7574740287617984
 40
1.0
 40
1.0
 40
1.0
 40
1.0
 10
321.449573145786
 20
681.5806247022955
 30
0.0
 10
321.4928078342282
 20
681.581513557035
 30
0.0
 10
321.5493708541168
 20
681.5842522327906
 30
0.0
 10
321.6260835115475
 20
681.6158410316084
 30
0.0
 10
321.676735013971
 20
681.6534628341104
 30
0.0
 10
321.714356816473
 20
681.7041143365338
 30
0.0
 10
321.7459456152908
 20
681.7808269939646
 30
0.0
 10
321.7486842910465
 20
681.8373900138531
 30
0.0
 10
321.7495731457861
 20
681.8806247022954
 30
0.0
  0
ARC
  5
23A
330
1B7
100
AcDbEntity
  8
DV3_Default
  6
Continuous
 62
     7
100
AcDbCircle
 10
321.2495731457861
 20
791.0806247022954
 30
0.0
 40
0.5000000000000005
100
AcDbArc
 50
0.0
 51
90.0
  0
ARC
  5
23B
330
1B7
100
AcDbEntity
  8
DV3_Default
  6
Continuous
 62
     7
100
AcDbCircle
 10
294.249573145786
 20
791.0806247022954
 30
0.0
 40
0.5000000000000005
100
AcDbArc
 50
90.0
 51
180.0
  0
ARC
  5
23C
330
1B7
100
AcDbEntity
  8
DV3_Default
  6
Continuous
 62
     7
100
AcDbCircle
 10
266.4678315412074
 20
789.0035672817896
 30
0.0
 40
27.32035993341682
100
AcDbArc
 50
0.1609747202353587
 51
3.00753799000186
  0
ARC
  5
23D
330
1B7
100
AcDbEntity
  8
DV3_Default
  6
Continuous
 62
     7
100
AcDbCircle
 10
348.4132808925471
 20
789.0293399463976
 30
0.0
 40
26.70164396095244
100
AcDbArc
 50
176.9884167515896
 51
179.8901707976555
  0
LINE
  5
23E
330
1B7
100
AcDbEntity
  8
DV3_Default
  6
Continuous
 62
     7
100
AcDbLine
 10
293.7880917489703
 20
789.0806247022955
 30
0.0
 11
293.7880917489703
 21
766.5806247022954
 31
0.0
  0
LINE
  5
23F
330
1B7
100
AcDbEntity
  8
DV3_Default
  6
Continuous
 62
     7
100
AcDbLine
 10
321.7110545426018
 20
766.5806247022954
 30
0.0
 11
321.7110545426018
 21
789.0806247022955
 31
0.0
  0
ARC
  5
240
330
1B7
100
AcDbEntity
  8
DV3_Default
  6
Continuous
 62
     7
100
AcDbCircle
 10
263.6574154597046
 20
766.6989745322076
 30
0.0
 40
30.13069716971341
100
AcDbArc
 50
357.1050262626147
 51
359.7744451722712
  0
ARC
  5
241
330
1B7
100
AcDbEntity
  8
DV3_Default
  6
Continuous
 62
     7
100
AcDbCircle
 10
349.0295941432483
 20
766.657618986505
 30
0.0
 40
27.31863838361488
100
AcDbArc
 50
180.161116490182
 51
183.0075950922045
  0
LINE
  5
242
330
1B7
100
AcDbEntity
  8
DV3_Default
  6
Continuous
 62
     7
100
AcDbLine
 10
293.7495729838275
 20
791.8806247022953
 30
0.0
 11
321.7495729838273
 21
791.8806247022953
 31
0.0
  0
LINE
  5
243
330
1B7
100
AcDbEntity
  8
DV3_Default
  6
Continuous
 62
     7
100
AcDbLine
 10
321.7495729838272
 20
791.8306247022957
 30
0.0
 11
316.7495729838274
 21
791.8306247022957
 31
0.0
  0
LINE
  5
244
330
1B7
100
AcDbEntity
  8
DV3_Default
  6
Continuous
 62
     7
100
AcDbLine
 10
298.7495729838274
 20
791.8306247022957
 30
0.0
 11
293.7495729838274
 21
791.8306247022957
 31
0.0
  0
ARC
  5
245
330
1B7
100
AcDbEntity
  8
DV3_Default
  6
Continuous
 62
     7
100
AcDbCircle
 10
307.7495729838274
 20
999.3806247022956
 30
0.0
 40
12.5
100
AcDbArc
 50
0.0
 51
180.0
  0
LINE
  5
246
330
1B7
100
AcDbEntity
  8
DV3_Default
  6
Continuous
 62
     7
100
AcDbLine
 10
295.2495729838274
 20
999.3806247022956
 30
0.0
 11
295.2495729838274
 21
879.3806247022954
 31
0.0
  0
LINE
  5
247
330
1B7
100
AcDbEntity
  8
DV3_Default
  6
Continuous
 62
     7
100
AcDbLine
 10
320.2495729838274
 20
879.3806247022953
 30
0.0
 11
320.2495729838274
 21
999.3806247022954
 31
0.0
  0
LINE
  5
248
330
1B7
100
AcDbEntity
  8
DV3_Default
  6
Continuous
 62
     7
100
AcDbLine
 10
320.2495729838274
 20
826.1011057055174
 30
0.0
 11
320.2495729838274
 21
879.3806247022953
 31
0.0
  0
LINE
  5
249
330
1B7
100
AcDbEntity
  8
DV3_Default
  6
Continuous
 62
     7
100
AcDbLine
 10
295.2495729838275
 20
879.3806247022954
 30
0.0
 11
295.2495729838275
 21
826.1011057055174
 31
0.0
  0
LINE
  5
24A
330
1B7
100
AcDbEntity
  8
DV3_Default
  6
Continuous
 62
     7
100
AcDbLine
 10
321.7495729838274
 20
791.8806247022953
 30
0.0
 11
320.2592906344518
 21
825.6603579548096
 31
0.0
  0
LINE
  5
24B
330
1B7
100
AcDbEntity
  8
DV3_Default
  6
Continuous
 62
     7
100
AcDbLine
 10
295.2398553332031
 20
825.6603579548096
 30
0.0
 11
293.7495729838274
 21
791.8806247022954
 31
0.0
  0
ARC
  5
24C
330
1B7
100
AcDbEntity
  8
DV3_Default
  6
Continuous
 62
     7
100
AcDbCircle
 10
330.2495729838274
 20
826.1011057055174
 30
0.0
 40
10.0
100
AcDbArc
 50
180.0
 51
182.5261169116194
  0
ARC
  5
24D
330
1B7
100
AcDbEntity
  8
DV3_Default
  6
Continuous
 62
     7
100
AcDbCircle
 10
285.2495729838274
 20
826.1011057055174
 30
0.0
 40
9.999999999999998
100
AcDbArc
 50
357.4738830883806
 51
0.0
  0
LINE
  5
24E
330
1B7
100
AcDbEntity
  8
DV3_Default
  6
Continuous
 62
     7
100
AcDbLine
 10
321.7495729838273
 20
791.8306247022957
 30
0.0
 11
321.7473671014744
 21
791.8806247022954
 31
0.0
  0
LINE
  5
24F
330
1B7
100
AcDbEntity
  8
DV3_Default
  6
Continuous
 62
     7
100
AcDbLine
 10
293.7517788661802
 20
791.8806247022954
 30
0.0
 11
293.7495729838273
 21
791.8306247022957
 31
0.0
  0
LINE
  5
250
330
1B7
100
AcDbEntity
  8
DV3_Default
  6
Continuous
 62
     7
100
AcDbLine
 10
318.9995729838273
 20
791.5806247022954
 30
0.0
 11
318.9995729838273
 21
791.8306247022957
 31
0.0
  0
LINE
  5
251
330
1B7
100
AcDbEntity
  8
DV3_Default
  6
Continuous
 62
     7
100
AcDbLine
 10
296.4995729838273
 20
791.8306247022957
 30
0.0
 11
296.4995729838273
 21
791.5806247022954
 31
0.0
  0
LINE
  5
252
330
1B7
100
AcDbEntity
  8
DV3_Default
  6
Continuous
 62
     7
100
AcDbLine
 10
329.0732995895139
 20
681.3306247022956
 30
0.0
 11
318.9495729838275
 21
681.3306247022956
 31
0.0
  0
LINE
  5
253
330
1B7
100
AcDbEntity
  8
DV3_Default
  6
Continuous
 62
     7
100
AcDbLine
 10
296.5495729838275
 20
681.3306247022956
 30
0.0
 11
286.4258463781407
 21
681.3306247022956
 31
0.0
  0
ARC
  5
254
330
1B7
100
AcDbEntity
  8
DV3_Default
  6
Continuous
 62
     7
100
AcDbCircle
 10
321.2329941276989
 20
766.7074667726483
 30
0.0
 40
0.5000050477012259
100
AcDbArc
 50
344.9175419744441
 51
359.9810058452098
  0
ARC
  5
255
330
1B7
100
AcDbEntity
  8
DV3_Default
  6
Continuous
 62
     7
100
AcDbCircle
 10
321.2328756371968
 20
788.7711334457259
 30
0.0
 40
0.5001235259792684
100
AcDbArc
 50
0.0141497625079475
 51
15.58767361730481
  0
ARC
  5
256
330
1B7
100
AcDbEntity
  8
DV3_Default
  6
Continuous
 62
     7
100
AcDbCircle
 10
294.2662702052068
 20
788.7711335710339
 30
0.0
 40
0.500123400702447
100
AcDbArc
 50
164.8967651967664
 51
179.9858645896464
  0
ARC
  5
257
330
1B7
100
AcDbEntity
  8
DV3_Default
  6
Continuous
 62
     7
100
AcDbCircle
 10
294.2661519584955
 20
766.7074664723066
 30
0.0
 40
0.5000051662848796
100
AcDbArc
 50
180.0190075465748
 51
195.3126370912871
  0
LINE
  5
258
330
1B7
100
AcDbEntity
  8
DV3_Default
  6
Continuous
 62
     7
100
AcDbLine
 10
286.2258463781407
 20
686.3868694997477
 30
0.0
 11
286.2258463781407
 21
681.5306247022958
 31
0.0
  0
LINE
  5
259
330
1B7
100
AcDbEntity
  8
DV3_Default
  6
Continuous
 62
     7
100
AcDbLine
 10
329.2732995895138
 20
681.5306247022956
 30
0.0
 11
329.2732995895138
 21
686.3868694997476
 31
0.0
  0
SPLINE
  5
25A
330
1B7
100
AcDbEntity
  8
DV3_Default
  6
Continuous
 62
     7
100
AcDbSpline
210
0.0
220
0.0
230
1.0
 70
     8
 71
     3
 72
    36
 73
    32
 74
     0
 42
0.000000001
 43
0.0000000001
 40
0.0
 40
0.0
 40
0.0
 40
0.0
 40
0.0078100360665112
 40
0.0489550787866026
 40
0.0864988638213224
 40
0.1213615749687177
 40
0.1544661718843515
 40
0.186737505900342
 40
0.217232786021483
 40
0.2485837245558274
 40
0.2815618779861673
 40
0.3169358921620515
 40
0.3554666971740932
 40
0.3973359192656644
 40
0.4416199135210612
 40
0.4872700120342034
 40
0.5332372739547125
 40
0.5784726122644558
 40
0.6105724952736233
 40
0.6413008092171792
 40
0.670243830596508
 40
0.6831509947305362
 40
0.6905325202703057
 40
0.6962367002329354
 40
0.7019537433723082
 40
0.7076844638087979
 40
0.7613252301714063
 40
0.8168113332189761
 40
0.874722949784159
 40
0.9356102885236941
 40
0.9999999999999998
 40
0.9999999999999998
 40
0.9999999999999998
 40
0.9999999999999998
 10
293.7457148532732
 20
764.6207264836935
 30
0.0
 10
293.745143849161
 20
764.4232505057089
 30
0.0
 10
293.7404621755643
 20
763.1908968791218
 30
0.0
 10
293.7165979304341
 20
760.8688576746132
 30
0.0
 10
293.6506441954495
 20
757.9066027531961
 30
0.0
 10
293.5458872947862
 20
755.13506638753
 30
0.0
 10
293.3988361234538
 20
752.5091944595405
 30
0.0
 10
293.2089574004556
 20
749.9997174430808
 30
0.0
 10
292.9761740955505
 20
747.5404495875609
 30
0.0
 10
292.7003733846403
 20
745.0669108793325
 30
0.0
 10
292.3740412622093
 20
742.4704795287818
 30
0.0
 10
291.9942761507959
 20
739.691025054623
 30
0.0
 10
291.5604521644823
 20
736.6835429041211
 30
0.0
 10
291.0780926757018
 20
733.4468362935754
 30
0.0
 10
290.5571976841549
 20
730.026978576897
 30
0.0
 10
290.0125707824814
 20
726.5019489853464
 30
0.0
 10
289.4594960775407
 20
722.9529637034606
 30
0.0
 10
288.9593438774367
 20
719.7556622602222
 30
0.0
 10
288.5213788347623
 20
716.9534565601424
 30
0.0
 10
288.1507810834025
 20
714.5735201611495
 30
0.0
 10
287.8596569435877
 20
712.6910083548076
 30
0.0
 10
287.6639486878778
 20
711.4137862502462
 30
0.0
 10
287.5610526646499
 20
710.739382294482
 30
0.0
 10
287.4897939044968
 20
710.2510558504218
 30
0.0
 10
287.4268911647519
 20
709.8053043240498
 30
0.0
 10
287.1964287552238
 20
708.1125827912371
 30
0.0
 10
286.8632827987184
 20
705.116778065098
 30
0.0
 10
286.5411528968332
 20
700.7379385534409
 30
0.0
 10
286.3422948103711
 20
696.1904706605397
 30
0.0
 10
286.2402581125294
 20
691.2907555553811
 30
0.0
 10
286.2292088355253
 20
688.2458288077412
 30
0.0
 10
286.2258463781407
 20
686.3868694997477
 30
0.0
  0
SPLINE
  5
25B
330
1B7
100
AcDbEntity
  8
DV3_Default
  6
Continuous
 62
     7
100
AcDbSpline
210
0.0
220
0.0
230
1.0
 70
     8
 71
     3
 72
    35
 73
    31
 74
     0
 42
0.000000001
 43
0.0000000001
 40
0.0
 40
0.0
 40
0.0
 40
0.0
 40
0.0563145966158894
 40
0.1098648452451465
 40
0.1610128897941271
 40
0.2101344769607695
 40
0.2519972479351561
 40
0.2928756877907758
 40
0.3019473370868621
 40
0.3158370144168089
 40
0.336943427981545
 40
0.3591890278963208
 40
0.3823923457621792
 40
0.4063718982788647
 40
0.4309461940653678
 40
0.4756400738317427
 40
0.5206192684937097
 40
0.5648571693158037
 40
0.6073273555997383
 40
0.6470050565620018
 40
0.6827050169858568
 40
0.7157105960633329
 40
0.7467328583639171
 40
0.7764854507946927
 40
0.8112428452643229
 40
0.8464278135126445
 40
0.8832533355483707
 40
0.9229305602364487
 40
0.9666669169983832
 40
1.0
 40
1.0
 40
1.0
 40
1.0
 10
329.2732995895139
 20
686.3868694997477
 30
0.0
 10
329.2704902083437
 20
688.0482174526645
 30
0.0
 10
329.2617745433165
 20
690.7770828807504
 30
0.0
 10
329.1825048948494
 20
695.1781003410692
 30
0.0
 10
329.030591101791
 20
699.2801078341981
 30
0.0
 10
328.7962822344998
 20
703.0904319127746
 30
0.0
 10
328.4782909340716
 20
706.6118662189706
 30
0.0
 10
328.1808255373039
 20
709.0569641432296
 30
0.0
 10
327.9372928924467
 20
710.7516946523158
 30
0.0
 10
327.7574336294302
 20
711.9198103309522
 30
0.0
 10
327.5244218740184
 20
713.4371999533209
 30
0.0
 10
327.2506535297596
 20
715.2010510877432
 30
0.0
 10
326.9640381214665
 20
717.0408827839742
 30
0.0
 10
326.666945805633
 20
718.942290347285
 30
0.0
 10
326.2805264000584
 20
721.4130954317774
 30
0.0
 10
325.8074440889504
 20
724.4403890275479
 30
0.0
 10
325.2560537627127
 20
727.989209405977
 30
0.0
 10
324.7195232437416
 20
731.4799819140179
 30
0.0
 10
324.2131634773913
 20
734.8315314367158
 30
0.0
 10
323.7526892720606
 20
737.9584155200144
 30
0.0
 10
323.3454151710745
 20
740.8365303434974
 30
0.0
 10
322.9935599833912
 20
743.4879569131309
 30
0.0
 10
322.6921504851163
 20
745.9850505013108
 30
0.0
 10
322.4227458600992
 20
748.5329972114704
 30
0.0
 10
322.191368532384
 20
751.1972008565757
 30
0.0
 10
322.005905565582
 20
754.0537589253166
 30
0.0
 10
321.8742391326044
 20
757.05082190121
 30
0.0
 10
321.791505962905
 20
760.256293226662
 30
0.0
 10
321.7536392173711
 20
763.4572689266174
 30
0.0
 10
321.7520658066194
 20
765.3796116419742
 30
0.0
 10
321.7521723765941
 20
766.3629788574037
 30
0.0
  0
ARC
  5
25C
330
1B7
100
AcDbEntity
  8
DV3_Default
  6
Continuous
 62
     7
100
AcDbCircle
 10
286.4258463781407
 20
681.5306247022956
 30
0.0
 40
0.1999999999999988
100
AcDbArc
 50
180.0
 51
270.0
  0
ARC
  5
25D
330
1B7
100
AcDbEntity
  8
DV3_Default
  6
Continuous
 62
     7
100
AcDbCircle
 10
329.0732995895139
 20
681.5306247022956
 30
0.0
 40
0.2000000000000057
100
AcDbArc
 50
270.0
 51
0.0
  0
LINE
  5
25E
330
1B7
100
AcDbEntity
  8
DV3_Default
  6
Continuous
 62
     7
100
AcDbLine
 10
321.7331767247381
 20
766.7073010157081
 30
0.0
 11
321.7331767247381
 21
788.7712569562027
 31
0.0
  0
LINE
  5
25F
330
1B7
100
AcDbEntity
  8
DV3_Default
  6
Continuous
 62
     7
100
AcDbLine
 10
293.7659692429112
 20
788.7712569562027
 30
0.0
 11
293.7659692429112
 21
766.7073005984601
 31
0.0
  0
LINE
  5
260
330
1B7
100
AcDbEntity
  8
DV3_Default
  6
Continuous
 62
     7
100
AcDbLine
 10
293.7495729838273
 20
790.3542238296528
 30
0.0
 11
293.7495729838273
 21
766.3628779838636
 31
0.0
  0
LINE
  5
261
330
1B7
100
AcDbEntity
  8
DV3_Default
  6
Continuous
 62
     7
100
AcDbLine
 10
321.7495729838273
 20
766.6854841352389
 30
0.0
 11
321.7495729838273
 21
789.1994650248224
 31
0.0
  0
LINE
  5
262
330
1B7
100
AcDbEntity
  8
DV3_Default
  6
Continuous
 62
     7
100
AcDbLine
 10
355.7653677717324
 20
632.8787571451099
 30
0.0
 11
355.7653677946957
 21
668.8787571451099
 31
0.0
  0
ARC
  5
263
330
1B7
100
AcDbEntity
  8
DV3_Default
  6
Continuous
 62
     7
100
AcDbCircle
 10
347.2475698961327
 20
650.8787571505433
 30
0.0
 40
20.19999999999999
100
AcDbArc
 50
57.37949845989535
 51
64.15806720026468
  0
ARC
  5
264
330
1B7
100
AcDbEntity
  8
DV3_Default
  6
Continuous
 62
     7
100
AcDbCircle
 10
347.2475698961327
 20
650.8787571505433
 30
0.0
 40
20.20000000000001
100
AcDbArc
 50
295.8419327266406
 51
302.6205015401043
  0
ARC
  5
265
330
1B7
100
AcDbEntity
  8
DV3_Default
  6
Continuous
 62
     7
100
AcDbCircle
 10
355.9653677717323
 20
632.8787571449823
 30
0.0
 40
0.1999999999999918
100
AcDbArc
 50
179.9999999634577
 51
295.8419327287455
  0
ARC
  5
266
330
1B7
100
AcDbEntity
  8
DV3_Default
  6
Continuous
 62
     7
100
AcDbCircle
 10
355.9653677946957
 20
668.8787571449824
 30
0.0
 40
0.2000000000000211
100
AcDbArc
 50
64.15806719817478
 51
179.9999999634577
  0
LINE
  5
267
330
1B7
100
AcDbEntity
  8
DV3_Default
  6
Continuous
 62
     7
100
AcDbLine
 10
286.402119772454
 20
681.0306247022956
 30
0.0
 11
296.5495729838275
 21
681.0306247022956
 31
0.0
  0
LINE
  5
268
330
1B7
100
AcDbEntity
  8
DV3_Default
  6
Continuous
 62
     7
100
AcDbLine
 10
318.9495729838275
 20
681.0306247022956
 30
0.0
 11
329.0495729838273
 21
681.0306247022956
 31
0.0
  0
LINE
  5
269
330
1B7
100
AcDbEntity
  8
DV3_Default
  6
Continuous
 62
     7
100
AcDbLine
 10
330.4391468088591
 20
485.894556920558
 30
0.0
 11
285.0127752158663
 21
485.8941428039114
 31
0.0
  0
LINE
  5
26A
330
1B7
100
AcDbEntity
  8
DV3_Default
  6
Continuous
 62
     7
100
AcDbLine
 10
286.2022937549624
 20
487.0940971115884
 30
0.0
 11
286.2024212853901
 21
487.0940971128153
 31
0.0
  0
LINE
  5
26B
330
1B7
100
AcDbEntity
  8
DV3_Default
  6
Continuous
 62
     7
100
AcDbLine
 10
331.9495729838273
 20
481.8787571717328
 30
0.0
 11
283.5495729838273
 21
481.8787571717328
 31
0.0
  0
ARC
  5
26C
330
1B7
100
AcDbEntity
  8
DV3_Default
  6
Continuous
 62
     7
100
AcDbCircle
 10
332.9442827175467
 20
669.0394713198112
 30
0.0
 40
0.1950247382725138
100
AcDbArc
 50
176.7276273697977
 51
188.2348035009226
  0
LINE
  5
26D
330
1B7
100
AcDbEntity
  8
DV3_Default
  6
Continuous
 62
     7
100
AcDbLine
 10
286.202119772454
 20
680.8306247022957
 30
0.0
 11
286.202119772454
 21
487.0940974436918
 31
0.0
  0
LINE
  5
26E
330
1B7
100
AcDbEntity
  8
DV3_Default
  6
Continuous
 62
     7
100
AcDbLine
 10
329.2495729838273
 20
672.5731858343217
 30
0.0
 11
329.2495729838273
 21
680.8306247022955
 31
0.0
  0
LINE
  5
26F
330
1B7
100
AcDbEntity
  8
DV3_Default
  6
Continuous
 62
     7
100
AcDbLine
 10
329.2495729838273
 20
487.0945108909202
 30
0.0
 11
329.2495729838273
 21
629.1825036181156
 31
0.0
  0
LINE
  5
270
330
1B7
100
AcDbEntity
  8
DV3_Default
  6
Continuous
 62
     7
100
AcDbLine
 10
332.7826274410523
 20
632.7073123481576
 30
0.0
 11
355.4653677716229
 21
632.7073123336889
 31
0.0
  0
LINE
  5
271
330
1B7
100
AcDbEntity
  8
DV3_Default
  6
Continuous
 62
     7
100
AcDbLine
 10
355.4653677948051
 20
669.0502019569137
 30
0.0
 11
332.7782463869043
 21
669.0502019713851
 31
0.0
  0
ARC
  5
272
330
1B7
100
AcDbEntity
  8
DV3_Default
  6
Continuous
 62
     7
100
AcDbCircle
 10
332.7850925516161
 20
672.5857255462316
 30
0.0
 40
3.535525069043803
100
AcDbArc
 50
179.999859439273
 51
270.0001486835599
  0
ARC
  5
273
330
1B7
100
AcDbEntity
  8
DV3_Default
  6
Continuous
 62
     7
100
AcDbCircle
 10
332.7851063745513
 20
629.1717761936317
 30
0.0
 40
3.535537752351199
100
AcDbArc
 50
90.00005941826314
 51
179.9999371326699
  0
ARC
  5
274
330
1B7
100
AcDbEntity
  8
DV3_Default
  6
Continuous
 62
     7
100
AcDbCircle
 10
286.402119772454
 20
680.8306247022957
 30
0.0
 40
0.2000000000000057
100
AcDbArc
 50
90.0
 51
180.0
  0
ARC
  5
275
330
1B7
100
AcDbEntity
  8
DV3_Default
  6
Continuous
 62
     7
100
AcDbCircle
 10
329.0495729838273
 20
680.8306247022957
 30
0.0
 40
0.1999999999999988
100
AcDbArc
 50
0.0
 51
90.0
  0
ARC
  5
276
330
1B7
100
AcDbEntity
  8
DV3_Default
  6
Continuous
 62
     7
100
AcDbCircle
 10
355.4653677718143
 20
633.0073123336891
 30
0.0
 40
0.2999999999999947
100
AcDbArc
 50
269.9999999634469
 51
359.999999963436
  0
ARC
  5
277
330
1B7
100
AcDbEntity
  8
DV3_Default
  6
Continuous
 62
     7
100
AcDbCircle
 10
355.4653677946137
 20
668.7502019569136
 30
0.0
 40
0.3000000000000016
100
AcDbArc
 50
0.0
 51
89.99999996344687
  0
LINE
  5
278
330
1B7
100
AcDbEntity
  8
DV3_Default
  6
Continuous
 62
     7
100
AcDbLine
 10
331.7539362515765
 20
485.8830825279674
 30
0.0
 11
330.4333005286492
 21
485.8946075413211
 31
0.0
  0
LINE
  5
279
330
1B7
100
AcDbEntity
  8
DV3_Default
  6
Continuous
 62
     7
100
AcDbLine
 10
285.0304491468468
 20
485.8942986425592
 30
0.0
 11
283.745209716078
 21
485.8830825279675
 31
0.0
  0
LINE
  5
27A
330
1B7
100
AcDbEntity
  8
DV3_Default
  6
Continuous
 62
     7
100
AcDbLine
 10
332.2495729838273
 20
482.1787571717329
 30
0.0
 11
332.2495729838273
 21
485.3831015664353
 31
0.0
  0
LINE
  5
27B
330
1B7
100
AcDbEntity
  8
DV3_Default
  6
Continuous
 62
     7
100
AcDbLine
 10
283.2495729838273
 20
485.3831015664353
 30
0.0
 11
283.2495729838273
 21
482.1787571717329
 31
0.0
  0
ARC
  5
27C
330
1B7
100
AcDbEntity
  8
DV3_Default
  6
Continuous
 62
     7
100
AcDbCircle
 10
330.4495165009495
 20
487.0945111971405
 30
0.0
 40
1.199997042589312
100
AcDbArc
 50
180.2913980357923
 51
269.7415036297614
  0
ARC
  5
27D
330
1B7
100
AcDbEntity
  8
DV3_Default
  6
Continuous
 62
     7
100
AcDbCircle
 10
285.002222740892
 20
487.0940970561806
 30
0.0
 40
1.199994625777328
100
AcDbArc
 50
270.3552645184517
 51
359.7108750846203
  0
ARC
  5
27E
330
1B7
100
AcDbEntity
  8
DV3_Default
  6
Continuous
 62
     7
100
AcDbCircle
 10
283.7495729838273
 20
485.3831015664353
 30
0.0
 40
0.5000000000000008
100
AcDbArc
 50
90.49999999999151
 51
180.0
  0
ARC
  5
27F
330
1B7
100
AcDbEntity
  8
DV3_Default
  6
Continuous
 62
     7
100
AcDbCircle
 10
331.7495729838273
 20
485.3831015664353
 30
0.0
 40
0.5000000000000005
100
AcDbArc
 50
0.0
 51
89.5000000000085
  0
ARC
  5
280
330
1B7
100
AcDbEntity
  8
DV3_Default
  6
Continuous
 62
     7
100
AcDbCircle
 10
331.9495729838273
 20
482.1787571717329
 30
0.0
 40
0.299999999999999
100
AcDbArc
 50
270.0
 51
0.0
  0
ARC
  5
281
330
1B7
100
AcDbEntity
  8
DV3_Default
  6
Continuous
 62
     7
100
AcDbCircle
 10
283.5495729838273
 20
482.1787571717329
 30
0.0
 40
0.3000000000000016
100
AcDbArc
 50
180.0
 51
270.0
  0
ARC
  5
282
330
1B7
100
AcDbEntity
  8
DV3_Default
  6
Continuous
 62
     7
100
AcDbCircle
 10
288.2495729838272
 20
682.0306247022956
 30
0.0
 40
1.0
100
AcDbArc
 50
270.0
 51
315.5729959991908
  0
ARC
  5
283
330
1B7
100
AcDbEntity
  8
DV3_Default
  6
Continuous
 62
     7
100
AcDbCircle
 10
327.2495729838273
 20
682.0306247022956
 30
0.0
 40
1.0
100
AcDbArc
 50
224.4270040008069
 51
270.0
  0
ELLIPSE
  5
284
330
1B7
100
AcDbEntity
  8
DV3_Default
  6
Continuous
 62
     7
100
AcDbEllipse
 10
377.6368282614175
 20
737.5630565390206
 30
0.0
 11
4.049999999999998
 21
0.0
 31
0.0
210
0.0
220
0.0
230
1.0
 40
0.5000000000000045
 41
6.26905414230703
 42
6.283185307179586
  0
ELLIPSE
  5
285
330
1B7
100
AcDbEntity
  8
DV3_Default
  6
Continuous
 62
     7
100
AcDbEllipse
 10
377.6368282614175
 20
737.5630565390206
 30
0.0
 11
4.049999999999998
 21
0.0
 31
0.0
210
0.0
220
0.0
230
1.0
 40
0.5000000000000045
 41
3.141592653589793
 42
3.175012474133268
  0
LINE
  5
286
330
1B7
100
AcDbEntity
  8
DV3_Default
  6
Continuous
 62
     7
100
AcDbLine
 10
380.8118282614175
 20
667.2045069991578
 30
0.0
 11
380.8118282614175
 21
710.9467476321099
 31
0.0
  0
LINE
  5
287
330
1B7
100
AcDbEntity
  8
DV3_Default
  6
Continuous
 62
     7
100
AcDbLine
 10
374.4618282614175
 20
710.9467476321098
 30
0.0
 11
374.4618282614175
 21
667.2393570366234
 31
0.0
  0
LINE
  5
288
330
1B7
100
AcDbEntity
  8
DV3_Default
  6
Continuous
 62
     7
100
AcDbLine
 10
373.7129187152677
 20
716.8732086752282
 30
0.0
 11
374.354577474575
 21
712.4392584328205
 31
0.0
  0
LINE
  5
289
330
1B7
100
AcDbEntity
  8
DV3_Default
  6
Continuous
 62
     7
100
AcDbLine
 10
380.91907904826
 20
712.4392584328205
 30
0.0
 11
381.5607378075673
 21
716.8732086752282
 31
0.0
  0
LINE
  5
28A
330
1B7
100
AcDbEntity
  8
DV3_Default
  6
Continuous
 62
     7
100
AcDbLine
 10
381.6868282614175
 20
718.6264292068698
 30
0.0
 11
381.6868282614175
 21
737.5630565390205
 31
0.0
  0
LINE
  5
28B
330
1B7
100
AcDbEntity
  8
DV3_Default
  6
Continuous
 62
     7
100
AcDbLine
 10
373.5868282614175
 20
737.5630565390205
 30
0.0
 11
373.5868282614175
 21
718.6264292068698
 31
0.0
  0
ARC
  5
28C
330
1B7
100
AcDbEntity
  8
DV3_Default
  6
Continuous
 62
     7
100
AcDbCircle
 10
370.9673848603926
 20
718.4701627145216
 30
0.0
 40
10.71250764208461
100
AcDbArc
 50
351.4076528965198
 51
0.8340077546948283
  0
ARC
  5
28D
330
1B7
100
AcDbEntity
  8
DV3_Default
  6
Continuous
 62
     7
100
AcDbCircle
 10
382.3030328458614
 20
718.3817896581945
 30
0.0
 40
8.711581588316688
100
AcDbArc
 50
178.3866070776898
 51
189.9711310622013
  0
ARC
  5
28E
330
1B7
100
AcDbEntity
  8
DV3_Default
  6
Continuous
 62
     7
100
AcDbCircle
 10
388.542240133633
 20
711.1092930912182
 30
0.0
 40
7.728265609228766
100
AcDbArc
 50
170.1253867540375
 51
181.1974058918085
  0
ARC
  5
28F
330
1B7
100
AcDbEntity
  8
DV3_Default
  6
Continuous
 62
     7
100
AcDbCircle
 10
365.9516550003754
 20
711.1257063222795
 30
0.0
 40
8.502688637919176
100
AcDbArc
 50
358.788753648656
 51
8.878608061200626
  0
SPLINE
  5
290
330
1B7
100
AcDbEntity
  8
DV3_Default
  6
Continuous
 62
     7
100
AcDbSpline
210
0.0
220
0.0
230
1.0
 70
     8
 71
     3
 72
    30
 73
    26
 74
     0
 42
0.000000001
 43
0.0000000001
 40
0.0
 40
0.0
 40
0.0
 40
0.0
 40
0.0342958882947763
 40
0.0768777989826952
 40
0.119930569812505
 40
0.16413200476243
 40
0.2093520823405571
 40
0.2550686317075426
 40
0.3008426538983517
 40
0.3465111865137471
 40
0.3920638749542978
 40
0.4375265903268912
 40
0.4829338575857661
 40
0.5283207295211156
 40
0.5737196571909077
 40
0.6191568775778859
 40
0.664670190920301
 40
0.7103007494819743
 40
0.7560905143852869
 40
0.80206840989369
 40
0.8482060659970823
 40
0.8942021583067127
 40
0.9394614534995472
 40
0.9834092446012917
 40
1.0
 40
1.0
 40
1.0
 40
1.0
 10
381.6796110173768
 20
737.5304188764271
 30
0.0
 10
381.6802084199275
 20
737.6220419243747
 30
0.0
 10
381.6787288564258
 20
737.7958771761686
 30
0.0
 10
381.5800989965471
 20
738.0860514589935
 30
0.0
 10
381.4056734398264
 20
738.3733145080266
 30
0.0
 10
381.153468611244
 20
738.6455437169969
 30
0.0
 10
380.8284822492751
 20
738.895975491391
 30
0.0
 10
380.4358205841989
 20
739.1196818745604
 30
0.0
 10
379.9851100414717
 20
739.3110996407
 30
0.0
 10
379.4869082657984
 20
739.4664182146912
 30
0.0
 10
378.9518883717104
 20
739.5829833497542
 30
0.0
 10
378.3908657034414
 20
739.6589483646673
 30
0.0
 10
377.8150159559244
 20
739.6931121231817
 30
0.0
 10
377.2357702547471
 20
739.6849451135644
 30
0.0
 10
376.6646488157208
 20
739.6346147753082
 30
0.0
 10
376.1129788956125
 20
739.5429830977808
 30
0.0
 10
375.591642790318
 20
739.4115479946408
 30
0.0
 10
375.1108329411275
 20
739.2423087328244
 30
0.0
 10
374.6800237999821
 20
739.0376484465918
 30
0.0
 10
374.3078203729548
 20
738.8000458238646
 30
0.0
 10
374.0033211368484
 20
738.5328366941366
 30
0.0
 10
373.773430336562
 20
738.2391449119787
 30
0.0
 10
373.6326733808279
 20
737.9302671939107
 30
0.0
 10
373.5760279478924
 20
737.6667852511133
 30
0.0
 10
373.5933932472214
 20
737.5295596355745
 30
0.0
 10
373.5993181632167
 20
737.4854986632803
 30
0.0
  0
SPLINE
  5
291
330
1B7
100
AcDbEntity
  8
DV3_Default
  6
Continuous
 62
     7
100
AcDbSpline
210
0.0
220
0.0
230
1.0
 70
     8
 71
     3
 72
    24
 73
    20
 74
     0
 42
0.000000001
 43
0.0000000001
 40
0.0
 40
0.0
 40
0.0
 40
0.0
 40
0.0387238722515609
 40
0.0923677919182665
 40
0.1724553809267535
 40
0.2522184280333428
 40
0.3450437162858129
 40
0.4378215780356877
 40
0.4842617477177271
 40
0.5307695291297725
 40
0.5773722298945835
 40
0.6240985326268853
 40
0.7179945684339155
 40
0.8119467932312694
 40
0.9059012152796031
 40
0.9529471297318155
 40
0.9764731416244401
 40
0.9882370577718695
 40
1.0
 40
1.0
 40
1.0
 40
1.0
 10
358.3385894708015
 20
670.2902991923722
 30
0.0
 10
358.3373318658806
 20
670.2899408513551
 30
0.0
 10
358.3346080559582
 20
670.2859776792053
 30
0.0
 10
358.3303717537547
 20
670.2646504536557
 30
0.0
 10
358.3270895563219
 20
670.2135405854526
 30
0.0
 10
358.3256936773253
 20
670.1182132428735
 30
0.0
 10
358.327489740072
 20
669.9789850922829
 30
0.0
 10
358.3317766900261
 20
669.8205301534436
 30
0.0
 10
358.336869869425
 20
669.6718164089706
 30
0.0
 10
358.3415496421092
 20
669.5491230816448
 30
0.0
 10
358.3473253425076
 20
669.4152813349611
 30
0.0
 10
358.3561719308333
 20
669.22138596337
 30
0.0
 10
358.3700630514376
 20
668.9509235072088
 30
0.0
 10
358.3910264260059
 20
668.5819094611971
 30
0.0
 10
358.4106241892099
 20
668.2373947930978
 30
0.0
 10
358.4248876743008
 20
667.9771301221291
 30
0.0
 10
358.4321208352579
 20
667.8421203743543
 30
0.0
 10
358.4362170401304
 20
667.7636860459037
 30
0.0
 10
358.4383698578033
 20
667.7239067933353
 30
0.0
 10
358.4394462220708
 20
667.7040204424034
 30
0.0
  0
ARC
  5
292
330
1B7
100
AcDbEntity
  8
DV3_Default
  6
Continuous
 62
     7
100
AcDbCircle
 10
508.344365930635
 20
661.8081242595046
 30
0.0
 40
150.0208203704759
100
AcDbArc
 50
177.7476660436803
 51
182.2523339563195
  0
ARC
  5
293
330
1B7
100
AcDbEntity
  8
DV3_Default
  6
Continuous
 62
     7
100
AcDbCircle
 10
598.1163632246701
 20
648.5413364886892
 30
0.0
 40
239.7902303820397
100
AcDbArc
 50
178.2385124113274
 51
181.7614875886724
  0
ARC
  5
294
330
1B7
100
AcDbEntity
  8
DV3_Default
  6
Continuous
 62
     7
100
AcDbCircle
 10
449.9443495799177
 20
636.6453210438236
 30
0.0
 40
91.61672382512715
100
AcDbArc
 50
177.1689008132864
 51
182.8310991867137
  0
SPLINE
  5
295
330
1B7
100
AcDbEntity
  8
DV3_Default
  6
Continuous
 62
     7
100
AcDbSpline
210
0.0
220
0.0
230
1.0
 70
     8
 71
     3
 72
     8
 73
     4
 74
     0
 42
0.000000001
 43
0.0000000001
 40
0.0
 40
0.0
 40
0.0
 40
0.0
 40
1.0
 40
1.0
 40
1.0
 40
1.0
 10
358.4394462220708
 20
632.1201971868743
 30
0.0
 10
358.3925615766075
 20
631.6529027237878
 30
0.0
 10
358.3553135533478
 20
631.4446466492595
 30
0.0
 10
358.3375547833387
 20
631.4794871682727
 30
0.0
  0
LINE
  5
296
330
1B7
100
AcDbEntity
  8
DV3_Default
  6
Continuous
 62
     7
100
AcDbLine
 10
358.1368282614174
 20
631.7583047730976
 30
0.0
 11
358.1368282614174
 21
670.0068429753749
 31
0.0
  0
SPLINE
  5
297
330
1B7
100
AcDbEntity
  8
DV3_Default
  6
Continuous
 62
     7
100
AcDbSpline
210
0.0
220
0.0
230
1.0
 70
     8
 71
     3
 72
    18
 73
    14
 74
     0
 42
0.000000001
 43
0.0000000001
 40
0.0
 40
0.0
 40
0.0
 40
0.0
 40
0.0586649287543805
 40
0.0586649287543805
 40
0.2798730998665099
 40
0.2798730998665099
 40
0.5010812709786396
 40
0.5010812709786396
 40
0.7222894420907693
 40
0.7222894420907693
 40
0.9434976132028987
 40
0.9434976132028987
 40
1.0
 40
1.0
 40
1.0
 40
1.0
 10
380.8144203810916
 20
667.8594920389924
 30
0.0
 10
380.8620173786702
 20
667.7562185444235
 30
0.0
 10
380.8868152592161
 20
667.6475880971833
 30
0.0
 10
380.8868772631022
 20
667.1100715579163
 30
0.0
 10
380.5394650641296
 20
666.6312173953063
 30
0.0
 10
379.3284363676387
 20
665.9048133621281
 30
0.0
 10
378.4839747701079
 20
665.6795144584266
 30
0.0
 10
376.785620879145
 20
665.6932395026566
 30
0.0
 10
375.938286375497
 20
665.9348551878654
 30
0.0
 10
374.7402419470009
 20
666.6716987732726
 30
0.0
 10
374.387064811294
 20
667.1540559583591
 30
0.0
 10
374.3867679949643
 20
667.6931935000066
 30
0.0
 10
374.4098045513547
 20
667.7982658859587
 30
0.0
 10
374.454098480088
 20
667.8977547677219
 30
0.0
  0
ARC
  5
298
330
1B7
100
AcDbEntity
  8
DV3_Default
  6
Continuous
 62
     7
100
AcDbCircle
 10
5829.278212805308
 20
652.4579222459238
 30
0.0
 40
5444.594008117574
100
AcDbArc
 50
179.8205388938746
 51
180.1152787962337
  0
SPLINE
  5
299
330
1B7
100
AcDbEntity
  8
DV3_Default
  6
Continuous
 62
     7
100
AcDbSpline
210
0.0
220
0.0
230
1.0
 70
     8
 71
     3
 72
    18
 73
    14
 74
     0
 42
0.000000001
 43
0.0000000001
 40
0.0
 40
0.0
 40
0.0
 40
0.0
 40
0.1895530408948531
 40
0.1895530408948531
 40
0.3791060817897062
 40
0.3791060817897062
 40
0.5686591226845592
 40
0.5686591226845592
 40
0.7582121635794121
 40
0.7582121635794121
 40
0.9477652044742647
 40
0.9477652044742647
 40
1.0
 40
1.0
 40
1.0
 40
1.0
 10
384.695224874619
 20
641.5034361545119
 30
0.0
 10
384.6967540939748
 20
640.4302068150463
 30
0.0
 10
384.6984238527946
 20
639.4392616959471
 30
0.0
 10
384.7008250876148
 20
637.607183567588
 30
0.0
 10
384.702532530427
 20
636.7587550929658
 30
0.0
 10
384.7079369213291
 20
635.261689514535
 30
0.0
 10
384.7113639191594
 20
634.6110494670491
 30
0.0
 10
384.7160559782618
 20
633.5115546211465
 30
0.0
 10
384.7172021646016
 20
633.0638799389202
 30
0.0
 10
384.7171821701313
 20
632.4238746974881
 30
0.0
 10
384.716030171807
 20
632.2342051981934
 30
0.0
 10
384.7130567989804
 20
632.1415651094484
 30
0.0
 10
384.7123306757347
 20
632.1306294637439
 30
0.0
 10
384.7115591982735
 20
632.1286795055384
 30
0.0
  0
ARC
  5
29A
330
1B7
100
AcDbEntity
  8
DV3_Default
  6
Continuous
 62
     7
100
AcDbCircle
 10
201.3202019355861
 20
650.8825649772095
 30
0.0
 40
184.3474570832466
100
AcDbArc
 50
354.1641081689235
 51
5.835894404580622
  0
LINE
  5
29B
330
1B7
100
AcDbEntity
  8
DV3_Default
  6
Continuous
 62
     7
100
AcDbLine
 10
358.3395942249793
 20
631.4748581161873
 30
0.0
 11
384.2207991260128
 21
631.7007185096088
 31
0.0
  0
ARC
  5
29C
330
1B7
100
AcDbEntity
  8
DV3_Default
  6
Continuous
 62
     7
100
AcDbCircle
 10
358.4368282614174
 20
670.0068429753752
 30
0.0
 40
0.2999999999999882
100
AcDbArc
 50
109.3511950201512
 51
180.0
  0
ARC
  5
29D
330
1B7
100
AcDbEntity
  8
DV3_Default
  6
Continuous
 62
     7
100
AcDbCircle
 10
358.4368282614174
 20
631.7583047730975
 30
0.0
 40
0.3000000000000016
100
AcDbArc
 50
180.0
 51
250.6893993619566
  0
LINE
  5
29E
330
1B7
100
AcDbEntity
  8
DV3_Default
  6
Continuous
 62
     7
100
AcDbLine
 10
384.2207424732927
 20
670.0644297332623
 30
0.0
 11
380.8118282614174
 21
670.0941786845951
 31
0.0
  0
LINE
  5
29F
330
1B7
100
AcDbEntity
  8
DV3_Default
  6
Continuous
 62
     7
100
AcDbLine
 10
374.4618245416992
 20
670.1495939693104
 30
0.0
 11
358.3392550915434
 21
670.2902925918399
 31
0.0
  0
ARC
  5
2A0
330
1B7
100
AcDbEntity
  8
DV3_Default
  6
Continuous
 62
     7
100
AcDbCircle
 10
384.2277489159842
 20
669.5399543133381
 30
0.0
 40
0.4857269227740872
100
AcDbArc
 50
20.94247340339513
 51
91.26349595337755
  0
ARC
  5
2A1
330
1B7
100
AcDbEntity
  8
DV3_Default
  6
Continuous
 62
     7
100
AcDbCircle
 10
384.2269548634519
 20
632.1925777732478
 30
0.0
 40
0.4875843118726345
100
AcDbArc
 50
269.4964834056744
 51
342.3041650371053
  0
ENDBLK
  5
2A3
330
1B7
100
AcDbEntity
  8
0
100
AcDbBlockEnd
  0
ENDSEC
  0
SECTION
  2
ENTITIES
  0
INSERT
  5
6C
330
1F
100
AcDbEntity
  8
Default
100
AcDbBlockReference
  2
SEANNOT_GROUP
 10
0.0
 20
0.0
 30
0.0
  0
INSERT
  5
77
330
1F
100
AcDbEntity
  8
Default
100
AcDbBlockReference
  2
SEANNOT_GROUP1
 10
0.0
 20
0.0
 30
0.0
  0
INSERT
  5
7D
330
1F
100
AcDbEntity
  8
Default
100
AcDbBlockReference
  2
SEANNOT_GROUP2
 10
0.0
 20
0.0
 30
0.0
  0
INSERT
  5
83
330
1F
100
AcDbEntity
  8
Default
100
AcDbBlockReference
  2
SE
 10
0.0
 20
0.0
 30
0.0
  0
INSERT
  5
C6
330
1F
100
AcDbEntity
  8
Default
100
AcDbBlockReference
  2
SE1
 10
0.0
 20
0.0
 30
0.0
  0
INSERT
  5
1B8
330
1F
100
AcDbEntity
  8
Default
100
AcDbBlockReference
  2
SE2
 10
0.0
 20
0.0
 30
0.0
  0
ENDSEC
  0
SECTION
  2
OBJECTS
  0
DICTIONARY
  5
C
330
0
100
AcDbDictionary
281
     1
  3
ACAD_CIP_PREVIOUS_PRODUCT_INFO
350
303
  3
ACAD_COLOR
350
2F9
  3
ACAD_DETAILVIEWSTYLE
350
2FF
  3
ACAD_GROUP
350
D
  3
ACAD_LAYOUT
350
1A
  3
ACAD_MATERIAL
350
43
  3
ACAD_MLEADERSTYLE
350
2AD
  3
ACAD_MLINESTYLE
350
17
  3
ACAD_PLOTSETTINGS
350
19
  3
ACAD_PLOTSTYLENAME
350
E
  3
ACAD_SCALELIST
350
47
  3
ACAD_SECTIONVIEWSTYLE
350
2FD
  3
ACAD_TABLESTYLE
350
2FA
  3
ACAD_VISUALSTYLE
350
2A
  3
ACDB_RECOMPOSE_DATA
350
328
  3
AcDbVariableDictionary
350
2AB
  0
DICTIONARY
  5
2BE
330
8
100
AcDbDictionary
280
     1
281
     1
  0
SUN
  5
69
330
29
100
AcDbSun
 90
        1
290
     0
 63
     7
 40
1.0
291
     1
 91
  2455826
 92
 54000000
292
     0
 70
     0
 71
   256
280
     1
  0
DICTIONARY
  5
304
330
10
100
AcDbDictionary
280
     1
281
     1
  3
ADSK_XREC_LAYER_RECONCILED
360
305
  0
DICTIONARY
  5
306
330
6A
100
AcDbDictionary
280
     1
281
     1
  3
ADSK_XREC_LAYER_RECONCILED
360
307
  0
DICTIONARY
  5
308
330
84
100
AcDbDictionary
280
     1
281
     1
  3
ADSK_XREC_LAYER_RECONCILED
360
309
  0
DICTIONARY
  5
30A
330
C7
100
AcDbDictionary
280
     1
281
     1
  3
ADSK_XREC_LAYER_RECONCILED
360
30B
  0
DICTIONARY
  5
30C
330
1B9
100
AcDbDictionary
280
     1
281
     1
  3
ADSK_XREC_LAYER_RECONCILED
360
30D
  0
XRECORD
  5
303
102
{ACAD_REACTORS
330
C
102
}
330
C
100
AcDbXrecord
280
     1
300
ACD
300
2017
300
ACD_F_S
  0
DICTIONARY
  5
2F9
102
{ACAD_REACTORS
330
C
102
}
330
C
100
AcDbDictionary
281
     1
  0
DICTIONARY
  5
2FF
102
{ACAD_REACTORS
330
C
102
}
330
C
100
AcDbDictionary
281
     1
  3
Metric50
350
300
  0
DICTIONARY
  5
D
102
{ACAD_REACTORS
330
C
102
}
330
C
100
AcDbDictionary
281
     1
  0
DICTIONARY
  5
1A
102
{ACAD_REACTORS
330
C
102
}
330
C
100
AcDbDictionary
281
     1
  3
Layout1
350
1E
  3
Model
350
22
  0
DICTIONARY
  5
43
102
{ACAD_REACTORS
330
C
102
}
330
C
100
AcDbDictionary
281
     1
  3
ByBlock
350
45
  3
ByLayer
350
44
  3
Global
350
46
  0
DICTIONARY
  5
2AD
102
{ACAD_REACTORS
330
C
102
}
330
C
100
AcDbDictionary
281
     1
  3
Standard
350
2FC
  0
DICTIONARY
  5
17
102
{ACAD_REACTORS
330
C
102
}
330
C
100
AcDbDictionary
281
     1
  3
Standard
350
18
  0
DICTIONARY
  5
19
102
{ACAD_REACTORS
330
C
102
}
330
C
100
AcDbDictionary
281
     1
  0
ACDBDICTIONARYWDFLT
  5
E
102
{ACAD_REACTORS
330
C
102
}
330
C
100
AcDbDictionary
281
     1
  3
Normal
350
F
100
AcDbDictionaryWithDefault
340
F
  0
DICTIONARY
  5
47
102
{ACAD_REACTORS
330
C
102
}
330
C
100
AcDbDictionary
281
     1
  3
A0
350
48
  3
A1
350
49
  3
A2
350
4A
  3
A3
350
4B
  3
A4
350
4C
  3
A5
350
4D
  3
A6
350
4E
  3
A7
350
4F
  3
A8
350
50
  3
A9
350
51
  3
B0
350
52
  3
B1
350
53
  3
B2
350
54
  3
B3
350
55
  3
B4
350
56
  3
B5
350
57
  3
B6
350
58
  3
B7
350
59
  3
B8
350
5A
  3
B9
350
5B
  3
C0
350
5C
  3
C1
350
5D
  3
C2
350
5E
  3
C3
350
5F
  3
C4
350
60
  3
C5
350
61
  3
C6
350
62
  3
C7
350
63
  3
C8
350
64
  3
C9
350
65
  3
D0
350
66
  3
D1
350
67
  3
D2
350
68
  0
DICTIONARY
  5
2FD
102
{ACAD_REACTORS
330
C
102
}
330
C
100
AcDbDictionary
281
     1
  3
Metric50
350
2FE
  0
DICTIONARY
  5
2FA
102
{ACAD_REACTORS
330
C
102
}
330
C
100
AcDbDictionary
281
     1
  3
Standard
350
2FB
  0
DICTIONARY
  5
2A
102
{ACAD_REACTORS
330
C
102
}
330
C
100
AcDbDictionary
281
     1
  3
2dWireframe
350
2F
  3
Basic
350
32
  3
Brighten
350
36
  3
ColorChange
350
3A
  3
Conceptual
350
34
  3
Dim
350
35
  3
EdgeColorOff
350
3D
  3
Facepattern
350
39
  3
Flat
350
2B
  3
FlatWithEdges
350
2C
  3
Gouraud
350
2D
  3
GouraudWithEdges
350
2E
  3
Hidden
350
31
  3
JitterOff
350
3B
  3
Linepattern
350
38
  3
OverhangOff
350
3C
  3
Realistic
350
33
  3
Shaded
350
42
  3
Shaded with edges
350
41
  3
Shades of Gray
350
3E
  3
Sketchy
350
3F
  3
Thicken
350
37
  3
Wireframe
350
30
  3
X-Ray
350
40
  0
XRECORD
  5
328
102
{ACAD_REACTORS
330
C
102
}
330
C
100
AcDbXrecord
280
     1
 90
        1
330
2FB
330
2FE
330
300
  0
DICTIONARY
  5
2AB
102
{ACAD_REACTORS
330
C
102
}
330
C
100
AcDbDictionary
281
     1
  3
CANNOSCALE
350
2C0
  3
CMLEADERSTYLE
350
31C
  3
CTABLESTYLE
350
31B
  3
CVIEWDETAILSTYLE
350
31D
  3
CVIEWSECTIONSTYLE
350
31E
  3
DIMASSOC
350
2B2
  3
HIDETEXT
350
2B3
  3
LAYEREVAL
350
320
  3
LAYERNOTIFY
350
321
  3
LIGHTINGUNITS
350
31F
  3
MSLTSCALE
350
2C1
  0
XRECORD
  5
305
102
{ACAD_REACTORS
330
304
102
}
330
304
100
AcDbXrecord
280
     1
290
     1
  0
XRECORD
  5
307
102
{ACAD_REACTORS
330
306
102
}
330
306
100
AcDbXrecord
280
     1
290
     1
  0
XRECORD
  5
309
102
{ACAD_REACTORS
330
308
102
}
330
308
100
AcDbXrecord
280
     1
290
     1
  0
XRECORD
  5
30B
102
{ACAD_REACTORS
330
30A
102
}
330
30A
100
AcDbXrecord
280
     1
290
     1
  0
XRECORD
  5
30D
102
{ACAD_REACTORS
330
30C
102
}
330
30C
100
AcDbXrecord
280
     1
290
     1
  0
ACDBDETAILVIEWSTYLE
  5
300
102
{ACAD_XDICTIONARY
360
326
102
}
102
{ACAD_REACTORS
330
2FF
102
}
330
2FF
100
AcDbModelDocViewStyle
 70
     0
  3
Metric50
290
     0
100
AcDbDetailViewStyle
 70
     0
 71
     0
 90
        3
 71
     1
340
11
 62
   256
 40
5.0
340
0
 62
   256
 40
5.0
300

 40
0.0
280
     1
 71
     2
340
16
 90
       25
 62
   256
 71
     3
340
11
 62
   256
 40
5.0
 90
        0
 40
15.0
 90
        1
300
%<\AcVar ViewDetailId>% (%<\AcVar ViewScale \f "%sn">%)
 71
     4
340
16
 90
       25
 62
   256
340
16
 90
       25
 62
   256
280
     0
  0
LAYOUT
  5
1E
102
{ACAD_REACTORS
330
1A
102
}
330
1A
100
AcDbPlotSettings
  1

  2
none_device
  4

  6

 40
0.0
 41
0.0
 42
0.0
 43
0.0
 44
0.0
 45
0.0
 46
0.0
 47
0.0
 48
0.0
 49
0.0
140
0.0
141
0.0
142
1.0
143
1.0
 70
   688
 72
     1
 73
     0
 74
     5
  7

 75
    16
147
1.0
 76
     0
 77
     2
 78
   300
148
0.0
149
0.0
100
AcDbLayout
  1
Layout1
 70
     1
 71
     1
 10
0.0
 20
0.0
 11
3000.0
 21
4500.0
 12
0.0
 22
0.0
 32
0.0
 14
0.0
 24
0.0
 34
0.0
 15
3000.0
 25
4500.0
 35
0.0
146
0.0
 13
0.0
 23
0.0
 33
0.0
 16
1.0
 26
0.0
 36
0.0
 17
0.0
 27
1.0
 37
0.0
 76
     0
330
1B
  0
LAYOUT
  5
22
102
{ACAD_REACTORS
330
1A
102
}
330
1A
100
AcDbPlotSettings
  1

  2
none_device
  4
Letter_(8.50_x_11.00_Inches)
  6

 40
6.349999999999999
 41
6.349999999999999
 42
6.350005079999999
 43
6.350005079999999
 44
215.9
 45
279.4
 46
0.0
 47
0.0
 48
0.0
 49
0.0
140
0.0
141
0.0
142
1.0
143
1.0
 70
  1712
 72
     1
 73
     0
 74
     0
  7

 75
     0
147
1.0
 76
     0
 77
     2
 78
   300
148
0.0
149
0.0
100
AcDbLayout
  1
Model
 70
     1
 71
     0
 10
0.0
 20
0.0
 11
3000.0
 21
4500.0
 12
0.0
 22
0.0
 32
0.0
 14
0.0
 24
0.0
 34
0.0
 15
3000.0
 25
4500.0
 35
0.0
146
0.0
 13
0.0
 23
0.0
 33
0.0
 16
1.0
 26
0.0
 36
0.0
 17
0.0
 27
1.0
 37
0.0
 76
     0
330
1F
331
29
  0
MATERIAL
  5
45
102
{ACAD_REACTORS
330
43
102
}
330
43
100
AcDbMaterial
  1
ByBlock
 73
     1
 78
     1
172
     1
176
     1
270
     1
274
     1
  0
MATERIAL
  5
44
102
{ACAD_REACTORS
330
43
102
}
330
43
100
AcDbMaterial
  1
ByLayer
 73
     1
 78
     1
172
     1
176
     1
270
     1
274
     1
  0
MATERIAL
  5
46
102
{ACAD_REACTORS
330
43
102
}
330
43
100
AcDbMaterial
  1
Global
 73
     1
 78
     1
172
     1
176
     1
270
     1
274
     1
  0
MLEADERSTYLE
  5
2FC
102
{ACAD_REACTORS
330
2AD
102
}
330
2AD
100
AcDbMLeaderStyle
179
     2
170
     2
171
     1
172
     0
 90
        2
 40
0.0
 41
0.0
173
     1
 91
-1056964608
340
14
 92
       -2
290
     1
 42
2.0
291
     1
 43
0.36
  3
Standard
 44
4.0
300

342
11
174
     1
178
     6
175
     1
176
     0
 93
-1056964608
 45
4.0
292
     0
297
     0
 46
4.0
 94
-1056964608
 47
1.0
 49
1.0
140
1.0
293
     1
141
0.0
294
     1
177
     0
142
1.0
295
     1
296
     0
143
0.125
271
     0
272
     9
273
     9
298
     1
  0
MLINESTYLE
  5
18
102
{ACAD_REACTORS
330
17
102
}
330
17
100
AcDbMlineStyle
  2
STANDARD
 70
     0
  3

 62
   256
 51
90.0
 52
90.0
 71
     2
 49
0.5
 62
   256
  6
BYLAYER
 49
-0.5
 62
   256
  6
BYLAYER
  0
ACDBPLACEHOLDER
  5
F
102
{ACAD_REACTORS
330
E
102
}
330
E
  0
SCALE
  5
48
102
{ACAD_REACTORS
330
47
102
}
330
47
100
AcDbScale
 70
     0
300
1:1
140
1.0
141
1.0
290
     1
  0
SCALE
  5
49
102
{ACAD_REACTORS
330
47
102
}
330
47
100
AcDbScale
 70
     0
300
1:2
140
1.0
141
2.0
290
     0
  0
SCALE
  5
4A
102
{ACAD_REACTORS
330
47
102
}
330
47
100
AcDbScale
 70
     0
300
1:4
140
1.0
141
4.0
290
     0
  0
SCALE
  5
4B
102
{ACAD_REACTORS
330
47
102
}
330
47
100
AcDbScale
 70
     0
300
1:5
140
1.0
141
5.0
290
     0
  0
SCALE
  5
4C
102
{ACAD_REACTORS
330
47
102
}
330
47
100
AcDbScale
 70
     0
300
1:8
140
1.0
141
8.0
290
     0
  0
SCALE
  5
4D
102
{ACAD_REACTORS
330
47
102
}
330
47
100
AcDbScale
 70
     0
300
1:10
140
1.0
141
10.0
290
     0
  0
SCALE
  5
4E
102
{ACAD_REACTORS
330
47
102
}
330
47
100
AcDbScale
 70
     0
300
1:16
140
1.0
141
16.0
290
     0
  0
SCALE
  5
4F
102
{ACAD_REACTORS
330
47
102
}
330
47
100
AcDbScale
 70
     0
300
1:20
140
1.0
141
20.0
290
     0
  0
SCALE
  5
50
102
{ACAD_REACTORS
330
47
102
}
330
47
100
AcDbScale
 70
     0
300
1:30
140
1.0
141
30.0
290
     0
  0
SCALE
  5
51
102
{ACAD_REACTORS
330
47
102
}
330
47
100
AcDbScale
 70
     0
300
1:40
140
1.0
141
40.0
290
     0
  0
SCALE
  5
52
102
{ACAD_REACTORS
330
47
102
}
330
47
100
AcDbScale
 70
     0
300
1:50
140
1.0
141
50.0
290
     0
  0
SCALE
  5
53
102
{ACAD_REACTORS
330
47
102
}
330
47
100
AcDbScale
 70
     0
300
1:100
140
1.0
141
100.0
290
     0
  0
SCALE
  5
54
102
{ACAD_REACTORS
330
47
102
}
330
47
100
AcDbScale
 70
     0
300
2:1
140
2.0
141
1.0
290
     0
  0
SCALE
  5
55
102
{ACAD_REACTORS
330
47
102
}
330
47
100
AcDbScale
 70
     0
300
4:1
140
4.0
141
1.0
290
     0
  0
SCALE
  5
56
102
{ACAD_REACTORS
330
47
102
}
330
47
100
AcDbScale
 70
     0
300
8:1
140
8.0
141
1.0
290
     0
  0
SCALE
  5
57
102
{ACAD_REACTORS
330
47
102
}
330
47
100
AcDbScale
 70
     0
300
10:1
140
10.0
141
1.0
290
     0
  0
SCALE
  5
58
102
{ACAD_REACTORS
330
47
102
}
330
47
100
AcDbScale
 70
     0
300
100:1
140
100.0
141
1.0
290
     0
  0
SCALE
  5
59
102
{ACAD_REACTORS
330
47
102
}
330
47
100
AcDbScale
 70
     0
300
1/128" = 1'-0"
140
0.0078125
141
12.0
290
     0
  0
SCALE
  5
5A
102
{ACAD_REACTORS
330
47
102
}
330
47
100
AcDbScale
 70
     0
300
1/64" = 1'-0"
140
0.015625
141
12.0
290
     0
  0
SCALE
  5
5B
102
{ACAD_REACTORS
330
47
102
}
330
47
100
AcDbScale
 70
     0
300
1/32" = 1'-0"
140
0.03125
141
12.0
290
     0
  0
SCALE
  5
5C
102
{ACAD_REACTORS
330
47
102
}
330
47
100
AcDbScale
 70
     0
300
1/16" = 1'-0"
140
0.0625
141
12.0
290
     0
  0
SCALE
  5
5D
102
{ACAD_REACTORS
330
47
102
}
330
47
100
AcDbScale
 70
     0
300
3/32" = 1'-0"
140
0.09375
141
12.0
290
     0
  0
SCALE
  5
5E
102
{ACAD_REACTORS
330
47
102
}
330
47
100
AcDbScale
 70
     0
300
1/8" = 1'-0"
140
0.125
141
12.0
290
     0
  0
SCALE
  5
5F
102
{ACAD_REACTORS
330
47
102
}
330
47
100
AcDbScale
 70
     0
300
3/16" = 1'-0"
140
0.1875
141
12.0
290
     0
  0
SCALE
  5
60
102
{ACAD_REACTORS
330
47
102
}
330
47
100
AcDbScale
 70
     0
300
1/4" = 1'-0"
140
0.25
141
12.0
290
     0
  0
SCALE
  5
61
102
{ACAD_REACTORS
330
47
102
}
330
47
100
AcDbScale
 70
     0
300
3/8" = 1'-0"
140
0.375
141
12.0
290
     0
  0
SCALE
  5
62
102
{ACAD_REACTORS
330
47
102
}
330
47
100
AcDbScale
 70
     0
300
1/2" = 1'-0"
140
0.5
141
12.0
290
     0
  0
SCALE
  5
63
102
{ACAD_REACTORS
330
47
102
}
330
47
100
AcDbScale
 70
     0
300
3/4" = 1'-0"
140
0.75
141
12.0
290
     0
  0
SCALE
  5
64
102
{ACAD_REACTORS
330
47
102
}
330
47
100
AcDbScale
 70
     0
300
1" = 1'-0"
140
1.0
141
12.0
290
     0
  0
SCALE
  5
65
102
{ACAD_REACTORS
330
47
102
}
330
47
100
AcDbScale
 70
     0
300
1-1/2" = 1'-0"
140
1.5
141
12.0
290
     0
  0
SCALE
  5
66
102
{ACAD_REACTORS
330
47
102
}
330
47
100
AcDbScale
 70
     0
300
3" = 1'-0"
140
3.0
141
12.0
290
     0
  0
SCALE
  5
67
102
{ACAD_REACTORS
330
47
102
}
330
47
100
AcDbScale
 70
     0
300
6" = 1'-0"
140
6.0
141
12.0
290
     0
  0
SCALE
  5
68
102
{ACAD_REACTORS
330
47
102
}
330
47
100
AcDbScale
 70
     0
300
1'-0" = 1'-0"
140
12.0
141
12.0
290
     0
  0
ACDBSECTIONVIEWSTYLE
  5
2FE
102
{ACAD_XDICTIONARY
360
324
102
}
102
{ACAD_REACTORS
330
2FD
102
}
330
2FD
100
AcDbModelDocViewStyle
 70
     0
  3
Metric50
290
     0
100
AcDbSectionViewStyle
 70
     0
 71
     0
 90
      102
 71
     1
340
11
 62
   256
 40
5.0
340
0
340
0
 62
   256
 40
5.0
300
I, O, Q, S, X, Z
 40
10.0
 90
        0
 40
2.5
 90
        0
 71
     2
340
16
 90
       25
 62
   256
340
16
 90
       50
 62
   256
 40
5.0
 40
2.5
 40
5.0
 71
     3
340
11
 62
   256
 40
5.0
 90
        0
 40
15.0
 90
        1
300
%<\AcVar ViewSectionStartId>%-%<\AcVar ViewSectionEndId>% (%<\AcVar ViewScale \f "%sn">%)
 71
     4
 62
   256
 62
   257
300
ANSI31
 40
1.0
 90
        0
290
     0
290
     0
 90
        6
 40
0.0
 40
1.570796326794896
 40
0.2617993877991494
 40
1.308996938995747
 40
-0.2617993877991494
 40
1.832595714594046
  0
TABLESTYLE
  5
2FB
102
{ACAD_XDICTIONARY
360
322
102
}
102
{ACAD_REACTORS
330
2FA
102
}
330
2FA
100
AcDbTableStyle
280
     0
  3
Standard
 70
     0
 71
     0
 40
1.5
 41
1.5
280
     0
281
     0
  7
Standard
140
4.5
170
     2
 62
     0
 63
     7
283
     0
 90
      512
 91
        0
  1

274
    -2
284
     1
 64
     0
275
    -2
285
     1
 65
     0
276
    -2
286
     1
 66
     0
277
    -2
287
     1
 67
     0
278
    -2
288
     1
 68
     0
279
    -2
289
     1
 69
     0
  7
Standard
140
6.0
170
     5
 62
     0
 63
     7
283
     0
 90
      512
 91
        0
  1

274
    -2
284
     1
 64
     0
275
    -2
285
     1
 65
     0
276
    -2
286
     1
 66
     0
277
    -2
287
     1
 67
     0
278
    -2
288
     1
 68
     0
279
    -2
289
     1
 69
     0
  7
Standard
140
4.5
170
     5
 62
     0
 63
     7
283
     0
 90
      512
 91
        0
  1

274
    -2
284
     1
 64
     0
275
    -2
285
     1
 65
     0
276
    -2
286
     1
 66
     0
277
    -2
287
     1
 67
     0
278
    -2
288
     1
 68
     0
279
    -2
289
     1
 69
     0
  0
VISUALSTYLE
  5
2F
102
{ACAD_REACTORS
330
2A
102
}
330
2A
100
AcDbVisualStyle
  2
2dWireframe
 70
     4
177
     3
291
     0
 70
    58
 90
        0
176
     1
 90
        2
176
     1
 90
        0
176
     1
 90
        0
176
     1
 40
0.6
176
     1
 40
30.0
176
     1
 62
     7
176
     1
 90
        1
176
     1
 90
        4
176
     1
 62
     7
176
     1
 62
   257
176
     1
 90
        1
176
     1
 90
        1
176
     1
 40
1.0
176
     1
 90
        0
176
     1
 62
   257
176
     1
 40
1.0
176
     1
 90
        1
176
     1
 90
        6
176
     1
 90
        2
176
     1
 62
     7
176
     1
 90
        5
176
     1
 90
        0
176
     1
 90
        0
176
     1
290
     0
176
     1
 90
        1
176
     1
 40
0.0
176
     1
 90
        0
176
     1
290
     1
176
     1
290
     1
176
     1
290
     0
176
     1
290
     0
176
     1
290
     0
176
     1
290
     0
176
     1
290
     0
176
     1
290
     0
176
     1
290
     0
176
     1
 90
       50
176
     1
 40
0.0
176
     1
 40
1.0
176
     1
 90
        0
176
     1
 62
    18
420
        0
176
     1
 90
       50
176
     1
 90
        3
176
     1
 62
     5
420
      255
176
     1
290
     0
176
     1
 90
       50
176
     1
 90
       50
176
     1
 90
       50
176
     1
290
     0
176
     1
 90
       50
176
     1
 62
   256
176
     0
 40
1.0
176
     0
 90
        2
176
     1
  1
strokes_ogs.tif
176
     1
290
     0
176
     1
 40
1.0
176
     1
 40
1.0
176
     1
  0
VISUALSTYLE
  5
32
102
{ACAD_REACTORS
330
2A
102
}
330
2A
100
AcDbVisualStyle
  2
Basic
 70
     7
177
     3
291
     1
 70
    58
 90
        1
176
     1
 90
        0
176
     1
 90
        1
176
     1
 90
        0
176
     1
 40
0.6
176
     1
 40
30.0
176
     1
 62
     7
176
     1
 90
        0
176
     1
 90
        4
176
     1
 62
     7
176
     1
 62
   257
176
     1
 90
        1
176
     1
 90
        1
176
     1
 40
1.0
176
     1
 90
        8
176
     1
 62
     7
176
     1
 40
1.0
176
     1
 90
        1
176
     1
 90
        6
176
     1
 90
        2
176
     1
 62
     7
176
     1
 90
        5
176
     1
 90
        0
176
     1
 90
        0
176
     1
290
     0
176
     1
 90
        1
176
     1
 40
0.0
176
     1
 90
        0
176
     1
290
     0
176
     1
290
     1
176
     1
290
     1
176
     1
290
     0
176
     1
290
     0
176
     1
290
     0
176
     1
290
     0
176
     1
290
     0
176
     1
290
     0
176
     1
 90
       50
176
     1
 40
0.0
176
     1
 40
1.0
176
     1
 90
        0
176
     1
 62
    18
420
        0
176
     1
 90
       50
176
     1
 90
        3
176
     1
 62
     5
420
      255
176
     1
290
     0
176
     1
 90
       50
176
     1
 90
       50
176
     1
 90
       50
176
     1
290
     0
176
     1
 90
       50
176
     1
 62
   256
176
     0
 40
1.0
176
     0
 90
        2
176
     1
  1
strokes_ogs.tif
176
     1
290
     0
176
     1
 40
1.0
176
     1
 40
1.0
176
     1
  0
VISUALSTYLE
  5
36
102
{ACAD_REACTORS
330
2A
102
}
330
2A
100
AcDbVisualStyle
  2
Brighten
 70
    12
177
     3
291
     1
 70
    58
 90
        2
176
     1
 90
        2
176
     1
 90
        0
176
     1
 90
        0
176
     1
 40
0.6
176
     1
 40
30.0
176
     1
 62
     7
176
     1
 90
        1
176
     1
 90
        4
176
     1
 62
     7
176
     1
 62
   257
176
     1
 90
        1
176
     1
 90
        1
176
     1
 40
1.0
176
     1
 90
        8
176
     1
 62
     7
176
     1
 40
1.0
176
     1
 90
        1
176
     1
 90
        6
176
     1
 90
        2
176
     1
 62
     7
176
     1
 90
        5
176
     1
 90
        0
176
     1
 90
        0
176
     1
290
     0
176
     1
 90
        1
176
     1
 40
50.0
176
     1
 90
        0
176
     1
290
     0
176
     1
290
     1
176
     1
290
     1
176
     1
290
     0
176
     1
290
     0
176
     1
290
     0
176
     1
290
     0
176
     1
290
     0
176
     1
290
     0
176
     1
 90
       50
176
     1
 40
0.0
176
     1
 40
1.0
176
     1
 90
        0
176
     1
 62
    18
420
        0
176
     1
 90
       50
176
     1
 90
        3
176
     1
 62
     5
420
      255
176
     1
290
     0
176
     1
 90
       50
176
     1
 90
       50
176
     1
 90
       50
176
     1
290
     0
176
     1
 90
       50
176
     1
 62
   256
176
     0
 40
1.0
176
     0
 90
        2
176
     1
  1
strokes_ogs.tif
176
     1
290
     0
176
     1
 40
1.0
176
     1
 40
1.0
176
     1
  0
VISUALSTYLE
  5
3A
102
{ACAD_REACTORS
330
2A
102
}
330
2A
100
AcDbVisualStyle
  2
ColorChange
 70
    16
177
     3
291
     1
 70
    58
 90
        2
176
     1
 90
        2
176
     1
 90
        3
176
     1
 90
        0
176
     1
 40
0.6
176
     1
 40
30.0
176
     1
 62
     8
176
     1
 90
        1
176
     1
 90
        4
176
     1
 62
     7
176
     1
 62
   257
176
     1
 90
        1
176
     1
 90
        1
176
     1
 40
1.0
176
     1
 90
        8
176
     1
 62
     8
176
     1
 40
1.0
176
     1
 90
        1
176
     1
 90
        6
176
     1
 90
        2
176
     1
 62
     7
176
     1
 90
        5
176
     1
 90
        0
176
     1
 90
        0
176
     1
290
     0
176
     1
 90
        1
176
     1
 40
0.0
176
     1
 90
        0
176
     1
290
     0
176
     1
290
     1
176
     1
290
     1
176
     1
290
     0
176
     1
290
     0
176
     1
290
     0
176
     1
290
     0
176
     1
290
     0
176
     1
290
     0
176
     1
 90
       50
176
     1
 40
0.0
176
     1
 40
1.0
176
     1
 90
        0
176
     1
 62
    18
420
        0
176
     1
 90
       50
176
     1
 90
        3
176
     1
 62
     5
420
      255
176
     1
290
     0
176
     1
 90
       50
176
     1
 90
       50
176
     1
 90
       50
176
     1
290
     0
176
     1
 90
       50
176
     1
 62
   256
176
     0
 40
1.0
176
     0
 90
        2
176
     1
  1
strokes_ogs.tif
176
     1
290
     0
176
     1
 40
1.0
176
     1
 40
1.0
176
     1
  0
VISUALSTYLE
  5
34
102
{ACAD_REACTORS
330
2A
102
}
330
2A
100
AcDbVisualStyle
  2
Conceptual
 70
     9
177
     3
291
     0
 70
    58
 90
        3
176
     1
 90
        2
176
     1
 90
        0
176
     1
 90
        0
176
     1
 40
0.6
176
     1
 40
30.0
176
     1
 62
     7
176
     1
 90
        2
176
     1
 90
        2
176
     1
 62
     7
176
     1
 62
   257
176
     1
 90
        1
176
     1
 90
        1
176
     1
 40
179.0
176
     1
 90
        8
176
     1
 62
     7
176
     1
 40
1.0
176
     1
 90
        1
176
     1
 90
        6
176
     1
 90
        2
176
     1
 62
     7
176
     1
 90
        3
176
     1
 90
        0
176
     1
 90
        0
176
     1
290
     0
176
     1
 90
        1
176
     1
 40
0.0
176
     1
 90
        0
176
     1
290
     0
176
     1
290
     1
176
     1
290
     1
176
     1
290
     0
176
     1
290
     0
176
     1
290
     0
176
     1
290
     0
176
     1
290
     0
176
     1
290
     0
176
     1
 90
       50
176
     1
 40
0.0
176
     1
 40
1.0
176
     1
 90
        0
176
     1
 62
    18
420
        0
176
     1
 90
       50
176
     1
 90
        3
176
     1
 62
     5
420
      255
176
     1
290
     0
176
     1
 90
       50
176
     1
 90
       50
176
     1
 90
       50
176
     1
290
     0
176
     1
 90
       50
176
     1
 62
   256
176
     0
 40
1.0
176
     0
 90
        2
176
     1
  1
strokes_ogs.tif
176
     1
290
     0
176
     1
 40
1.0
176
     1
 40
1.0
176
     1
  0
VISUALSTYLE
  5
35
102
{ACAD_REACTORS
330
2A
102
}
330
2A
100
AcDbVisualStyle
  2
Dim
 70
    11
177
     3
291
     1
 70
    58
 90
        2
176
     1
 90
        2
176
     1
 90
        0
176
     1
 90
        0
176
     1
 40
0.6
176
     1
 40
30.0
176
     1
 62
     7
176
     1
 90
        1
176
     1
 90
        4
176
     1
 62
     7
176
     1
 62
   257
176
     1
 90
        1
176
     1
 90
        1
176
     1
 40
1.0
176
     1
 90
        8
176
     1
 62
     7
176
     1
 40
1.0
176
     1
 90
        1
176
     1
 90
        6
176
     1
 90
        2
176
     1
 62
     7
176
     1
 90
        5
176
     1
 90
        0
176
     1
 90
        0
176
     1
290
     0
176
     1
 90
        1
176
     1
 40
-50.0
176
     1
 90
        0
176
     1
290
     0
176
     1
290
     1
176
     1
290
     1
176
     1
290
     0
176
     1
290
     0
176
     1
290
     0
176
     1
290
     0
176
     1
290
     0
176
     1
290
     0
176
     1
 90
       50
176
     1
 40
0.0
176
     1
 40
1.0
176
     1
 90
        0
176
     1
 62
    18
420
        0
176
     1
 90
       50
176
     1
 90
        3
176
     1
 62
     5
420
      255
176
     1
290
     0
176
     1
 90
       50
176
     1
 90
       50
176
     1
 90
       50
176
     1
290
     0
176
     1
 90
       50
176
     1
 62
   256
176
     0
 40
1.0
176
     0
 90
        2
176
     1
  1
strokes_ogs.tif
176
     1
290
     0
176
     1
 40
1.0
176
     1
 40
1.0
176
     1
  0
VISUALSTYLE
  5
3D
102
{ACAD_REACTORS
330
2A
102
}
330
2A
100
AcDbVisualStyle
  2
EdgeColorOff
 70
    22
177
     3
291
     1
 70
    58
 90
        2
176
     0
 90
        2
176
     0
 90
        0
176
     0
 90
        0
176
     0
 40
0.6
176
     0
 40
30.0
176
     0
 62
     7
176
     0
 90
        1
176
     0
 90
        4
176
     0
 62
     7
176
     0
 62
   257
176
     0
 90
        1
176
     0
 90
        1
176
     0
 40
1.0
176
     0
 90
        8
176
     2
 62
     7
176
     0
 40
1.0
176
     0
 90
        1
176
     0
 90
        6
176
     0
 90
        2
176
     0
 62
     7
176
     0
 90
        5
176
     0
 90
        0
176
     0
 90
        0
176
     0
290
     0
176
     0
 90
        1
176
     0
 40
0.0
176
     0
 90
        0
176
     0
290
     0
176
     0
290
     1
176
     0
290
     1
176
     0
290
     0
176
     0
290
     0
176
     0
290
     0
176
     0
290
     0
176
     0
290
     0
176
     0
290
     0
176
     0
 90
       50
176
     0
 40
0.0
176
     0
 40
1.0
176
     0
 90
        0
176
     0
 62
    18
420
        0
176
     0
 90
       50
176
     0
 90
        3
176
     0
 62
     5
420
      255
176
     0
290
     0
176
     0
 90
       50
176
     0
 90
       50
176
     0
 90
       50
176
     0
290
     0
176
     0
 90
       50
176
     0
 62
   256
176
     0
 40
1.0
176
     0
 90
        2
176
     0
  1
strokes_ogs.tif
176
     0
290
     0
176
     0
 40
1.0
176
     0
 40
1.0
176
     0
  0
VISUALSTYLE
  5
39
102
{ACAD_REACTORS
330
2A
102
}
330
2A
100
AcDbVisualStyle
  2
Facepattern
 70
    15
177
     3
291
     1
 70
    58
 90
        2
176
     1
 90
        2
176
     1
 90
        0
176
     1
 90
        0
176
     1
 40
0.6
176
     1
 40
30.0
176
     1
 62
     7
176
     1
 90
        1
176
     1
 90
        4
176
     1
 62
     7
176
     1
 62
   257
176
     1
 90
        1
176
     1
 90
        1
176
     1
 40
1.0
176
     1
 90
        8
176
     1
 62
     7
176
     1
 40
1.0
176
     1
 90
        1
176
     1
 90
        6
176
     1
 90
        2
176
     1
 62
     7
176
     1
 90
        5
176
     1
 90
        0
176
     1
 90
        0
176
     1
290
     0
176
     1
 90
        1
176
     1
 40
0.0
176
     1
 90
        0
176
     1
290
     0
176
     1
290
     1
176
     1
290
     1
176
     1
290
     0
176
     1
290
     0
176
     1
290
     0
176
     1
290
     0
176
     1
290
     0
176
     1
290
     0
176
     1
 90
       50
176
     1
 40
0.0
176
     1
 40
1.0
176
     1
 90
        0
176
     1
 62
    18
420
        0
176
     1
 90
       50
176
     1
 90
        3
176
     1
 62
     5
420
      255
176
     1
290
     0
176
     1
 90
       50
176
     1
 90
       50
176
     1
 90
       50
176
     1
290
     0
176
     1
 90
       50
176
     1
 62
   256
176
     0
 40
1.0
176
     0
 90
        2
176
     1
  1
strokes_ogs.tif
176
     1
290
     0
176
     1
 40
1.0
176
     1
 40
1.0
176
     1
  0
VISUALSTYLE
  5
2B
102
{ACAD_REACTORS
330
2A
102
}
330
2A
100
AcDbVisualStyle
  2
Flat
 70
     0
177
     3
291
     1
 70
    58
 90
        2
176
     1
 90
        1
176
     1
 90
        1
176
     1
 90
        2
176
     1
 40
0.6
176
     1
 40
30.0
176
     1
 62
     7
176
     1
 90
        0
176
     1
 90
        0
176
     1
 62
     7
176
     1
 62
   257
176
     1
 90
        1
176
     1
 90
        1
176
     1
 40
1.0
176
     1
 90
        8
176
     1
 62
     7
176
     1
 40
1.0
176
     1
 90
        1
176
     1
 90
        6
176
     1
 90
        2
176
     1
 62
     7
176
     1
 90
        5
176
     1
 90
        0
176
     1
 90
        0
176
     1
290
     0
176
     1
 90
       13
176
     1
 40
0.0
176
     1
 90
        0
176
     1
290
     0
176
     1
290
     1
176
     1
290
     1
176
     1
290
     0
176
     1
290
     0
176
     1
290
     0
176
     1
290
     0
176
     1
290
     0
176
     1
290
     0
176
     1
 90
       50
176
     1
 40
0.0
176
     1
 40
1.0
176
     1
 90
        0
176
     1
 62
    18
420
        0
176
     1
 90
       50
176
     1
 90
        3
176
     1
 62
     5
420
      255
176
     1
290
     0
176
     1
 90
       50
176
     1
 90
       50
176
     1
 90
       50
176
     1
290
     0
176
     1
 90
       50
176
     1
 62
   256
176
     0
 40
1.0
176
     0
 90
        2
176
     1
  1
strokes_ogs.tif
176
     1
290
     0
176
     1
 40
1.0
176
     1
 40
1.0
176
     1
  0
VISUALSTYLE
  5
2C
102
{ACAD_REACTORS
330
2A
102
}
330
2A
100
AcDbVisualStyle
  2
FlatWithEdges
 70
     1
177
     3
291
     1
 70
    58
 90
        2
176
     1
 90
        1
176
     1
 90
        1
176
     1
 90
        2
176
     1
 40
0.6
176
     1
 40
30.0
176
     1
 62
     7
176
     1
 90
        1
176
     1
 90
        0
176
     1
 62
     7
176
     1
 62
   257
176
     1
 90
        1
176
     1
 90
        1
176
     1
 40
1.0
176
     1
 90
        0
176
     1
 62
   257
176
     1
 40
1.0
176
     1
 90
        1
176
     1
 90
        6
176
     1
 90
        2
176
     1
 62
     7
176
     1
 90
        5
176
     1
 90
        0
176
     1
 90
        0
176
     1
290
     0
176
     1
 90
       13
176
     1
 40
0.0
176
     1
 90
        0
176
     1
290
     0
176
     1
290
     1
176
     1
290
     1
176
     1
290
     0
176
     1
290
     0
176
     1
290
     0
176
     1
290
     0
176
     1
290
     0
176
     1
290
     0
176
     1
 90
       50
176
     1
 40
0.0
176
     1
 40
1.0
176
     1
 90
        0
176
     1
 62
    18
420
        0
176
     1
 90
       50
176
     1
 90
        3
176
     1
 62
     5
420
      255
176
     1
290
     0
176
     1
 90
       50
176
     1
 90
       50
176
     1
 90
       50
176
     1
290
     0
176
     1
 90
       50
176
     1
 62
   256
176
     0
 40
1.0
176
     0
 90
        2
176
     1
  1
strokes_ogs.tif
176
     1
290
     0
176
     1
 40
1.0
176
     1
 40
1.0
176
     1
  0
VISUALSTYLE
  5
2D
102
{ACAD_REACTORS
330
2A
102
}
330
2A
100
AcDbVisualStyle
  2
Gouraud
 70
     2
177
     3
291
     1
 70
    58
 90
        2
176
     1
 90
        2
176
     1
 90
        1
176
     1
 90
        2
176
     1
 40
0.6
176
     1
 40
30.0
176
     1
 62
     7
176
     1
 90
        0
176
     1
 90
        0
176
     1
 62
     7
176
     1
 62
   257
176
     1
 90
        1
176
     1
 90
        1
176
     1
 40
1.0
176
     1
 90
        0
176
     1
 62
     7
176
     1
 40
1.0
176
     1
 90
        1
176
     1
 90
        6
176
     1
 90
        2
176
     1
 62
     7
176
     1
 90
        5
176
     1
 90
        0
176
     1
 90
        0
176
     1
290
     0
176
     1
 90
       13
176
     1
 40
0.0
176
     1
 90
        0
176
     1
290
     0
176
     1
290
     1
176
     1
290
     1
176
     1
290
     0
176
     1
290
     0
176
     1
290
     0
176
     1
290
     0
176
     1
290
     0
176
     1
290
     0
176
     1
 90
       50
176
     1
 40
0.0
176
     1
 40
1.0
176
     1
 90
        0
176
     1
 62
    18
420
        0
176
     1
 90
       50
176
     1
 90
        3
176
     1
 62
     5
420
      255
176
     1
290
     0
176
     1
 90
       50
176
     1
 90
       50
176
     1
 90
       50
176
     1
290
     0
176
     1
 90
       50
176
     1
 62
   256
176
     0
 40
1.0
176
     0
 90
        2
176
     1
  1
strokes_ogs.tif
176
     1
290
     0
176
     1
 40
1.0
176
     1
 40
1.0
176
     1
  0
VISUALSTYLE
  5
2E
102
{ACAD_REACTORS
330
2A
102
}
330
2A
100
AcDbVisualStyle
  2
GouraudWithEdges
 70
     3
177
     3
291
     1
 70
    58
 90
        2
176
     1
 90
        2
176
     1
 90
        1
176
     1
 90
        2
176
     1
 40
0.6
176
     1
 40
30.0
176
     1
 62
     7
176
     1
 90
        1
176
     1
 90
        0
176
     1
 62
     7
176
     1
 62
   257
176
     1
 90
        1
176
     1
 90
        1
176
     1
 40
1.0
176
     1
 90
        0
176
     1
 62
   257
176
     1
 40
1.0
176
     1
 90
        1
176
     1
 90
        6
176
     1
 90
        2
176
     1
 62
     7
176
     1
 90
        5
176
     1
 90
        0
176
     1
 90
        0
176
     1
290
     0
176
     1
 90
       13
176
     1
 40
0.0
176
     1
 90
        0
176
     1
290
     0
176
     1
290
     1
176
     1
290
     1
176
     1
290
     0
176
     1
290
     0
176
     1
290
     0
176
     1
290
     0
176
     1
290
     0
176
     1
290
     0
176
     1
 90
       50
176
     1
 40
0.0
176
     1
 40
1.0
176
     1
 90
        0
176
     1
 62
    18
420
        0
176
     1
 90
       50
176
     1
 90
        3
176
     1
 62
     5
420
      255
176
     1
290
     0
176
     1
 90
       50
176
     1
 90
       50
176
     1
 90
       50
176
     1
290
     0
176
     1
 90
       50
176
     1
 62
   256
176
     0
 40
1.0
176
     0
 90
        2
176
     1
  1
strokes_ogs.tif
176
     1
290
     0
176
     1
 40
1.0
176
     1
 40
1.0
176
     1
  0
VISUALSTYLE
  5
31
102
{ACAD_REACTORS
330
2A
102
}
330
2A
100
AcDbVisualStyle
  2
Hidden
 70
     6
177
     3
291
     0
 70
    58
 90
        1
176
     1
 90
        2
176
     1
 90
        2
176
     1
 90
        0
176
     1
 40
0.6
176
     1
 40
30.0
176
     1
 62
     7
176
     1
 90
        2
176
     1
 90
        2
176
     1
 62
     7
176
     1
 62
   257
176
     1
 90
        2
176
     1
 90
        1
176
     1
 40
40.0
176
     1
 90
        0
176
     1
 62
   257
176
     1
 40
1.0
176
     1
 90
        1
176
     1
 90
        6
176
     1
 90
        2
176
     1
 62
     7
176
     1
 90
        3
176
     1
 90
        0
176
     1
 90
        0
176
     1
290
     0
176
     1
 90
        1
176
     1
 40
0.0
176
     1
 90
        0
176
     1
290
     0
176
     1
290
     1
176
     1
290
     1
176
     1
290
     0
176
     1
290
     0
176
     1
290
     0
176
     1
290
     0
176
     1
290
     0
176
     1
290
     0
176
     1
 90
       50
176
     1
 40
0.0
176
     1
 40
1.0
176
     1
 90
        0
176
     1
 62
    18
420
        0
176
     1
 90
       50
176
     1
 90
        3
176
     1
 62
     5
420
      255
176
     1
290
     0
176
     1
 90
       50
176
     1
 90
       50
176
     1
 90
       50
176
     1
290
     0
176
     1
 90
       50
176
     1
 62
   256
176
     0
 40
1.0
176
     0
 90
        2
176
     1
  1
strokes_ogs.tif
176
     1
290
     0
176
     1
 40
1.0
176
     1
 40
1.0
176
     1
  0
VISUALSTYLE
  5
3B
102
{ACAD_REACTORS
330
2A
102
}
330
2A
100
AcDbVisualStyle
  2
JitterOff
 70
    20
177
     3
291
     1
 70
    58
 90
        2
176
     0
 90
        2
176
     0
 90
        0
176
     0
 90
        0
176
     0
 40
0.6
176
     0
 40
30.0
176
     0
 62
     7
176
     0
 90
        1
176
     0
 90
        4
176
     0
 62
     7
176
     0
 62
   257
176
     0
 90
        1
176
     0
 90
        1
176
     0
 40
1.0
176
     0
 90
       10
176
     2
 62
     7
176
     0
 40
1.0
176
     0
 90
        1
176
     0
 90
        6
176
     0
 90
        2
176
     0
 62
     7
176
     0
 90
        5
176
     0
 90
        0
176
     0
 90
        0
176
     0
290
     0
176
     0
 90
        1
176
     0
 40
0.0
176
     0
 90
        0
176
     0
290
     0
176
     0
290
     1
176
     0
290
     1
176
     0
290
     0
176
     0
290
     0
176
     0
290
     0
176
     0
290
     0
176
     0
290
     0
176
     0
290
     0
176
     0
 90
       50
176
     0
 40
0.0
176
     0
 40
1.0
176
     0
 90
        0
176
     0
 62
    18
420
        0
176
     0
 90
       50
176
     0
 90
        3
176
     0
 62
     5
420
      255
176
     0
290
     0
176
     0
 90
       50
176
     0
 90
       50
176
     0
 90
       50
176
     0
290
     0
176
     0
 90
       50
176
     0
 62
   256
176
     0
 40
1.0
176
     0
 90
        2
176
     0
  1
strokes_ogs.tif
176
     0
290
     0
176
     0
 40
1.0
176
     0
 40
1.0
176
     0
  0
VISUALSTYLE
  5
38
102
{ACAD_REACTORS
330
2A
102
}
330
2A
100
AcDbVisualStyle
  2
Linepattern
 70
    14
177
     3
291
     1
 70
    58
 90
        2
176
     1
 90
        2
176
     1
 90
        0
176
     1
 90
        0
176
     1
 40
0.6
176
     1
 40
30.0
176
     1
 62
     7
176
     1
 90
        1
176
     1
 90
        4
176
     1
 62
     7
176
     1
 62
   257
176
     1
 90
        7
176
     1
 90
        7
176
     1
 40
1.0
176
     1
 90
        8
176
     1
 62
     7
176
     1
 40
1.0
176
     1
 90
        1
176
     1
 90
        6
176
     1
 90
        2
176
     1
 62
     7
176
     1
 90
        5
176
     1
 90
        0
176
     1
 90
        0
176
     1
290
     0
176
     1
 90
        1
176
     1
 40
0.0
176
     1
 90
        0
176
     1
290
     0
176
     1
290
     1
176
     1
290
     1
176
     1
290
     0
176
     1
290
     0
176
     1
290
     0
176
     1
290
     0
176
     1
290
     0
176
     1
290
     0
176
     1
 90
       50
176
     1
 40
0.0
176
     1
 40
1.0
176
     1
 90
        0
176
     1
 62
    18
420
        0
176
     1
 90
       50
176
     1
 90
        3
176
     1
 62
     5
420
      255
176
     1
290
     0
176
     1
 90
       50
176
     1
 90
       50
176
     1
 90
       50
176
     1
290
     0
176
     1
 90
       50
176
     1
 62
   256
176
     0
 40
1.0
176
     0
 90
        2
176
     1
  1
strokes_ogs.tif
176
     1
290
     0
176
     1
 40
1.0
176
     1
 40
1.0
176
     1
  0
VISUALSTYLE
  5
3C
102
{ACAD_REACTORS
330
2A
102
}
330
2A
100
AcDbVisualStyle
  2
OverhangOff
 70
    21
177
     3
291
     1
 70
    58
 90
        2
176
     0
 90
        2
176
     0
 90
        0
176
     0
 90
        0
176
     0
 40
0.6
176
     0
 40
30.0
176
     0
 62
     7
176
     0
 90
        1
176
     0
 90
        4
176
     0
 62
     7
176
     0
 62
   257
176
     0
 90
        1
176
     0
 90
        1
176
     0
 40
1.0
176
     0
 90
        9
176
     2
 62
     7
176
     0
 40
1.0
176
     0
 90
        1
176
     0
 90
        6
176
     0
 90
        2
176
     0
 62
     7
176
     0
 90
        5
176
     0
 90
        0
176
     0
 90
        0
176
     0
290
     0
176
     0
 90
        1
176
     0
 40
0.0
176
     0
 90
        0
176
     0
290
     0
176
     0
290
     1
176
     0
290
     1
176
     0
290
     0
176
     0
290
     0
176
     0
290
     0
176
     0
290
     0
176
     0
290
     0
176
     0
290
     0
176
     0
 90
       50
176
     0
 40
0.0
176
     0
 40
1.0
176
     0
 90
        0
176
     0
 62
    18
420
        0
176
     0
 90
       50
176
     0
 90
        3
176
     0
 62
     5
420
      255
176
     0
290
     0
176
     0
 90
       50
176
     0
 90
       50
176
     0
 90
       50
176
     0
290
     0
176
     0
 90
       50
176
     0
 62
   256
176
     0
 40
1.0
176
     0
 90
        2
176
     0
  1
strokes_ogs.tif
176
     0
290
     0
176
     0
 40
1.0
176
     0
 40
1.0
176
     0
  0
VISUALSTYLE
  5
33
102
{ACAD_REACTORS
330
2A
102
}
330
2A
100
AcDbVisualStyle
  2
Realistic
 70
     8
177
     3
291
     0
 70
    58
 90
        2
176
     1
 90
        3
176
     1
 90
        0
176
     1
 90
        2
176
     1
 40
0.6
176
     1
 40
30.0
176
     1
 62
     7
176
     1
 90
        0
176
     1
 90
        0
176
     1
 62
     7
176
     1
 62
   257
176
     1
 90
        1
176
     1
 90
        1
176
     1
 40
1.0
176
     1
 90
        8
176
     1
 62
   257
176
     1
 40
1.0
176
     1
 90
        1
176
     1
 90
        6
176
     1
 90
        2
176
     1
 62
     7
176
     1
 90
        3
176
     1
 90
        0
176
     1
 90
        0
176
     1
290
     0
176
     1
 90
       13
176
     1
 40
0.0
176
     1
 90
        0
176
     1
290
     0
176
     1
290
     1
176
     1
290
     1
176
     1
290
     0
176
     1
290
     0
176
     1
290
     0
176
     1
290
     0
176
     1
290
     0
176
     1
290
     0
176
     1
 90
       50
176
     1
 40
0.0
176
     1
 40
1.0
176
     1
 90
        0
176
     1
 62
    18
420
        0
176
     1
 90
       50
176
     1
 90
        3
176
     1
 62
     5
420
      255
176
     1
290
     0
176
     1
 90
       50
176
     1
 90
       50
176
     1
 90
       50
176
     1
290
     0
176
     1
 90
       50
176
     1
 62
   256
176
     0
 40
1.0
176
     0
 90
        2
176
     1
  1
strokes_ogs.tif
176
     1
290
     0
176
     1
 40
1.0
176
     1
 40
1.0
176
     1
  0
VISUALSTYLE
  5
42
102
{ACAD_REACTORS
330
2A
102
}
330
2A
100
AcDbVisualStyle
  2
Shaded
 70
    27
177
     3
291
     0
 70
    58
 90
        2
176
     1
 90
        2
176
     1
 90
        1
176
     1
 90
        2
176
     1
 40
0.6
176
     1
 40
30.0
176
     1
 62
     7
176
     1
 90
        0
176
     1
 90
        4
176
     1
 62
     7
176
     1
 62
   257
176
     1
 90
        1
176
     1
 90
        1
176
     1
 40
1.0
176
     1
 90
        8
176
     1
 62
   257
176
     1
 40
1.0
176
     1
 90
        1
176
     1
 90
        6
176
     1
 90
        2
176
     1
 62
     8
176
     1
 90
        3
176
     1
 90
        0
176
     1
 90
        0
176
     1
290
     0
176
     1
 90
        5
176
     1
 40
0.0
176
     1
 90
        0
176
     1
290
     0
176
     1
290
     1
176
     1
290
     1
176
     1
290
     0
176
     1
290
     0
176
     1
290
     0
176
     1
290
     0
176
     1
290
     0
176
     1
290
     0
176
     1
 90
       50
176
     1
 40
0.0
176
     1
 40
1.0
176
     1
 90
        0
176
     1
 62
    18
420
        0
176
     1
 90
       50
176
     1
 90
        3
176
     1
 62
     5
420
      255
176
     1
290
     0
176
     1
 90
       50
176
     1
 90
       50
176
     1
 90
       50
176
     1
290
     0
176
     1
 90
       50
176
     1
 62
   256
176
     0
 40
1.0
176
     0
 90
        2
176
     1
  1
strokes_ogs.tif
176
     1
290
     0
176
     1
 40
1.0
176
     1
 40
1.0
176
     1
  0
VISUALSTYLE
  5
41
102
{ACAD_REACTORS
330
2A
102
}
330
2A
100
AcDbVisualStyle
  2
Shaded with edges
 70
    26
177
     3
291
     0
 70
    58
 90
        2
176
     1
 90
        2
176
     1
 90
        1
176
     1
 90
        2
176
     1
 40
0.6
176
     1
 40
30.0
176
     1
 62
     7
176
     1
 90
        1
176
     1
 90
        2
176
     1
 62
     7
176
     1
 62
   257
176
     1
 90
        2
176
     1
 90
        1
176
     1
 40
1.0
176
     1
 90
        8
176
     1
 62
   257
176
     1
 40
1.0
176
     1
 90
        1
176
     1
 90
        6
176
     1
 90
        2
176
     1
 62
     7
176
     1
 90
        3
176
     1
 90
        0
176
     1
 90
        0
176
     1
290
     0
176
     1
 90
        5
176
     1
 40
0.0
176
     1
 90
        0
176
     1
290
     0
176
     1
290
     1
176
     1
290
     1
176
     1
290
     0
176
     1
290
     0
176
     1
290
     0
176
     1
290
     0
176
     1
290
     0
176
     1
290
     0
176
     1
 90
       50
176
     1
 40
0.0
176
     1
 40
1.0
176
     1
 90
        0
176
     1
 62
    18
420
        0
176
     1
 90
       50
176
     1
 90
        3
176
     1
 62
     5
420
      255
176
     1
290
     0
176
     1
 90
       50
176
     1
 90
       50
176
     1
 90
       50
176
     1
290
     0
176
     1
 90
       50
176
     1
 62
   256
176
     0
 40
1.0
176
     0
 90
        2
176
     1
  1
strokes_ogs.tif
176
     1
290
     0
176
     1
 40
1.0
176
     1
 40
1.0
176
     1
  0
VISUALSTYLE
  5
3E
102
{ACAD_REACTORS
330
2A
102
}
330
2A
100
AcDbVisualStyle
  2
Shades of Gray
 70
    23
177
     3
291
     0
 70
    58
 90
        2
176
     1
 90
        2
176
     1
 90
        3
176
     1
 90
        0
176
     1
 40
0.6
176
     1
 40
30.0
176
     1
 62
     7
176
     1
 90
        2
176
     1
 90
        2
176
     1
 62
     7
176
     1
 62
     7
176
     1
 90
        1
176
     1
 90
        1
176
     1
 40
40.0
176
     1
 90
        8
176
     1
 62
     7
176
     1
 40
1.0
176
     1
 90
        1
176
     1
 90
        6
176
     1
 90
        2
176
     1
 62
     7
176
     1
 90
        3
176
     1
 90
        0
176
     1
 90
        0
176
     1
290
     0
176
     1
 90
        1
176
     1
 40
0.0
176
     1
 90
        0
176
     1
290
     0
176
     1
290
     1
176
     1
290
     1
176
     1
290
     0
176
     1
290
     0
176
     1
290
     0
176
     1
290
     0
176
     1
290
     0
176
     1
290
     0
176
     1
 90
       50
176
     1
 40
0.0
176
     1
 40
1.0
176
     1
 90
        0
176
     1
 62
    18
420
        0
176
     1
 90
       50
176
     1
 90
        3
176
     1
 62
     5
420
      255
176
     1
290
     0
176
     1
 90
       50
176
     1
 90
       50
176
     1
 90
       50
176
     1
290
     0
176
     1
 90
       50
176
     1
 62
   256
176
     0
 40
1.0
176
     0
 90
        2
176
     1
  1
strokes_ogs.tif
176
     1
290
     0
176
     1
 40
1.0
176
     1
 40
1.0
176
     1
  0
VISUALSTYLE
  5
3F
102
{ACAD_REACTORS
330
2A
102
}
330
2A
100
AcDbVisualStyle
  2
Sketchy
 70
    24
177
     3
291
     0
 70
    58
 90
        1
176
     1
 90
        2
176
     1
 90
        2
176
     1
 90
        0
176
     1
 40
0.6
176
     1
 40
30.0
176
     1
 62
     7
176
     1
 90
        2
176
     1
 90
        2
176
     1
 62
     7
176
     1
 62
     7
176
     1
 90
        1
176
     1
 90
        1
176
     1
 40
40.0
176
     1
 90
       11
176
     1
 62
     7
176
     1
 40
1.0
176
     1
 90
        1
176
     1
 90
        6
176
     1
 90
        2
176
     1
 62
     7
176
     1
 90
        6
176
     1
 90
        0
176
     1
 90
        0
176
     1
290
     0
176
     1
 90
        1
176
     1
 40
0.0
176
     1
 90
        0
176
     1
290
     0
176
     1
290
     1
176
     1
290
     1
176
     1
290
     0
176
     1
290
     0
176
     1
290
     0
176
     1
290
     0
176
     1
290
     0
176
     1
290
     0
176
     1
 90
       50
176
     1
 40
0.0
176
     1
 40
1.0
176
     1
 90
        0
176
     1
 62
    18
420
        0
176
     1
 90
       50
176
     1
 90
        3
176
     1
 62
     5
420
      255
176
     1
290
     0
176
     1
 90
       50
176
     1
 90
       50
176
     1
 90
       50
176
     1
290
     0
176
     1
 90
       50
176
     1
 62
   256
176
     0
 40
1.0
176
     0
 90
        2
176
     1
  1
strokes_ogs.tif
176
     1
290
     0
176
     1
 40
1.0
176
     1
 40
1.0
176
     1
  0
VISUALSTYLE
  5
37
102
{ACAD_REACTORS
330
2A
102
}
330
2A
100
AcDbVisualStyle
  2
Thicken
 70
    13
177
     3
291
     1
 70
    58
 90
        2
176
     1
 90
        2
176
     1
 90
        0
176
     1
 90
        0
176
     1
 40
0.6
176
     1
 40
30.0
176
     1
 62
     7
176
     1
 90
        1
176
     1
 90
        4
176
     1
 62
     7
176
     1
 62
   257
176
     1
 90
        1
176
     1
 90
        1
176
     1
 40
1.0
176
     1
 90
       12
176
     1
 62
     7
176
     1
 40
1.0
176
     1
 90
        1
176
     1
 90
        6
176
     1
 90
        2
176
     1
 62
     7
176
     1
 90
        5
176
     1
 90
        0
176
     1
 90
        0
176
     1
290
     0
176
     1
 90
        1
176
     1
 40
0.0
176
     1
 90
        0
176
     1
290
     0
176
     1
290
     1
176
     1
290
     1
176
     1
290
     0
176
     1
290
     0
176
     1
290
     0
176
     1
290
     0
176
     1
290
     0
176
     1
290
     0
176
     1
 90
       50
176
     1
 40
0.0
176
     1
 40
1.0
176
     1
 90
        0
176
     1
 62
    18
420
        0
176
     1
 90
       50
176
     1
 90
        3
176
     1
 62
     5
420
      255
176
     1
290
     0
176
     1
 90
       50
176
     1
 90
       50
176
     1
 90
       50
176
     1
290
     0
176
     1
 90
       50
176
     1
 62
   256
176
     0
 40
1.0
176
     0
 90
        2
176
     1
  1
strokes_ogs.tif
176
     1
290
     0
176
     1
 40
1.0
176
     1
 40
1.0
176
     1
  0
VISUALSTYLE
  5
30
102
{ACAD_REACTORS
330
2A
102
}
330
2A
100
AcDbVisualStyle
  2
Wireframe
 70
     5
177
     3
291
     0
 70
    58
 90
        0
176
     1
 90
        2
176
     1
 90
        0
176
     1
 90
        0
176
     1
 40
0.6
176
     1
 40
30.0
176
     1
 62
     7
176
     1
 90
        1
176
     1
 90
        4
176
     1
 62
     7
176
     1
 62
   257
176
     1
 90
        1
176
     1
 90
        1
176
     1
 40
1.0
176
     1
 90
        0
176
     1
 62
   257
176
     1
 40
1.0
176
     1
 90
        1
176
     1
 90
        6
176
     1
 90
        2
176
     1
 62
     7
176
     1
 90
        3
176
     1
 90
        0
176
     1
 90
        0
176
     1
290
     0
176
     1
 90
        1
176
     1
 40
0.0
176
     1
 90
        0
176
     1
290
     0
176
     1
290
     1
176
     1
290
     1
176
     1
290
     0
176
     1
290
     0
176
     1
290
     0
176
     1
290
     0
176
     1
290
     0
176
     1
290
     0
176
     1
 90
       50
176
     1
 40
0.0
176
     1
 40
1.0
176
     1
 90
        0
176
     1
 62
    18
420
        0
176
     1
 90
       50
176
     1
 90
        3
176
     1
 62
     5
420
      255
176
     1
290
     0
176
     1
 90
       50
176
     1
 90
       50
176
     1
 90
       50
176
     1
290
     0
176
     1
 90
       50
176
     1
 62
   256
176
     0
 40
1.0
176
     0
 90
        2
176
     1
  1
strokes_ogs.tif
176
     1
290
     0
176
     1
 40
1.0
176
     1
 40
1.0
176
     1
  0
VISUALSTYLE
  5
40
102
{ACAD_REACTORS
330
2A
102
}
330
2A
100
AcDbVisualStyle
  2
X-Ray
 70
    25
177
     3
291
     0
 70
    58
 90
        2
176
     1
 90
        2
176
     1
 90
        1
176
     1
 90
        1
176
     1
 40
0.5
176
     1
 40
30.0
176
     1
 62
     7
176
     1
 90
        1
176
     1
 90
        0
176
     1
 62
     7
176
     1
 62
   257
176
     1
 90
        1
176
     1
 90
        1
176
     1
 40
1.0
176
     1
 90
        8
176
     1
 62
     7
176
     1
 40
1.0
176
     1
 90
        1
176
     1
 90
        6
176
     1
 90
        2
176
     1
 62
     7
176
     1
 90
        3
176
     1
 90
        0
176
     1
 90
        0
176
     1
290
     0
176
     1
 90
       13
176
     1
 40
0.0
176
     1
 90
        0
176
     1
290
     0
176
     1
290
     1
176
     1
290
     1
176
     1
290
     0
176
     1
290
     0
176
     1
290
     0
176
     1
290
     0
176
     1
290
     0
176
     1
290
     0
176
     1
 90
       50
176
     1
 40
0.0
176
     1
 40
1.0
176
     1
 90
        0
176
     1
 62
    18
420
        0
176
     1
 90
       50
176
     1
 90
        3
176
     1
 62
     5
420
      255
176
     1
290
     0
176
     1
 90
       50
176
     1
 90
       50
176
     1
 90
       50
176
     1
290
     0
176
     1
 90
       50
176
     1
 62
   256
176
     0
 40
1.0
176
     0
 90
        2
176
     1
  1
strokes_ogs.tif
176
     1
290
     0
176
     1
 40
1.0
176
     1
 40
1.0
176
     1
  0
DICTIONARYVAR
  5
2C0
102
{ACAD_REACTORS
330
2AB
102
}
330
2AB
100
DictionaryVariables
280
     0
  1
1:1
  0
DICTIONARYVAR
  5
31C
102
{ACAD_REACTORS
330
2AB
102
}
330
2AB
100
DictionaryVariables
280
     0
  1
STANDARD
  0
DICTIONARYVAR
  5
31B
102
{ACAD_REACTORS
330
2AB
102
}
330
2AB
100
DictionaryVariables
280
     0
  1
STANDARD
  0
DICTIONARYVAR
  5
31D
102
{ACAD_REACTORS
330
2AB
102
}
330
2AB
100
DictionaryVariables
280
     0
  1
Metric50
  0
DICTIONARYVAR
  5
31E
102
{ACAD_REACTORS
330
2AB
102
}
330
2AB
100
DictionaryVariables
280
     0
  1
Metric50
  0
DICTIONARYVAR
  5
2B2
102
{ACAD_REACTORS
330
2AB
102
}
330
2AB
100
DictionaryVariables
280
     0
  1
2
  0
DICTIONARYVAR
  5
2B3
102
{ACAD_REACTORS
330
2AB
102
}
330
2AB
100
DictionaryVariables
280
     0
  1
1
  0
DICTIONARYVAR
  5
320
102
{ACAD_REACTORS
330
2AB
102
}
330
2AB
100
DictionaryVariables
280
     0
  1
1
  0
DICTIONARYVAR
  5
321
102
{ACAD_REACTORS
330
2AB
102
}
330
2AB
100
DictionaryVariables
280
     0
  1
15
  0
DICTIONARYVAR
  5
31F
102
{ACAD_REACTORS
330
2AB
102
}
330
2AB
100
DictionaryVariables
280
     0
  1
0
  0
DICTIONARYVAR
  5
2C1
102
{ACAD_REACTORS
330
2AB
102
}
330
2AB
100
DictionaryVariables
280
     0
  1
1
  0
DICTIONARY
  5
326
330
300
100
AcDbDictionary
280
     1
281
     1
  3
ACAD_XREC_ROUNDTRIP
360
327
  0
DICTIONARY
  5
324
330
2FE
100
AcDbDictionary
280
     1
281
     1
  3
ACAD_XREC_ROUNDTRIP
360
325
  0
DICTIONARY
  5
322
330
2FB
100
AcDbDictionary
280
     1
281
     1
  3
ACAD_ROUNDTRIP_2008_TABLESTYLE_CELLSTYLEMAP
360
323
  0
XRECORD
  5
327
102
{ACAD_REACTORS
330
326
102
}
330
326
100
AcDbXrecord
280
     1
102
DISPLAYNAME
  1
Metric50
102
FLAGS
 90
        0
  0
XRECORD
  5
325
102
{ACAD_REACTORS
330
324
102
}
330
324
100
AcDbXrecord
280
     1
102
DISPLAYNAME
  1
Metric50
102
FLAGS
 90
        0
  0
CELLSTYLEMAP
  5
323
102
{ACAD_REACTORS
330
322
102
}
330
322
100
AcDbCellStyleMap
 90
        3
300
CELLSTYLE
  1
TABLEFORMAT_BEGIN
 90
        5
170
     1
 91
        0
 92
    32768
 62
   257
 93
        1
300
CONTENTFORMAT
  1
CONTENTFORMAT_BEGIN
 90
        0
 91
        0
 92
      512
 93
        0
300

 40
0.0
140
1.0
 94
        5
 62
     0
340
11
144
6.0
309
CONTENTFORMAT_END
171
     1
301
MARGIN
  1
CELLMARGIN_BEGIN
 40
1.5
 40
1.5
 40
1.5
 40
1.5
 40
4.5
 40
4.5
309
CELLMARGIN_END
 94
        6
 95
        1
302
GRIDFORMAT
  1
GRIDFORMAT_BEGIN
 90
        0
 91
        1
 62
     0
 92
       -2
340
0
 93
        0
 40
1.125
309
GRIDFORMAT_END
 95
        2
302
GRIDFORMAT
  1
GRIDFORMAT_BEGIN
 90
        0
 91
        1
 62
     0
 92
       -2
340
0
 93
        0
 40
1.125
309
GRIDFORMAT_END
 95
        4
302
GRIDFORMAT
  1
GRIDFORMAT_BEGIN
 90
        0
 91
        1
 62
     0
 92
       -2
340
0
 93
        0
 40
1.125
309
GRIDFORMAT_END
 95
        8
302
GRIDFORMAT
  1
GRIDFORMAT_BEGIN
 90
        0
 91
        1
 62
     0
 92
       -2
340
0
 93
        0
 40
1.125
309
GRIDFORMAT_END
 95
       16
302
GRIDFORMAT
  1
GRIDFORMAT_BEGIN
 90
        0
 91
        1
 62
     0
 92
       -2
340
0
 93
        0
 40
1.125
309
GRIDFORMAT_END
 95
       32
302
GRIDFORMAT
  1
GRIDFORMAT_BEGIN
 90
        0
 91
        1
 62
     0
 92
       -2
340
0
 93
        0
 40
1.125
309
GRIDFORMAT_END
309
TABLEFORMAT_END
  1
CELLSTYLE_BEGIN
 90
        1
 91
        1
300
_TITLE
309
CELLSTYLE_END
300
CELLSTYLE
  1
TABLEFORMAT_BEGIN
 90
        5
170
     1
 91
        0
 92
        0
 62
   257
 93
        1
300
CONTENTFORMAT
  1
CONTENTFORMAT_BEGIN
 90
        0
 91
        0
 92
      512
 93
        0
300

 40
0.0
140
1.0
 94
        5
 62
     0
340
11
144
4.5
309
CONTENTFORMAT_END
171
     1
301
MARGIN
  1
CELLMARGIN_BEGIN
 40
1.5
 40
1.5
 40
1.5
 40
1.5
 40
4.5
 40
4.5
309
CELLMARGIN_END
 94
        6
 95
        1
302
GRIDFORMAT
  1
GRIDFORMAT_BEGIN
 90
        0
 91
        1
 62
     0
 92
       -2
340
0
 93
        0
 40
1.125
309
GRIDFORMAT_END
 95
        2
302
GRIDFORMAT
  1
GRIDFORMAT_BEGIN
 90
        0
 91
        1
 62
     0
 92
       -2
340
0
 93
        0
 40
1.125
309
GRIDFORMAT_END
 95
        4
302
GRIDFORMAT
  1
GRIDFORMAT_BEGIN
 90
        0
 91
        1
 62
     0
 92
       -2
340
0
 93
        0
 40
1.125
309
GRIDFORMAT_END
 95
        8
302
GRIDFORMAT
  1
GRIDFORMAT_BEGIN
 90
        0
 91
        1
 62
     0
 92
       -2
340
0
 93
        0
 40
1.125
309
GRIDFORMAT_END
 95
       16
302
GRIDFORMAT
  1
GRIDFORMAT_BEGIN
 90
        0
 91
        1
 62
     0
 92
       -2
340
0
 93
        0
 40
1.125
309
GRIDFORMAT_END
 95
       32
302
GRIDFORMAT
  1
GRIDFORMAT_BEGIN
 90
        0
 91
        1
 62
     0
 92
       -2
340
0
 93
        0
 40
1.125
309
GRIDFORMAT_END
309
TABLEFORMAT_END
  1
CELLSTYLE_BEGIN
 90
        2
 91
        1
300
_HEADER
309
CELLSTYLE_END
300
CELLSTYLE
  1
TABLEFORMAT_BEGIN
 90
        5
170
     1
 91
        0
 92
        0
 62
   257
 93
        1
300
CONTENTFORMAT
  1
CONTENTFORMAT_BEGIN
 90
        0
 91
        0
 92
      512
 93
        0
300

 40
0.0
140
1.0
 94
        2
 62
     0
340
11
144
4.5
309
CONTENTFORMAT_END
171
     1
301
MARGIN
  1
CELLMARGIN_BEGIN
 40
1.5
 40
1.5
 40
1.5
 40
1.5
 40
4.5
 40
4.5
309
CELLMARGIN_END
 94
        6
 95
        1
302
GRIDFORMAT
  1
GRIDFORMAT_BEGIN
 90
        0
 91
        1
 62
     0
 92
       -2
340
0
 93
        0
 40
1.125
309
GRIDFORMAT_END
 95
        2
302
GRIDFORMAT
  1
GRIDFORMAT_BEGIN
 90
        0
 91
        1
 62
     0
 92
       -2
340
0
 93
        0
 40
1.125
309
GRIDFORMAT_END
 95
        4
302
GRIDFORMAT
  1
GRIDFORMAT_BEGIN
 90
        0
 91
        1
 62
     0
 92
       -2
340
0
 93
        0
 40
1.125
309
GRIDFORMAT_END
 95
        8
302
GRIDFORMAT
  1
GRIDFORMAT_BEGIN
 90
        0
 91
        1
 62
     0
 92
       -2
340
0
 93
        0
 40
1.125
309
GRIDFORMAT_END
 95
       16
302
GRIDFORMAT
  1
GRIDFORMAT_BEGIN
 90
        0
 91
        1
 62
     0
 92
       -2
340
0
 93
        0
 40
1.125
309
GRIDFORMAT_END
 95
       32
302
GRIDFORMAT
  1
GRIDFORMAT_BEGIN
 90
        0
 91
        1
 62
     0
 92
       -2
340
0
 93
        0
 40
1.125
309
GRIDFORMAT_END
309
TABLEFORMAT_END
  1
CELLSTYLE_BEGIN
 90
        3
 91
        2
300
_DATA
309
CELLSTYLE_END
  0
ENDSEC
  0
EOF
