  0
SECTION
  2
HEADER
  9
$ACADVER
  1
AC1027
  9
$ACADMAINTVER
 70
   125
  9
$DWGCODEPAGE
  3
ANSI_1252
  9
$LASTSAVEDBY
  1
fleminab
  9
$REQUIREDVERSIONS
160
                 0
  9
$INSBASE
 10
0.0
 20
0.0
 30
0.0
  9
$EXTMIN
 10
0.2401517541850922
 20
0.9546116351237046
 30
-0.0000000349181948
  9
$EXTMAX
 10
16.39757934131974
 20
11.53688436398398
 30
0.0000000814935746
  9
$LIMMIN
 10
0.0
 20
0.0
  9
$LIMMAX
 10
12.0
 20
9.0
  9
$ORTHOMODE
 70
     0
  9
$REGENMODE
 70
     1
  9
$FILLMODE
 70
     1
  9
$QTEXTMODE
 70
     0
  9
$MIRRTEXT
 70
     0
  9
$LTSCALE
 40
1.0
  9
$ATTMODE
 70
     1
  9
$TEXTSIZE
 40
0.2
  9
$TRACEWID
 40
0.05
  9
$TEXTSTYLE
  7
Standard
  9
$CLAYER
  8
0
  9
$CELTYPE
  6
ByLayer
  9
$CECOLOR
 62
   256
  9
$CELTSCALE
 40
1.0
  9
$DISPSILH
 70
     0
  9
$DIMSCALE
 40
1.0
  9
$DIMASZ
 40
0.18
  9
$DIMEXO
 40
0.0625
  9
$DIMDLI
 40
0.38
  9
$DIMRND
 40
0.0
  9
$DIMDLE
 40
0.0
  9
$DIMEXE
 40
0.18
  9
$DIMTP
 40
0.0
  9
$DIMTM
 40
0.0
  9
$DIMTXT
 40
0.18
  9
$DIMCEN
 40
0.09
  9
$DIMTSZ
 40
0.0
  9
$DIMTOL
 70
     0
  9
$DIMLIM
 70
     0
  9
$DIMTIH
 70
     1
  9
$DIMTOH
 70
     1
  9
$DIMSE1
 70
     0
  9
$DIMSE2
 70
     0
  9
$DIMTAD
 70
     0
  9
$DIMZIN
 70
     0
  9
$DIMBLK
  1

  9
$DIMASO
 70
     1
  9
$DIMSHO
 70
     1
  9
$DIMPOST
  1

  9
$DIMAPOST
  1

  9
$DIMALT
 70
     0
  9
$DIMALTD
 70
     2
  9
$DIMALTF
 40
25.4
  9
$DIMLFAC
 40
1.0
  9
$DIMTOFL
 70
     0
  9
$DIMTVP
 40
0.0
  9
$DIMTIX
 70
     0
  9
$DIMSOXD
 70
     0
  9
$DIMSAH
 70
     0
  9
$DIMBLK1
  1

  9
$DIMBLK2
  1

  9
$DIMSTYLE
  2
Standard
  9
$DIMCLRD
 70
     0
  9
$DIMCLRE
 70
     0
  9
$DIMCLRT
 70
     0
  9
$DIMTFAC
 40
1.0
  9
$DIMGAP
 40
0.09
  9
$DIMJUST
 70
     0
  9
$DIMSD1
 70
     0
  9
$DIMSD2
 70
     0
  9
$DIMTOLJ
 70
     1
  9
$DIMTZIN
 70
     0
  9
$DIMALTZ
 70
     0
  9
$DIMALTTZ
 70
     0
  9
$DIMUPT
 70
     0
  9
$DIMDEC
 70
     4
  9
$DIMTDEC
 70
     4
  9
$DIMALTU
 70
     2
  9
$DIMALTTD
 70
     2
  9
$DIMTXSTY
  7
Standard
  9
$DIMAUNIT
 70
     0
  9
$DIMADEC
 70
     0
  9
$DIMALTRND
 40
0.0
  9
$DIMAZIN
 70
     0
  9
$DIMDSEP
 70
    46
  9
$DIMATFIT
 70
     3
  9
$DIMFRAC
 70
     0
  9
$DIMLDRBLK
  1

  9
$DIMLUNIT
 70
     2
  9
$DIMLWD
 70
    -2
  9
$DIMLWE
 70
    -2
  9
$DIMTMOVE
 70
     0
  9
$DIMFXL
 40
1.0
  9
$DIMFXLON
 70
     0
  9
$DIMJOGANG
 40
0.7853981633974483
  9
$DIMTFILL
 70
     0
  9
$DIMTFILLCLR
 70
     0
  9
$DIMARCSYM
 70
     0
  9
$DIMLTYPE
  6

  9
$DIMLTEX1
  6

  9
$DIMLTEX2
  6

  9
$DIMTXTDIRECTION
 70
     0
  9
$LUNITS
 70
     2
  9
$LUPREC
 70
     4
  9
$SKETCHINC
 40
0.1
  9
$FILLETRAD
 40
0.0
  9
$AUNITS
 70
     0
  9
$AUPREC
 70
     0
  9
$MENU
  1
.
  9
$ELEVATION
 40
0.0
  9
$PELEVATION
 40
0.0
  9
$THICKNESS
 40
0.0
  9
$LIMCHECK
 70
     0
  9
$CHAMFERA
 40
0.0
  9
$CHAMFERB
 40
0.0
  9
$CHAMFERC
 40
0.0
  9
$CHAMFERD
 40
0.0
  9
$SKPOLY
 70
     0
  9
$TDCREATE
 40
2458248.467141204
  9
$TDUCREATE
 40
2458248.050474537
  9
$TDUPDATE
 40
2458248.473043981
  9
$TDUUPDATE
 40
2458248.056377315
  9
$TDINDWG
 40
0.0059027778
  9
$TDUSRTIMER
 40
0.0059027778
  9
$USRTIMER
 70
     1
  9
$ANGBASE
 50
0.0
  9
$ANGDIR
 70
     0
  9
$PDMODE
 70
     0
  9
$PDSIZE
 40
0.0
  9
$PLINEWID
 40
0.0
  9
$SPLFRAME
 70
     0
  9
$SPLINETYPE
 70
     6
  9
$SPLINESEGS
 70
     8
  9
$HANDSEED
  5
1FD
  9
$SURFTAB1
 70
     6
  9
$SURFTAB2
 70
     6
  9
$SURFTYPE
 70
     6
  9
$SURFU
 70
     6
  9
$SURFV
 70
     6
  9
$UCSBASE
  2

  9
$UCSNAME
  2

  9
$UCSORG
 10
0.0
 20
0.0
 30
0.0
  9
$UCSXDIR
 10
1.0
 20
0.0
 30
0.0
  9
$UCSYDIR
 10
0.0
 20
1.0
 30
0.0
  9
$UCSORTHOREF
  2

  9
$UCSORTHOVIEW
 70
     0
  9
$UCSORGTOP
 10
0.0
 20
0.0
 30
0.0
  9
$UCSORGBOTTOM
 10
0.0
 20
0.0
 30
0.0
  9
$UCSORGLEFT
 10
0.0
 20
0.0
 30
0.0
  9
$UCSORGRIGHT
 10
0.0
 20
0.0
 30
0.0
  9
$UCSORGFRONT
 10
0.0
 20
0.0
 30
0.0
  9
$UCSORGBACK
 10
0.0
 20
0.0
 30
0.0
  9
$PUCSBASE
  2

  9
$PUCSNAME
  2

  9
$PUCSORG
 10
0.0
 20
0.0
 30
0.0
  9
$PUCSXDIR
 10
1.0
 20
0.0
 30
0.0
  9
$PUCSYDIR
 10
0.0
 20
1.0
 30
0.0
  9
$PUCSORTHOREF
  2

  9
$PUCSORTHOVIEW
 70
     0
  9
$PUCSORGTOP
 10
0.0
 20
0.0
 30
0.0
  9
$PUCSORGBOTTOM
 10
0.0
 20
0.0
 30
0.0
  9
$PUCSORGLEFT
 10
0.0
 20
0.0
 30
0.0
  9
$PUCSORGRIGHT
 10
0.0
 20
0.0
 30
0.0
  9
$PUCSORGFRONT
 10
0.0
 20
0.0
 30
0.0
  9
$PUCSORGBACK
 10
0.0
 20
0.0
 30
0.0
  9
$USERI1
 70
     0
  9
$USERI2
 70
     0
  9
$USERI3
 70
     0
  9
$USERI4
 70
     0
  9
$USERI5
 70
     0
  9
$USERR1
 40
0.0
  9
$USERR2
 40
0.0
  9
$USERR3
 40
0.0
  9
$USERR4
 40
0.0
  9
$USERR5
 40
0.0
  9
$WORLDVIEW
 70
     1
  9
$SHADEDGE
 70
     3
  9
$SHADEDIF
 70
    70
  9
$TILEMODE
 70
     1
  9
$MAXACTVP
 70
    64
  9
$PINSBASE
 10
0.0
 20
0.0
 30
0.0
  9
$PLIMCHECK
 70
     0
  9
$PEXTMIN
 10
1.000000000000000E+20
 20
1.000000000000000E+20
 30
1.000000000000000E+20
  9
$PEXTMAX
 10
-1.000000000000000E+20
 20
-1.000000000000000E+20
 30
-1.000000000000000E+20
  9
$PLIMMIN
 10
-0.7524054877282309
 20
-0.5025428238148726
  9
$PLIMMAX
 10
35.24759547345533
 20
23.49745621500156
  9
$UNITMODE
 70
     0
  9
$VISRETAIN
 70
     1
  9
$PLINEGEN
 70
     0
  9
$PSLTSCALE
 70
     1
  9
$TREEDEPTH
 70
  3020
  9
$CMLSTYLE
  2
Standard
  9
$CMLJUST
 70
     0
  9
$CMLSCALE
 40
1.0
  9
$PROXYGRAPHICS
 70
     1
  9
$MEASUREMENT
 70
     0
  9
$CELWEIGHT
370
    -1
  9
$ENDCAPS
280
     0
  9
$JOINSTYLE
280
     0
  9
$LWDISPLAY
290
     0
  9
$INSUNITS
 70
     1
  9
$HYPERLINKBASE
  1

  9
$STYLESHEET
  1

  9
$XEDIT
290
     1
  9
$CEPSNTYPE
380
     0
  9
$PSTYLEMODE
290
     1
  9
$FINGERPRINTGUID
  2
{1DC58051-58F7-E34E-A87E-EF02617642C8}
  9
$VERSIONGUID
  2
{F276E676-9614-384F-AA7E-AC950D7D4F08}
  9
$EXTNAMES
290
     1
  9
$PSVPSCALE
 40
0.0
  9
$OLESTARTUP
290
     0
  9
$SORTENTS
280
   127
  9
$INDEXCTL
280
     0
  9
$HIDETEXT
280
     0
  9
$XCLIPFRAME
280
     0
  9
$HALOGAP
280
     0
  9
$OBSCOLOR
 70
   257
  9
$OBSLTYPE
280
     0
  9
$INTERSECTIONDISPLAY
280
     0
  9
$INTERSECTIONCOLOR
 70
   257
  9
$DIMASSOC
280
     1
  9
$PROJECTNAME
  1

  9
$CAMERADISPLAY
290
     0
  9
$LENSLENGTH
 40
50.0
  9
$CAMERAHEIGHT
 40
0.0
  9
$STEPSPERSEC
 40
2.0
  9
$STEPSIZE
 40
6.0
  9
$3DDWFPREC
 40
2.0
  9
$PSOLWIDTH
 40
0.25
  9
$PSOLHEIGHT
 40
4.0
  9
$LOFTANG1
 40
1.570796326794896
  9
$LOFTANG2
 40
1.570796326794896
  9
$LOFTMAG1
 40
0.0
  9
$LOFTMAG2
 40
0.0
  9
$LOFTPARAM
 70
     7
  9
$LOFTNORMALS
280
     1
  9
$LATITUDE
 40
37.795
  9
$LONGITUDE
 40
-122.394
  9
$NORTHDIRECTION
 40
0.0
  9
$TIMEZONE
 70
 -8000
  9
$LIGHTGLYPHDISPLAY
280
     1
  9
$TILEMODELIGHTSYNCH
280
     1
  9
$CMATERIAL
347
7F
  9
$SOLIDHIST
280
     1
  9
$SHOWHIST
280
     1
  9
$DWFFRAME
280
     2
  9
$DGNFRAME
280
     0
  9
$REALWORLDSCALE
290
     1
  9
$INTERFERECOLOR
 62
     1
  9
$INTERFEREOBJVS
345
8C
  9
$INTERFEREVPVS
346
A5
  9
$CSHADOW
280
     0
  9
$SHADOWPLANELOCATION
 40
0.0
  0
ENDSEC
  0
SECTION
  2
CLASSES
  0
CLASS
  1
ACDBDICTIONARYWDFLT
  2
AcDbDictionaryWithDefault
  3
ObjectDBX Classes
 90
        0
 91
        1
280
     0
281
     0
  0
CLASS
  1
PLOTSETTINGS
  2
AcDbPlotSettings
  3
ObjectDBX Classes
 90
        0
 91
        0
280
     0
281
     0
  0
CLASS
  1
MATERIAL
  2
AcDbMaterial
  3
ObjectDBX Classes
 90
     1153
 91
        3
280
     0
281
     0
  0
CLASS
  1
VISUALSTYLE
  2
AcDbVisualStyle
  3
ObjectDBX Classes
 90
     4095
 91
       26
280
     0
281
     0
  0
CLASS
  1
TABLESTYLE
  2
AcDbTableStyle
  3
ObjectDBX Classes
 90
     4095
 91
        1
280
     0
281
     0
  0
CLASS
  1
DICTIONARYVAR
  2
AcDbDictionaryVar
  3
ObjectDBX Classes
 90
        0
 91
       17
280
     0
281
     0
  0
CLASS
  1
SCALE
  2
AcDbScale
  3
ObjectDBX Classes
 90
     1153
 91
       17
280
     0
281
     0
  0
CLASS
  1
MLEADERSTYLE
  2
AcDbMLeaderStyle
  3
ACDB_MLEADERSTYLE_CLASS
 90
     4095
 91
        1
280
     0
281
     0
  0
CLASS
  1
ACDBSECTIONVIEWSTYLE
  2
AcDbSectionViewStyle
  3
ObjectDBX Classes
 90
     1025
 91
        1
280
     0
281
     0
  0
CLASS
  1
ACDBDETAILVIEWSTYLE
  2
AcDbDetailViewStyle
  3
ObjectDBX Classes
 90
     1025
 91
        1
280
     0
281
     0
  0
CLASS
  1
CELLSTYLEMAP
  2
AcDbCellStyleMap
  3
ObjectDBX Classes
 90
     1152
 91
        1
280
     0
281
     0
  0
ENDSEC
  0
SECTION
  2
TABLES
  0
TABLE
  2
VPORT
  5
19
330
0
100
AcDbSymbolTable
 70
     1
1001
ACAD
1000
DbSaveVer
1071
        5
  0
VPORT
  5
7D
330
19
100
AcDbSymbolTableRecord
100
AcDbViewportTableRecord
  2
*Active
 70
     0
 10
0.0
 20
0.0
 11
1.0
 21
1.0
 12
8.318865547752416
 22
6.245747999553842
 13
0.0
 23
0.0
 14
0.5
 24
0.5
 15
0.5
 25
0.5
 16
0.0
 26
0.0
 36
1.0
 17
0.0
 27
0.0
 37
0.0
 40
10.65804079135808
 41
2.292712066905615
 42
50.0
 43
0.0
 44
0.0
 50
0.0
 51
0.0
 71
     0
 72
  1000
 73
     1
 74
     3
 75
     0
 76
     0
 77
     0
 78
     0
281
     0
 65
     1
110
0.0
120
0.0
130
0.0
111
1.0
121
0.0
131
0.0
112
0.0
122
1.0
132
0.0
 79
     0
146
0.0
348
88
 60
     3
 61
     5
292
     1
282
     1
141
0.0
142
0.0
 63
   250
421
  3355443
1001
ACAD_NAV_VCDISPLAY
1070
     3
  0
ENDTAB
  0
TABLE
  2
LTYPE
  5
14
330
0
100
AcDbSymbolTable
 70
     1
  0
LTYPE
  5
15
330
14
100
AcDbSymbolTableRecord
100
AcDbLinetypeTableRecord
  2
ByBlock
 70
     0
  3

 72
    65
 73
     0
 40
0.0
  0
LTYPE
  5
16
330
14
100
AcDbSymbolTableRecord
100
AcDbLinetypeTableRecord
  2
ByLayer
 70
     0
  3

 72
    65
 73
     0
 40
0.0
  0
LTYPE
  5
8
330
14
100
AcDbSymbolTableRecord
100
AcDbLinetypeTableRecord
  2
Continuous
 70
     0
  3
Solid line
 72
    65
 73
     0
 40
0.0
  0
ENDTAB
  0
TABLE
  2
LAYER
  5
10
330
0
100
AcDbSymbolTable
 70
     4
  0
LAYER
  5
4
102
{ACAD_XDICTIONARY
360
1D8
102
}
330
10
100
AcDbSymbolTableRecord
100
AcDbLayerTableRecord
  2
0
 70
     0
 62
     7
  6
Continuous
370
    -3
390
5
347
81
348
0
  0
LAYER
  5
25
102
{ACAD_XDICTIONARY
360
1DA
102
}
330
10
100
AcDbSymbolTableRecord
100
AcDbLayerTableRecord
  2
Title Block
 70
     0
 62
     7
  6
Continuous
370
    -3
390
5
347
81
348
0
  0
LAYER
  5
CE
102
{ACAD_XDICTIONARY
360
1DC
102
}
330
10
100
AcDbSymbolTableRecord
100
AcDbLayerTableRecord
  2
PDF_Layer 1
 70
     0
 62
    28
420
  1052429
  6
Continuous
370
    -3
390
5
347
81
348
0
  0
LAYER
  5
E3
102
{ACAD_XDICTIONARY
360
1DE
102
}
330
10
100
AcDbSymbolTableRecord
100
AcDbLayerTableRecord
  2
PDF_Text
 70
     0
 62
   250
420
  2301728
  6
Continuous
370
    -3
390
5
347
81
348
0
  0
ENDTAB
  0
TABLE
  2
STYLE
  5
11
330
0
100
AcDbSymbolTable
 70
     3
  0
STYLE
  5
12
330
11
100
AcDbSymbolTableRecord
100
AcDbTextStyleTableRecord
  2
Standard
 70
     0
 40
0.0
 41
1.0
 50
0.0
 71
     0
 42
0.2
  3
txt
  4

  0
STYLE
  5
27
330
11
100
AcDbSymbolTableRecord
100
AcDbTextStyleTableRecord
  2
Roman
 70
     0
 40
0.0
 41
1.0
 50
0.0
 71
     0
 42
0.2
  3
ROMANS.SHX
  4

  0
STYLE
  5
E2
330
11
100
AcDbSymbolTableRecord
100
AcDbTextStyleTableRecord
  2
PDF Arial
 70
     0
 40
0.0
 41
1.0
 50
0.0
 71
     0
 42
0.2
  3
arial.ttf
  4

1001
ACAD
1000
Arial
1071
       34
  0
ENDTAB
  0
TABLE
  2
VIEW
  5
17
330
0
100
AcDbSymbolTable
 70
     0
  0
ENDTAB
  0
TABLE
  2
UCS
  5
18
330
0
100
AcDbSymbolTable
 70
     0
  0
ENDTAB
  0
TABLE
  2
APPID
  5
1B
330
0
100
AcDbSymbolTable
 70
     2
  0
APPID
  5
1C
330
1B
100
AcDbSymbolTableRecord
100
AcDbRegAppTableRecord
  2
ACAD
 70
     0
  0
APPID
  5
1E0
330
1B
100
AcDbSymbolTableRecord
100
AcDbRegAppTableRecord
  2
ACAD_NAV_VCDISPLAY
 70
     0
  0
ENDTAB
  0
TABLE
  2
DIMSTYLE
  5
1D
330
0
100
AcDbSymbolTable
 70
     1
100
AcDbDimStyleTable
 71
     0
  0
DIMSTYLE
105
23
330
1D
100
AcDbSymbolTableRecord
100
AcDbDimStyleTableRecord
  2
Standard
 70
     0
340
12
  0
ENDTAB
  0
TABLE
  2
BLOCK_RECORD
  5
1
330
0
100
AcDbSymbolTable
 70
     0
  0
BLOCK_RECORD
  5
2
330
1
100
AcDbSymbolTableRecord
100
AcDbBlockTableRecord
  2
*Model_Space
340
A
 70
     0
280
     1
281
     0
  0
BLOCK_RECORD
  5
C
330
1
100
AcDbSymbolTableRecord
100
AcDbBlockTableRecord
  2
*Paper_Space
340
F
 70
     0
280
     1
281
     0
  0
ENDTAB
  0
ENDSEC
  0
SECTION
  2
BLOCKS
  0
BLOCK
  5
3
330
2
100
AcDbEntity
  8
0
100
AcDbBlockBegin
  2
*Model_Space
 70
     2
 10
0.0
 20
0.0
 30
0.0
  3
*Model_Space
  1

  0
ENDBLK
  5
9
330
2
100
AcDbEntity
  8
0
100
AcDbBlockEnd
  0
BLOCK
  5
D
330
C
100
AcDbEntity
 67
     1
  8
0
100
AcDbBlockBegin
  2
*Paper_Space
 70
     0
 10
0.0
 20
0.0
 30
0.0
  3
*Paper_Space
  1

  0
ENDBLK
  5
E
330
C
100
AcDbEntity
 67
     1
  8
0
100
AcDbBlockEnd
  0
ENDSEC
  0
SECTION
  2
ENTITIES
  0
SOLID
  5
CF
330
2
100
AcDbEntity
  8
PDF_Layer 1
 62
     7
420
 16777215
440
 33554559
370
    25
100
AcDbTrace
 10
0.7396444444444443
 20
8.432481944444445
 30
0.0
 11
0.7773388888888889
 21
8.4507875
 31
0.0
 12
0.773575
 22
8.525745833333333
 32
0.0
 13
0.8166999999999998
 23
8.436356944444446
 33
0.0
  0
SOLID
  5
D0
330
2
100
AcDbEntity
  8
PDF_Layer 1
 62
     7
420
 16777215
440
 33554559
370
    25
100
AcDbTrace
 10
2.720295833333333
 20
7.360974999999998
 30
0.0
 11
2.703906944444444
 21
7.399544444444443
 31
0.0
 12
2.628851388888889
 22
7.399544444444443
 32
0.0
 13
2.720295833333333
 23
7.438127777777777
 33
0.0
  0
SOLID
  5
D1
330
2
100
AcDbEntity
  8
PDF_Layer 1
 62
     7
420
 16777215
440
 33554559
370
    25
100
AcDbTrace
 10
6.666809722222221
 20
7.360974999999998
 30
0.0
 11
6.68319861111111
 21
7.399544444444443
 31
0.0
 12
6.758240277777776
 22
7.399544444444443
 32
0.0
 13
6.666809722222221
 23
7.438127777777777
 33
0.0
  0
SOLID
  5
D2
330
2
100
AcDbEntity
  8
PDF_Layer 1
 62
     7
420
 16777215
440
 33554559
370
    25
100
AcDbTrace
 10
5.352343055555555
 20
5.235649999999999
 30
0.0
 11
5.390912499999999
 21
5.252052777777777
 31
0.0
 12
5.390912499999999
 22
5.327094444444444
 32
0.0
 13
5.429495833333333
 23
5.235649999999999
 33
0.0
  0
SOLID
  5
D3
330
2
100
AcDbEntity
  8
PDF_Layer 1
 62
     7
420
 16777215
440
 33554559
370
    25
100
AcDbTrace
 10
5.352343055555555
 20
2.629408333333333
 30
0.0
 11
5.390912499999999
 21
2.613019444444444
 31
0.0
 12
5.390912499999999
 22
2.537963888888889
 32
0.0
 13
5.429495833333333
 23
2.629408333333333
 33
0.0
  0
SOLID
  5
D4
330
2
100
AcDbEntity
  8
PDF_Layer 1
 62
     7
420
 16777215
440
 33554559
370
    25
100
AcDbTrace
 10
12.48347916666666
 20
7.019958333333332
 30
0.0
 11
12.49988194444444
 21
7.058527777777777
 31
0.0
 12
12.57492361111111
 22
7.058527777777777
 32
0.0
 13
12.48347916666666
 23
7.09711111111111
 33
0.0
  0
SOLID
  5
D5
330
2
100
AcDbEntity
  8
PDF_Layer 1
 62
     7
420
 16777215
440
 33554559
370
    25
100
AcDbTrace
 10
13.39340555555555
 20
7.019958333333332
 30
0.0
 11
13.37700277777777
 21
7.058527777777777
 31
0.0
 12
13.30196111111111
 22
7.058527777777777
 32
0.0
 13
13.39340555555555
 23
7.09711111111111
 33
0.0
  0
SOLID
  5
D6
330
2
100
AcDbEntity
  8
PDF_Layer 1
 62
     7
420
 16777215
440
 33554559
370
    25
100
AcDbTrace
 10
16.31207916666667
 20
6.185018055555554
 30
0.0
 11
16.35064861111111
 21
6.201406944444443
 31
0.0
 12
16.35064861111111
 22
6.276448611111109
 32
0.0
 13
16.38923194444444
 23
6.185018055555554
 33
0.0
  0
SOLID
  5
D7
330
2
100
AcDbEntity
  8
PDF_Layer 1
 62
     7
420
 16777215
440
 33554559
370
    25
100
AcDbTrace
 10
16.31207916666667
 20
3.870401388888888
 30
0.0
 11
16.35064861111111
 21
3.854012499999999
 31
0.0
 12
16.35064861111111
 22
3.778956944444444
 32
0.0
 13
16.38923194444444
 23
3.870401388888888
 33
0.0
  0
SOLID
  5
D8
330
2
100
AcDbEntity
  8
PDF_Layer 1
 62
     7
420
 16777215
440
 33554559
370
    25
100
AcDbTrace
 10
6.036837499999999
 20
1.757906944444444
 30
0.0
 11
6.020448611111111
 21
1.796476388888888
 31
0.0
 12
5.945406944444444
 22
1.796476388888888
 32
0.0
 13
6.036837499999999
 23
1.835059722222222
 33
0.0
  0
SOLID
  5
D9
330
2
100
AcDbEntity
  8
PDF_Layer 1
 62
     7
420
 16777215
440
 33554559
370
    25
100
AcDbTrace
 10
7.479655555555553
 20
1.757906944444444
 30
0.0
 11
7.496044444444442
 21
1.796476388888888
 31
0.0
 12
7.571099999999997
 22
1.796476388888888
 32
0.0
 13
7.479655555555553
 23
1.835059722222222
 33
0.0
  0
SOLID
  5
DA
330
2
100
AcDbEntity
  8
PDF_Layer 1
 62
     7
420
 16777215
440
 33554559
370
    25
100
AcDbTrace
 10
5.915845833333333
 20
1.093966666666666
 30
0.0
 11
5.899456944444444
 21
1.132536111111111
 31
0.0
 12
5.824401388888889
 22
1.132536111111111
 32
0.0
 13
5.915845833333333
 23
1.171119444444444
 33
0.0
  0
SOLID
  5
DB
330
2
100
AcDbEntity
  8
PDF_Layer 1
 62
     7
420
 16777215
440
 33554559
370
    25
100
AcDbTrace
 10
7.600654166666664
 20
1.093966666666666
 30
0.0
 11
7.617043055555553
 21
1.132536111111111
 31
0.0
 12
7.69208472222222
 22
1.132536111111111
 32
0.0
 13
7.600654166666664
 23
1.171119444444444
 33
0.0
  0
SOLID
  5
DC
330
2
100
AcDbEntity
  8
PDF_Layer 1
 62
     7
420
 16777215
440
 33554559
370
    25
100
AcDbTrace
 10
1.088656944444444
 20
8.434305555555557
 30
0.0
 11
1.127226388888888
 21
8.450694444444446
 31
0.0
 12
1.127226388888888
 22
8.525750000000002
 32
0.0
 13
1.165809722222222
 23
8.434305555555557
 33
0.0
  0
SOLID
  5
DD
330
2
100
AcDbEntity
  8
PDF_Layer 1
 62
     7
420
 16777215
440
 33554559
370
    25
100
AcDbTrace
 10
1.088656944444444
 20
2.629408333333333
 30
0.0
 11
1.127226388888888
 21
2.613019444444444
 31
0.0
 12
1.127226388888888
 22
2.537963888888889
 32
0.0
 13
1.165809722222222
 23
2.629408333333333
 33
0.0
  0
SOLID
  5
DE
330
2
100
AcDbEntity
  8
PDF_Layer 1
 62
     7
420
 16777215
440
 33554559
370
    25
100
AcDbTrace
 10
8.651651388888888
 20
11.4437125
 30
0.0
 11
8.690220833333333
 21
11.46010138888889
 31
0.0
 12
8.690220833333333
 22
11.53514305555555
 32
0.0
 13
8.728804166666666
 23
11.4437125
 33
0.0
  0
SOLID
  5
DF
330
2
100
AcDbEntity
  8
PDF_Layer 1
 62
     7
420
 16777215
440
 33554559
370
    25
100
AcDbTrace
 10
8.651651388888888
 20
2.629408333333333
 30
0.0
 11
8.690220833333333
 21
2.613019444444444
 31
0.0
 12
8.690220833333333
 22
2.537963888888889
 32
0.0
 13
8.728804166666666
 23
2.629408333333333
 33
0.0
  0
SOLID
  5
E0
330
2
100
AcDbEntity
  8
PDF_Layer 1
 62
     7
420
 16777215
440
 33554559
370
    25
100
AcDbTrace
 10
0.8254055555555554
 20
9.104980555555554
 30
0.0
 11
0.8583499999999999
 21
9.079077777777776
 31
0.0
 12
0.8387249999999999
 22
9.006633333333333
 32
0.0
 13
0.8998638888888887
 23
9.084799999999999
 33
0.0
  0
LWPOLYLINE
  5
E5
330
2
100
AcDbEntity
  8
PDF_Layer 1
 62
     7
420
 16777215
370
    25
100
AcDbPolyline
 90
        9
 70
     0
 43
0.0
 10
0.7766722222222223
 20
8.46369722222222
 10
0.7797833333333334
 20
8.404752777777776
 10
0.7828805555555557
 20
8.34269722222222
 10
0.7921861111111112
 20
8.280655555555554
 10
0.8014916666666666
 20
8.218599999999998
 10
0.810811111111111
 20
8.159655555555554
 10
0.8263111111111111
 20
8.097599999999998
 10
0.8387277777777777
 20
8.038655555555553
 10
0.8573388888888889
 20
7.979711111111109
  0
LWPOLYLINE
  5
E6
330
2
100
AcDbEntity
  8
PDF_Layer 1
 62
     7
420
 16777215
370
    25
100
AcDbPolyline
 90
        2
 70
     0
 43
0.0
 10
13.87363055555555
 20
3.781738888888888
 10
16.39583888888888
 20
3.77896111111111
  0
LWPOLYLINE
  5
E7
330
2
100
AcDbEntity
  8
PDF_Layer 1
 62
     7
420
 16777215
370
    25
100
AcDbPolyline
 90
        4
 70
     0
 43
0.0
 10
6.760525
 20
5.15367361111111
 10
6.760525
 20
9.250840277777776
 42
0.8769749548427409
 10
2.956902777777778
 20
9.751593055555556
 10
2.847638888888889
 20
9.343829166666667
  0
LWPOLYLINE
  5
E9
330
2
100
AcDbEntity
  8
PDF_Layer 1
 62
     7
420
 16777215
370
    25
100
AcDbPolyline
 90
        2
 70
     0
 43
0.0
 10
2.691040277777777
 20
7.399549999999997
 10
6.696068055555555
 20
7.399549999999997
  0
LWPOLYLINE
  5
EA
330
2
100
AcDbEntity
  8
PDF_Layer 1
 62
     7
420
 16777215
370
    25
100
AcDbPolyline
 90
        2
 70
     0
 43
0.0
 10
4.740926388888888
 20
11.53515
 10
8.750037499999999
 20
11.53515
  0
LWPOLYLINE
  5
EB
330
2
100
AcDbEntity
  8
PDF_Layer 1
 62
     7
420
 16777215
370
    25
100
AcDbPolyline
 90
        2
 70
     0
 43
0.0
 10
5.390916666666666
 20
5.264905555555555
 10
5.390916666666666
 20
2.600155555555554
  0
LWPOLYLINE
  5
EC
330
2
100
AcDbEntity
  8
PDF_Layer 1
 62
     7
420
 16777215
370
    25
100
AcDbPolyline
 90
        2
 70
     0
 43
0.0
 10
7.692091666666664
 20
1.132541666666666
 10
8.750036111111109
 20
1.132541666666666
  0
LWPOLYLINE
  5
F4
330
2
100
AcDbEntity
  8
PDF_Layer 1
 62
     7
420
 16777215
370
    70
100
AcDbPolyline
 90
      195
 70
     0
 43
0.0
 10
13.8332
 20
2.671373611111111
 10
13.83008888888889
 20
2.671373611111111
 10
13.82699166666667
 20
2.674484722222222
 10
13.82388055555555
 20
2.674484722222222
 10
13.82388055555555
 20
2.677581944444444
 10
13.82078333333333
 20
2.677581944444444
 10
13.81768611111111
 20
2.680679166666666
 10
13.81768611111111
 20
2.683776388888888
 10
13.81768611111111
 20
2.686887499999999
 10
13.814575
 20
2.699304166666666
 10
13.81147777777778
 20
2.711706944444444
 10
13.80838055555555
 20
2.724123611111111
 10
13.80526944444444
 20
2.736526388888888
 10
13.80215833333333
 20
2.748943055555555
 10
13.79596388888889
 20
2.761345833333332
 10
13.78975555555556
 20
2.770651388888888
 10
13.78045
 20
2.779956944444444
 10
13.78045
 20
2.783068055555555
 10
13.77733888888889
 20
2.783068055555555
 10
13.77733888888889
 20
2.786179166666666
 10
13.77425555555555
 20
2.786179166666666
 10
13.77114444444444
 20
2.786179166666666
 10
13.76803333333333
 20
2.789262499999999
 10
13.75874166666666
 20
2.789262499999999
 10
13.746325
 20
2.789262499999999
 10
13.72771388888889
 20
2.789262499999999
 10
13.69978333333333
 20
2.789262499999999
 10
13.66876944444444
 20
2.789262499999999
 10
13.63153333333333
 20
2.789262499999999
 10
13.58500555555555
 20
2.789262499999999
 10
13.53845
 20
2.789262499999999
 10
13.48261666666666
 20
2.789262499999999
 10
13.42676944444444
 20
2.789262499999999
 10
13.36471388888889
 20
2.789262499999999
 10
13.299575
 20
2.789262499999999
 10
13.23131111111111
 20
2.789262499999999
 10
13.15995
 20
2.789262499999999
 10
13.08549166666667
 20
2.789262499999999
 10
13.01413055555556
 20
2.789262499999999
 10
12.93968611111111
 20
2.789262499999999
 10
12.86522777777778
 20
2.789262499999999
 10
12.79075555555555
 20
2.789262499999999
 10
12.71939444444444
 20
2.789262499999999
 10
12.64804722222222
 20
2.789262499999999
 10
12.57979722222222
 20
2.789262499999999
 10
12.51463055555555
 20
2.789262499999999
 10
12.45260277777778
 20
2.789262499999999
 10
12.39364444444444
 20
2.789262499999999
 10
12.34090833333333
 20
2.789262499999999
 10
12.29125555555556
 20
2.789262499999999
 10
12.247825
 20
2.789262499999999
 10
12.20749166666666
 20
2.789262499999999
 10
12.17647777777778
 20
2.789262499999999
 10
12.15165833333333
 20
2.789262499999999
 10
12.12993611111111
 20
2.789262499999999
 10
12.11753333333333
 20
2.789262499999999
 10
12.11131111111111
 20
2.789262499999999
 10
12.10822777777778
 20
2.789262499999999
 10
12.10511666666667
 20
2.786179166666666
 10
12.10200555555555
 20
2.786179166666666
 10
12.09890833333333
 20
2.786179166666666
 10
12.09890833333333
 20
2.783068055555555
 10
12.09581111111111
 20
2.783068055555555
 10
12.09581111111111
 20
2.779956944444444
 10
12.08960277777778
 20
2.770651388888888
 10
12.08339444444444
 20
2.761345833333332
 10
12.07718611111111
 20
2.748943055555555
 10
12.07099166666667
 20
2.736526388888888
 10
12.06788055555555
 20
2.724123611111111
 10
12.06478333333333
 20
2.711706944444444
 10
12.06167222222222
 20
2.699304166666666
 10
12.06167222222222
 20
2.686887499999999
 10
12.058575
 20
2.683776388888888
 10
12.058575
 20
2.680679166666666
 10
12.05547777777778
 20
2.677581944444444
 10
12.05236666666667
 20
2.674484722222222
 10
12.04926944444444
 20
2.674484722222222
 10
12.04617222222222
 20
2.671373611111111
 10
12.04306111111111
 20
2.671373611111111
 10
12.05236666666667
 20
2.671373611111111
 10
12.06788055555555
 20
2.671373611111111
 10
12.08960277777778
 20
2.671373611111111
 10
12.11753333333333
 20
2.671373611111111
 10
12.14854722222222
 20
2.671373611111111
 10
12.18888055555555
 20
2.671373611111111
 10
12.23542222222222
 20
2.671373611111111
 10
12.28506111111111
 20
2.671373611111111
 10
12.34090833333333
 20
2.671373611111111
 10
12.39985277777778
 20
2.671373611111111
 10
12.46189444444444
 20
2.671373611111111
 10
12.53015833333333
 20
2.671373611111111
 10
12.60150555555555
 20
2.671373611111111
 10
12.67286666666667
 20
2.671373611111111
 10
12.747325
 20
2.671373611111111
 10
12.82179722222222
 20
2.671373611111111
 10
12.89935277777778
 20
2.671373611111111
 10
12.97690833333333
 20
2.671373611111111
 10
13.05446388888889
 20
2.671373611111111
 10
13.12893611111111
 20
2.671373611111111
 10
13.20339444444444
 20
2.671373611111111
 10
13.27783888888889
 20
2.671373611111111
 10
13.34611666666666
 20
2.671373611111111
 10
13.41436666666667
 20
2.671373611111111
 10
13.47950555555555
 20
2.671373611111111
 10
13.53845
 20
2.671373611111111
 10
13.5912
 20
2.671373611111111
 10
13.64395
 20
2.671373611111111
 10
13.68738055555555
 20
2.671373611111111
 10
13.72771388888889
 20
2.671373611111111
 10
13.76183888888889
 20
2.671373611111111
 10
13.78975555555556
 20
2.671373611111111
 10
13.81147777777778
 20
2.671373611111111
 10
13.82388055555555
 20
2.671373611111111
 10
13.8332
 20
2.671373611111111
 10
13.83628333333333
 20
2.671373611111111
 10
13.83939444444444
 20
2.671373611111111
 10
13.84250555555555
 20
2.671373611111111
 10
13.84560277777778
 20
2.668262499999999
 10
13.8487
 20
2.665179166666666
 10
13.85181111111111
 20
2.662068055555555
 10
13.85801944444444
 20
2.649651388888888
 10
13.86111666666667
 20
2.637248611111111
 10
13.86421388888889
 20
2.624831944444444
 10
13.867325
 20
2.609318055555555
 10
13.87042222222222
 20
2.596915277777777
 10
13.87351944444444
 20
2.581401388888888
 10
13.87351944444444
 20
2.56899861111111
 10
13.87351944444444
 20
2.553484722222222
 10
13.87351944444444
 20
2.550373611111111
 10
13.87042222222222
 20
2.547276388888888
 10
13.87042222222222
 20
2.544179166666666
 10
13.867325
 20
2.544179166666666
 10
13.86421388888889
 20
2.541068055555555
 10
13.86111666666667
 20
2.541068055555555
 10
13.85801944444444
 20
2.537956944444444
 10
13.85490833333333
 20
2.537956944444444
 10
13.8487
 20
2.537956944444444
 10
13.8332
 20
2.537956944444444
 10
13.814575
 20
2.537956944444444
 10
13.78975555555556
 20
2.537956944444444
 10
13.75563055555555
 20
2.537956944444444
 10
13.71839444444444
 20
2.537956944444444
 10
13.67496388888889
 20
2.537956944444444
 10
13.625325
 20
2.537956944444444
 10
13.57258888888889
 20
2.537956944444444
 10
13.51364444444444
 20
2.537956944444444
 10
13.45158888888889
 20
2.537956944444444
 10
13.38643611111111
 20
2.537956944444444
 10
13.315075
 20
2.537956944444444
 10
13.24371388888889
 20
2.537956944444444
 10
13.16925555555555
 20
2.537956944444444
 10
13.09481111111111
 20
2.537956944444444
 10
13.01724166666667
 20
2.537956944444444
 10
12.93968611111111
 20
2.537956944444444
 10
12.86211666666666
 20
2.537956944444444
 10
12.78456111111111
 20
2.537956944444444
 10
12.70699166666666
 20
2.537956944444444
 10
12.63254722222222
 20
2.537956944444444
 10
12.56118611111111
 20
2.537956944444444
 10
12.49292222222222
 20
2.537956944444444
 10
12.42467222222222
 20
2.537956944444444
 10
12.36261666666667
 20
2.537956944444444
 10
12.30367222222222
 20
2.537956944444444
 10
12.25093611111111
 20
2.537956944444444
 10
12.20129722222222
 20
2.537956944444444
 10
12.15785277777778
 20
2.537956944444444
 10
12.12063055555555
 20
2.537956944444444
 10
12.08960277777778
 20
2.537956944444444
 10
12.06167222222222
 20
2.537956944444444
 10
12.04306111111111
 20
2.537956944444444
 10
12.03065833333333
 20
2.537956944444444
 10
12.02445
 20
2.537956944444444
 10
12.02135277777778
 20
2.537956944444444
 10
12.01824166666667
 20
2.537956944444444
 10
12.01513055555555
 20
2.541068055555555
 10
12.01204722222222
 20
2.541068055555555
 10
12.00893611111111
 20
2.544179166666666
 10
12.00583888888889
 20
2.547276388888888
 10
12.00583888888889
 20
2.550373611111111
 10
12.00583888888889
 20
2.553484722222222
 10
12.00583888888889
 20
2.56899861111111
 10
12.00583888888889
 20
2.581401388888888
 10
12.00583888888889
 20
2.596915277777777
 10
12.00893611111111
 20
2.609318055555555
 10
12.01204722222222
 20
2.624831944444444
 10
12.01513055555555
 20
2.637248611111111
 10
12.02135277777778
 20
2.649651388888888
 10
12.02754722222222
 20
2.662068055555555
 10
12.02754722222222
 20
2.665179166666666
 10
12.03065833333333
 20
2.668262499999999
 10
12.03375555555555
 20
2.668262499999999
 10
12.03375555555555
 20
2.671373611111111
 10
12.03686666666667
 20
2.671373611111111
 10
12.03996388888889
 20
2.671373611111111
 10
12.04306111111111
 20
2.671373611111111
  0
LWPOLYLINE
  5
F9
330
2
100
AcDbEntity
  8
PDF_Layer 1
 62
     7
420
 16777215
370
    70
100
AcDbPolyline
 90
       88
 70
     0
 43
0.0
 10
13.39883888888889
 20
8.68087361111111
 10
13.39883888888889
 20
8.690179166666666
 10
13.36471388888889
 20
8.848401388888888
 10
13.33679722222222
 20
9.009734722222221
 10
13.315075
 20
9.174165277777778
 10
13.299575
 20
9.335498611111109
 10
13.29025555555556
 20
9.499929166666664
 10
13.29025555555556
 20
9.512331944444444
 10
13.29025555555556
 20
9.751220833333331
 10
13.29025555555556
 20
9.859818055555555
 10
13.29025555555556
 20
9.968401388888887
 10
13.29025555555556
 20
10.0738875
 10
13.29025555555556
 20
10.1762625
 10
13.29025555555556
 20
10.27554027777778
 10
13.29025555555556
 20
10.37172083333333
 10
13.29025555555556
 20
10.46479027777778
 10
13.29025555555556
 20
10.55166527777777
 10
13.29025555555556
 20
10.63233194444444
 10
13.29025555555556
 20
10.71299861111111
 10
13.29025555555556
 20
10.78434583333333
 10
13.29025555555556
 20
10.85260972222222
 10
13.29025555555556
 20
10.91465138888889
 10
13.29025555555556
 20
10.97049861111111
 10
13.29025555555556
 20
11.0201375
 10
13.29025555555556
 20
11.06356805555555
 10
13.29025555555556
 20
11.09770694444444
 10
13.29025555555556
 20
11.12872083333333
 10
13.29025555555556
 20
11.15354027777777
 10
13.29025555555556
 20
11.16905416666666
 10
13.29025555555556
 20
11.18147083333333
 10
13.29025555555556
 20
11.18456805555555
 42
0.9974341529573825
 10
12.58599166666667
 20
11.18456805555555
 10
12.58599166666667
 20
11.18147083333333
 10
12.58599166666667
 20
11.16905416666666
 10
12.58599166666667
 20
11.15354027777777
 10
12.58599166666667
 20
11.12872083333333
 10
12.58599166666667
 20
11.09770694444444
 10
12.58599166666667
 20
11.06356805555555
 10
12.58599166666667
 20
11.0201375
 10
12.58599166666667
 20
10.97049861111111
 10
12.58599166666667
 20
10.91465138888889
 10
12.58599166666667
 20
10.85260972222222
 10
12.58599166666667
 20
10.78434583333333
 10
12.58599166666667
 20
10.71299861111111
 10
12.58599166666667
 20
10.63233194444444
 10
12.58599166666667
 20
10.55166527777777
 10
12.58599166666667
 20
10.46479027777778
 10
12.58599166666667
 20
10.37172083333333
 10
12.58599166666667
 20
10.27554027777778
 10
12.58599166666667
 20
10.1762625
 10
12.58599166666667
 20
10.0738875
 10
12.58599166666667
 20
9.968401388888887
 10
12.58599166666667
 20
9.859818055555555
 10
12.58599166666667
 20
9.751220833333331
 10
12.58599166666667
 20
9.512331944444444
 10
12.58599166666667
 20
9.484415277777777
 10
12.57668611111111
 20
9.319984722222221
 10
12.56118611111111
 20
9.161762499999998
 10
12.53945
 20
9.000429166666666
 10
12.51154722222222
 20
8.842193055555554
 10
12.47742222222222
 20
8.687068055555554
 10
12.47742222222222
 20
8.68087361111111
 10
12.48050555555555
 20
8.687068055555554
 10
12.489825
 20
8.702581944444442
 10
12.505325
 20
8.714998611111109
 10
12.53015833333333
 20
8.727415277777776
 10
12.558075
 20
8.739818055555554
 10
12.5922
 20
8.752234722222221
 10
12.63254722222222
 20
8.761540277777777
 10
12.67597777777778
 20
8.770845833333332
 10
12.72250555555556
 20
8.780151388888889
 10
12.77525555555556
 20
8.78324861111111
 10
12.82799166666667
 20
8.789456944444443
 10
12.883825
 20
8.792568055555554
 10
12.93968611111111
 20
8.792568055555554
 10
12.99551944444444
 20
8.792568055555554
 10
13.04826944444444
 20
8.789456944444443
 10
13.10411666666667
 20
8.78324861111111
 10
13.15375555555555
 20
8.780151388888889
 10
13.20029722222222
 20
8.770845833333332
 10
13.246825
 20
8.761540277777777
 10
13.28406111111111
 20
8.752234722222221
 10
13.31818611111111
 20
8.739818055555554
 10
13.3492
 20
8.727415277777776
 10
13.37093611111111
 20
8.714998611111109
 10
13.38643611111111
 20
8.702581944444442
 10
13.39883888888889
 20
8.687068055555554
 10
13.40195
 20
8.68087361111111
  0
LWPOLYLINE
  5
FE
330
2
100
AcDbEntity
  8
PDF_Layer 1
 62
     7
420
 16777215
370
    70
100
AcDbPolyline
 90
        2
 70
     0
 43
0.0
 10
12.58599166666667
 20
8.438873611111109
 10
12.58599166666667
 20
5.327095833333332
  0
LWPOLYLINE
  5
FF
330
2
100
AcDbEntity
  8
PDF_Layer 1
 62
     7
420
 16777215
370
    70
100
AcDbPolyline
 90
        2
 70
     0
 43
0.0
 10
13.29025555555556
 20
5.327095833333332
 10
13.29025555555556
 20
8.438873611111109
  0
ELLIPSE
  5
100
330
2
100
AcDbEntity
  8
PDF_Layer 1
 62
     7
420
 16777215
370
    70
100
AcDbEllipse
 10
13.04787986151765
 20
8.606484217238826
 30
0.0
 11
0.6501906670715745
 21
0.0372229594645021
 31
0.0
210
0.0
220
0.0
230
1.0
 40
0.3146595851250277
 41
2.531063936998087
 42
4.527222989042563
  0
LWPOLYLINE
  5
101
330
2
100
AcDbEntity
  8
PDF_Layer 1
 62
     7
420
 16777215
370
    70
100
AcDbPolyline
 90
       23
 70
     0
 43
0.0
 10
12.93968611111111
 20
8.398540277777776
 10
12.96760277777778
 20
8.398540277777776
 10
13.02345
 20
8.401651388888888
 10
13.07618611111111
 20
8.404748611111109
 10
13.12893611111111
 20
8.410956944444443
 10
13.178575
 20
8.417165277777776
 10
13.22511666666666
 20
8.423359722222221
 10
13.27164444444444
 20
8.432665277777775
 10
13.31197777777778
 20
8.441984722222223
 10
13.3492
 20
8.454387499999999
 10
13.383325
 20
8.469901388888889
 10
13.41436666666667
 20
8.485415277777775
 10
13.43918611111111
 20
8.504026388888888
 10
13.4547
 20
8.522637499999998
 10
13.46708888888889
 20
8.5412625
 10
13.47331111111111
 20
8.559873611111111
 10
13.47640833333333
 20
8.584693055555554
 10
13.4702
 20
8.606415277777776
 10
13.46089444444444
 20
8.625026388888887
 10
13.44849166666667
 20
8.6436375
 10
13.42988055555556
 20
8.659151388888886
 10
13.40506111111111
 20
8.674665277777776
 10
13.38024166666667
 20
8.687068055555554
  0
LWPOLYLINE
  5
10D
330
2
100
AcDbEntity
  8
PDF_Layer 1
 62
     7
420
 16777215
370
    70
100
AcDbPolyline
 90
       35
 70
     0
 43
0.0
 10
15.25722777777778
 20
6.031359722222221
 10
15.25411666666667
 20
6.031359722222221
 10
15.25103333333333
 20
6.034456944444444
 10
15.24792222222222
 20
6.034456944444444
 10
15.244825
 20
6.037554166666666
 10
15.24171388888889
 20
6.040665277777777
 10
15.24171388888889
 20
6.043762499999999
 10
15.24171388888889
 20
6.04687361111111
 10
15.23861666666667
 20
6.04687361111111
 10
15.22621388888889
 20
6.04687361111111
 10
15.2107
 20
6.04687361111111
 10
15.18897777777778
 20
6.04687361111111
 10
15.16104722222222
 20
6.04687361111111
 10
15.13003333333333
 20
6.04687361111111
 10
15.09279722222222
 20
6.04687361111111
 10
15.055575
 20
6.04687361111111
 10
15.01522777777777
 20
6.04687361111111
 10
14.97490833333333
 20
6.04687361111111
 10
14.934575
 20
6.04687361111111
 10
14.89733888888889
 20
6.04687361111111
 10
14.86010277777778
 20
6.04687361111111
 10
14.82908888888889
 20
6.04687361111111
 10
14.80115833333333
 20
6.04687361111111
 10
14.77945
 20
6.04687361111111
 10
14.76083888888889
 20
6.04687361111111
 10
14.75153333333333
 20
6.04687361111111
 10
14.74842222222222
 20
6.04687361111111
 10
14.74842222222222
 20
6.043762499999999
 10
14.74842222222222
 20
6.040665277777777
 10
14.745325
 20
6.037554166666666
 10
14.74221388888889
 20
6.037554166666666
 10
14.74221388888889
 20
6.034456944444444
 10
14.73911666666667
 20
6.034456944444444
 10
14.73601944444444
 20
6.031359722222221
 10
14.73290833333333
 20
6.031359722222221
  0
LWPOLYLINE
  5
113
330
2
100
AcDbEntity
  8
PDF_Layer 1
 62
     7
420
 16777215
370
    70
100
AcDbPolyline
 90
        2
 70
     0
 43
0.0
 10
14.99351944444444
 20
6.276456944444443
 10
14.99351944444444
 20
6.276456944444443
  0
LWPOLYLINE
  5
116
330
2
100
AcDbEntity
  8
PDF_Layer 1
 62
     7
420
 16777215
370
    70
100
AcDbPolyline
 90
       47
 70
     0
 43
0.0
 10
14.33578333333333
 20
3.502831944444444
 10
14.33889444444444
 20
3.505943055555555
 10
14.35751944444444
 20
3.530762499999999
 10
14.37613055555555
 20
3.558693055555555
 10
14.39164444444444
 20
3.586595833333332
 10
14.70808888888889
 20
3.586595833333332
 10
14.7112
 20
3.56799861111111
 10
14.71739444444444
 20
3.546276388888888
 10
14.72360277777777
 20
3.527651388888888
 10
14.72979722222222
 20
3.509040277777777
 10
14.73911666666667
 20
3.490429166666666
 10
14.74842222222222
 20
3.474915277777777
 10
14.76083888888889
 20
3.459401388888888
 10
14.77324166666666
 20
3.443887499999999
 10
14.77324166666666
 20
3.44699861111111
 10
14.77324166666666
 20
3.456304166666666
 10
14.77324166666666
 20
3.471818055555555
 10
14.77324166666666
 20
3.496637499999999
 10
14.77324166666666
 20
3.524554166666666
 10
14.77324166666666
 20
3.558693055555555
 10
14.77324166666666
 20
3.599012499999999
 10
14.77324166666666
 20
3.639345833333333
 10
14.77324166666666
 20
3.685887499999999
 10
14.77324166666666
 20
3.732415277777777
 10
14.77324166666666
 20
3.778956944444444
 10
14.77324166666666
 20
3.828595833333332
 10
14.77324166666666
 20
3.8751375
 10
14.77324166666666
 20
3.921665277777777
 10
14.77324166666666
 20
3.962012499999999
 10
14.77324166666666
 20
4.002331944444444
 10
14.77324166666666
 20
4.036456944444443
 10
14.77324166666666
 20
4.064387499999999
 10
14.77324166666666
 20
4.086095833333333
 10
14.77324166666666
 20
4.104720833333333
 10
14.77324166666666
 20
4.114026388888889
 10
14.77324166666666
 20
4.1171375
 10
14.76083888888889
 20
4.101609722222222
 10
14.74842222222222
 20
4.086095833333333
 10
14.73911666666667
 20
4.067484722222221
 10
14.72979722222222
 20
4.051970833333332
 10
14.72360277777777
 20
4.033359722222222
 10
14.71739444444444
 20
4.011651388888888
 10
14.7112
 20
3.993026388888888
 10
14.70808888888889
 20
3.974415277777777
 10
14.39164444444444
 20
3.974415277777777
 10
14.366825
 20
4.017845833333333
 10
14.33578333333333
 20
4.058193055555554
  0
LWPOLYLINE
  5
119
330
2
100
AcDbEntity
  8
PDF_Layer 1
 62
     7
420
 16777215
370
    70
100
AcDbPolyline
 90
      149
 70
     0
 43
0.0
 10
15.17035277777778
 20
4.1171375
 10
15.17035277777778
 20
4.114026388888889
 10
15.17035277777778
 20
4.104720833333333
 10
15.17035277777778
 20
4.086095833333333
 10
15.17035277777778
 20
4.064387499999999
 10
15.17035277777778
 20
4.036456944444443
 10
15.17035277777778
 20
4.002331944444444
 10
15.17035277777778
 20
3.962012499999999
 10
15.17035277777778
 20
3.921665277777777
 10
15.17035277777778
 20
3.8751375
 10
15.17035277777778
 20
3.828595833333332
 10
15.17035277777778
 20
3.778956944444444
 10
15.17035277777778
 20
3.732415277777777
 10
15.17035277777778
 20
3.685887499999999
 10
15.17035277777778
 20
3.639345833333333
 10
15.17035277777778
 20
3.599012499999999
 10
15.17035277777778
 20
3.558693055555555
 10
15.17035277777778
 20
3.524554166666666
 10
15.17035277777778
 20
3.496637499999999
 10
15.17035277777778
 20
3.471818055555555
 10
15.17035277777778
 20
3.456304166666666
 10
15.17035277777778
 20
3.44699861111111
 10
15.17035277777778
 20
3.443887499999999
 10
15.17346388888889
 20
3.434581944444444
 10
15.17656111111111
 20
3.425276388888888
 10
15.18586666666666
 20
3.422179166666666
 10
15.19208888888889
 20
3.419068055555555
 10
15.20139444444444
 20
3.422179166666666
 10
15.2107
 20
3.425276388888888
 10
15.21379722222222
 20
3.434581944444444
 10
15.21689444444444
 20
3.443887499999999
 10
15.244825
 20
3.478012499999999
 10
15.26964444444444
 20
3.51524861111111
 10
15.29135277777777
 20
3.555581944444444
 10
15.30686666666667
 20
3.599012499999999
 10
15.32239444444444
 20
3.639345833333333
 10
15.33168611111111
 20
3.685887499999999
 10
15.33789444444444
 20
3.729318055555555
 10
15.34099166666667
 20
3.775845833333332
 10
15.34099166666667
 20
3.778956944444444
 10
15.34099166666667
 20
3.782068055555555
 10
15.34099166666667
 20
3.785165277777777
 10
15.33789444444444
 20
3.831706944444444
 10
15.33168611111111
 20
3.8751375
 10
15.32239444444444
 20
3.918568055555555
 10
15.30686666666667
 20
3.962012499999999
 10
15.29135277777777
 20
4.005443055555555
 10
15.26964444444444
 20
4.045776388888888
 10
15.244825
 20
4.083012499999999
 10
15.21689444444444
 20
4.1171375
 10
15.21379722222222
 20
4.126443055555554
 10
15.2107
 20
4.132637499999999
 10
15.20139444444444
 20
4.138845833333332
 10
15.19208888888889
 20
4.141956944444443
 10
15.18586666666666
 20
4.138845833333332
 10
15.17656111111111
 20
4.132637499999999
 10
15.17346388888889
 20
4.126443055555554
 10
15.17035277777778
 20
4.1171375
 10
15.13622777777778
 20
4.1171375
 10
15.13313055555556
 20
4.1171375
 10
15.12072777777778
 20
4.110915277777777
 10
15.09279722222222
 20
4.101609722222222
 10
15.04936666666667
 20
4.092318055555555
 10
15.002825
 20
4.086095833333333
 10
14.99351944444444
 20
4.086095833333333
 10
14.95008888888889
 20
4.089206944444444
 10
14.90975555555555
 20
4.0985125
 10
14.87872777777778
 20
4.107818055555555
 10
14.85701944444444
 20
4.1171375
 10
14.85390833333333
 20
4.1171375
 10
14.85079722222222
 20
4.309484722222221
 10
14.84460277777778
 20
4.545276388888888
 10
14.83839444444444
 20
4.777956944444444
 10
14.82597777777778
 20
5.010651388888888
 10
14.813575
 20
5.246429166666666
 10
14.798075
 20
5.479109722222222
 10
14.77945
 20
5.711804166666667
 10
14.75772777777778
 20
5.944484722222221
 10
14.75772777777778
 20
5.947595833333332
 10
14.75463055555555
 20
5.950693055555555
 10
14.75463055555555
 20
5.953790277777777
 10
14.75153333333333
 20
5.956901388888888
 10
14.74842222222222
 20
5.95999861111111
 10
14.745325
 20
5.95999861111111
 10
14.74221388888889
 20
5.95999861111111
 10
14.73911666666667
 20
5.95999861111111
 10
14.72360277777777
 20
5.95999861111111
 10
14.72050555555555
 20
5.963109722222221
 10
14.71739444444444
 20
5.963109722222221
 10
14.71429722222222
 20
5.966193055555555
 10
14.71429722222222
 20
5.969304166666666
 10
14.71429722222222
 20
5.972415277777777
 10
14.71429722222222
 20
6.022054166666666
 10
14.71429722222222
 20
6.025151388888888
 10
14.71429722222222
 20
6.02824861111111
 10
14.71739444444444
 20
6.02824861111111
 10
14.71739444444444
 20
6.031359722222221
 10
14.72050555555555
 20
6.031359722222221
 10
14.72360277777777
 20
6.031359722222221
 10
14.72671388888889
 20
6.031359722222221
 10
14.73601944444444
 20
6.031359722222221
 10
14.75463055555555
 20
6.031359722222221
 10
14.77633888888889
 20
6.031359722222221
 10
14.80426944444444
 20
6.031359722222221
 10
14.83529722222222
 20
6.031359722222221
 10
14.87251944444444
 20
6.031359722222221
 10
14.90975555555555
 20
6.031359722222221
 10
14.95318611111111
 20
6.031359722222221
 10
14.99351944444444
 20
6.031359722222221
 10
15.03696388888889
 20
6.031359722222221
 10
15.07728333333333
 20
6.031359722222221
 10
15.11761666666666
 20
6.031359722222221
 10
15.15485277777778
 20
6.031359722222221
 10
15.18586666666666
 20
6.031359722222221
 10
15.21379722222222
 20
6.031359722222221
 10
15.23551944444444
 20
6.031359722222221
 10
15.25411666666667
 20
6.031359722222221
 10
15.26343611111111
 20
6.031359722222221
 10
15.26653333333333
 20
6.031359722222221
 10
15.26964444444444
 20
6.031359722222221
 10
15.27274166666666
 20
6.031359722222221
 10
15.27274166666666
 20
6.02824861111111
 10
15.27583888888889
 20
6.02824861111111
 10
15.27583888888889
 20
6.025151388888888
 10
15.27583888888889
 20
6.022054166666666
 10
15.27583888888889
 20
5.972415277777777
 10
15.27583888888889
 20
5.969304166666666
 10
15.27583888888889
 20
5.966193055555555
 10
15.27274166666666
 20
5.963109722222221
 10
15.26964444444444
 20
5.963109722222221
 10
15.26653333333333
 20
5.963109722222221
 10
15.26653333333333
 20
5.95999861111111
 10
15.25103333333333
 20
5.95999861111111
 10
15.24792222222222
 20
5.95999861111111
 10
15.244825
 20
5.95999861111111
 10
15.24171388888889
 20
5.95999861111111
 10
15.23861666666667
 20
5.956901388888888
 10
15.23551944444444
 20
5.953790277777777
 10
15.23551944444444
 20
5.950693055555555
 10
15.23240833333333
 20
5.947595833333332
 10
15.23240833333333
 20
5.944484722222221
 10
15.2107
 20
5.711804166666667
 10
15.19208888888889
 20
5.479109722222222
 10
15.17656111111111
 20
5.246429166666666
 10
15.16415833333333
 20
5.010651388888888
 10
15.15174166666667
 20
4.777956944444444
 10
15.14553333333333
 20
4.545276388888888
 10
15.13933888888889
 20
4.309484722222221
 10
15.13622777777778
 20
4.1171375
  0
LWPOLYLINE
  5
11A
330
2
100
AcDbEntity
  8
PDF_Layer 1
 62
     7
420
 16777215
370
    70
100
AcDbPolyline
 90
       10
 70
     0
 43
0.0
 10
14.77324166666666
 20
3.443887499999999
 10
14.77633888888889
 20
3.434581944444444
 10
14.77945
 20
3.425276388888888
 10
14.78875555555555
 20
3.422179166666666
 10
14.79496388888889
 20
3.419068055555555
 10
14.80426944444444
 20
3.422179166666666
 10
14.813575
 20
3.425276388888888
 10
14.81667222222222
 20
3.434581944444444
 10
14.81978333333333
 20
3.443887499999999
 10
15.17035277777778
 20
3.443887499999999
  0
LWPOLYLINE
  5
11B
330
2
100
AcDbEntity
  8
PDF_Layer 1
 62
     7
420
 16777215
370
    70
100
AcDbPolyline
 90
       10
 70
     0
 43
0.0
 10
14.85390833333333
 20
4.1171375
 10
14.81978333333333
 20
4.1171375
 10
14.81667222222222
 20
4.126443055555554
 10
14.813575
 20
4.132637499999999
 10
14.80426944444444
 20
4.138845833333332
 10
14.79496388888889
 20
4.141956944444443
 10
14.78875555555555
 20
4.138845833333332
 10
14.77945
 20
4.132637499999999
 10
14.77633888888889
 20
4.126443055555554
 10
14.77324166666666
 20
4.1171375
  0
LWPOLYLINE
  5
12B
330
2
100
AcDbEntity
  8
PDF_Layer 1
 62
     7
420
 16777215
370
    70
100
AcDbPolyline
 90
       10
 70
     0
 43
0.0
 10
13.746325
 20
2.789262499999999
 10
13.74321388888889
 20
3.077804166666666
 10
13.74321388888889
 20
3.090206944444444
 10
13.74943611111111
 20
3.108818055555555
 10
13.75874166666666
 20
3.130540277777777
 10
13.77114444444444
 20
3.149151388888888
 10
13.78975555555556
 20
3.164679166666666
 10
13.81147777777778
 20
3.173970833333332
 10
13.8332
 20
3.180179166666666
 10
13.8487
 20
3.183276388888888
  0
LWPOLYLINE
  5
12C
330
2
100
AcDbEntity
  8
PDF_Layer 1
 62
     7
420
 16777215
370
    70
100
AcDbPolyline
 90
      131
 70
     0
 43
0.0
 10
13.83008888888889
 20
4.377734722222221
 10
14.13413055555555
 20
4.377734722222221
 10
14.298575
 20
4.377734722222221
 10
14.30788055555555
 20
4.377734722222221
 10
14.314075
 20
4.374637499999999
 10
14.32028333333333
 20
4.371526388888888
 10
14.32339444444444
 20
4.368429166666666
 10
14.32958888888889
 20
4.362220833333333
 10
14.3327
 20
4.356026388888889
 10
14.33578333333333
 20
4.349818055555555
 10
14.33578333333333
 20
4.343609722222222
 10
14.33578333333333
 20
4.340512499999999
 10
14.33578333333333
 20
4.331206944444444
 10
14.33578333333333
 20
4.312581944444444
 10
14.33578333333333
 20
4.290859722222221
 10
14.33578333333333
 20
4.262943055555555
 10
14.33578333333333
 20
4.228818055555555
 10
14.33578333333333
 20
4.188484722222222
 10
14.33578333333333
 20
4.145040277777777
 10
14.33578333333333
 20
4.095415277777777
 10
14.33578333333333
 20
4.042665277777777
 10
14.33578333333333
 20
3.989915277777777
 10
14.33578333333333
 20
3.930970833333333
 10
14.33578333333333
 20
3.872026388888888
 10
14.33578333333333
 20
3.809984722222221
 10
14.33578333333333
 20
3.751026388888888
 10
14.33578333333333
 20
3.688984722222222
 10
14.33578333333333
 20
3.630040277777777
 10
14.33578333333333
 20
3.571095833333333
 10
14.33578333333333
 20
3.51524861111111
 10
14.33578333333333
 20
3.465595833333332
 10
14.33578333333333
 20
3.415970833333333
 10
14.33578333333333
 20
3.372526388888888
 10
14.33578333333333
 20
3.332206944444444
 10
14.33578333333333
 20
3.298081944444444
 10
14.33578333333333
 20
3.270151388888888
 10
14.33578333333333
 20
3.245331944444444
 10
14.33578333333333
 20
3.229818055555555
 10
14.33578333333333
 20
3.220512499999999
 10
14.33578333333333
 20
3.217401388888888
 10
14.33578333333333
 20
3.211206944444444
 10
14.3327
 20
3.20499861111111
 10
14.32958888888889
 20
3.198804166666666
 10
14.32339444444444
 20
3.192581944444444
 10
14.32028333333333
 20
3.18949861111111
 10
14.314075
 20
3.186387499999999
 10
14.30788055555555
 20
3.183276388888888
 10
14.298575
 20
3.183276388888888
 10
14.13413055555555
 20
3.183276388888888
 10
13.8487
 20
3.183276388888888
 10
13.83939444444444
 20
3.192581944444444
 10
13.82078333333333
 20
3.214318055555555
 10
13.79596388888889
 20
3.242220833333333
 10
13.75874166666666
 20
3.285665277777777
 10
13.71531111111111
 20
3.335304166666666
 10
13.66256111111111
 20
3.400456944444444
 10
13.60671388888889
 20
3.484220833333333
 10
13.56326944444444
 20
3.561776388888888
 10
13.52604722222222
 20
3.642456944444444
 10
13.51053333333333
 20
3.707595833333332
 10
13.50122777777778
 20
3.775845833333332
 10
13.504325
 20
3.844109722222222
 10
13.51674166666667
 20
3.906151388888888
 10
13.54776944444444
 20
3.989915277777777
 10
13.58500555555555
 20
4.061276388888888
 10
13.64704722222222
 20
4.154359722222221
 10
13.70599166666667
 20
4.231915277777777
 10
13.75251944444444
 20
4.290859722222221
 10
13.78975555555556
 20
4.334290277777777
 10
13.81147777777778
 20
4.35912361111111
 10
13.82699166666667
 20
4.374637499999999
 10
13.83008888888889
 20
4.377734722222221
 10
13.81147777777778
 20
4.380845833333332
 10
13.78975555555556
 20
4.387040277777777
 10
13.76803333333333
 20
4.396345833333333
 10
13.74943611111111
 20
4.414970833333333
 10
13.73701944444444
 20
4.433581944444444
 10
13.72771388888889
 20
4.452206944444444
 10
13.72460277777778
 20
4.470804166666666
 10
13.72460277777778
 20
4.480109722222222
 10
13.7122
 20
5.292970833333333
 10
13.7122
 20
5.299165277777778
 10
13.70908888888889
 20
5.305373611111111
 10
13.70599166666667
 20
5.311581944444443
 10
13.70289444444444
 20
5.317790277777777
 10
13.69668611111111
 20
5.320901388888888
 10
13.69047777777778
 20
5.323984722222222
 10
13.68426944444445
 20
5.327095833333332
 10
13.678075
 20
5.327095833333332
 10
13.67186666666667
 20
5.327095833333332
 10
13.65635277777778
 20
5.327095833333332
 10
13.63774166666666
 20
5.327095833333332
 10
13.60981111111111
 20
5.327095833333332
 10
13.57878333333333
 20
5.327095833333332
 10
13.54156111111111
 20
5.327095833333332
 10
13.49813055555556
 20
5.327095833333332
 10
13.44849166666667
 20
5.327095833333332
 10
13.39574166666667
 20
5.327095833333332
 10
13.33679722222222
 20
5.327095833333332
 10
13.27783888888889
 20
5.327095833333332
 10
13.2127
 20
5.327095833333332
 10
13.14754722222222
 20
5.327095833333332
 10
13.07929722222222
 20
5.327095833333332
 10
13.00793611111111
 20
5.327095833333332
 10
12.93968611111111
 20
5.327095833333332
 10
12.868325
 20
5.327095833333332
 10
12.80006111111111
 20
5.327095833333332
 10
12.73181111111111
 20
5.327095833333332
 10
12.66356111111111
 20
5.327095833333332
 10
12.59840833333333
 20
5.327095833333332
 10
12.53945
 20
5.327095833333332
 10
12.48050555555555
 20
5.327095833333332
 10
12.42776944444444
 20
5.327095833333332
 10
12.38124166666667
 20
5.327095833333332
 10
12.33779722222222
 20
5.327095833333332
 10
12.29747777777778
 20
5.327095833333332
 10
12.26643611111111
 20
5.327095833333332
 10
12.24161666666667
 20
5.327095833333332
 10
12.21990833333333
 20
5.327095833333332
 10
12.20749166666666
 20
5.327095833333332
 10
12.20129722222222
 20
5.327095833333332
 10
12.19818611111111
 20
5.327095833333332
 10
12.19199166666667
 20
5.327095833333332
 10
12.18578333333333
 20
5.323984722222222
 10
12.179575
 20
5.320901388888888
 10
12.17336666666667
 20
5.317790277777777
 10
12.17025555555556
 20
5.311581944444443
 10
12.16717222222222
 20
5.305373611111111
 10
12.16406111111111
 20
5.299165277777778
 10
12.16406111111111
 20
5.292970833333333
 10
12.12993611111111
 20
2.789262499999999
  0
LWPOLYLINE
  5
136
330
2
100
AcDbEntity
  8
PDF_Layer 1
 62
     7
420
 16777215
370
    70
100
AcDbPolyline
 90
       24
 70
     0
 43
0.0
 10
13.29025555555556
 20
9.512331944444444
 10
13.29025555555556
 20
9.518540277777777
 10
13.28406111111111
 20
9.530956944444444
 10
13.26854722222222
 20
9.54335972222222
 10
13.24993611111111
 20
9.555776388888888
 10
13.22200555555556
 20
9.565081944444443
 10
13.19099166666666
 20
9.5743875
 10
13.15375555555555
 20
9.583693055555555
 10
13.11342222222222
 20
9.589901388888888
 10
13.06999166666666
 20
9.596095833333333
 10
13.02345
 20
9.599206944444443
 10
12.97690833333333
 20
9.602304166666666
 10
12.92726944444444
 20
9.602304166666666
 10
12.87763055555555
 20
9.602304166666666
 10
12.83108888888889
 20
9.599206944444443
 10
12.78456111111111
 20
9.592998611111109
 10
12.74111666666666
 20
9.586790277777776
 10
12.70389444444444
 20
9.580595833333333
 10
12.66975555555555
 20
9.571276388888886
 10
12.64183888888889
 20
9.561970833333331
 10
12.61701944444444
 20
9.549568055555553
 10
12.60150555555555
 20
9.537151388888887
 10
12.58910277777778
 20
9.52474861111111
 10
12.58599166666667
 20
9.512331944444444
  0
ELLIPSE
  5
137
330
2
100
AcDbEntity
  8
PDF_Layer 1
 62
     7
420
 16777215
370
    70
100
AcDbEllipse
 10
12.93905956380693
 20
8.526369700959875
 30
0.0
 11
0.4848583916408096
 21
0.0002760308262067
 31
0.0
210
0.0
220
0.0
230
1.0
 40
0.257225859326131
 41
4.713534762808048
 42
10.99672006998763
  0
LWPOLYLINE
  5
139
330
2
100
AcDbEntity
  8
PDF_Layer 1
 62
     7
420
 16777215
370
    70
100
AcDbPolyline
 90
       14
 70
     0
 43
0.0
 10
13.37713055555555
 20
8.690179166666666
 10
13.37401944444444
 20
8.690179166666666
 10
13.34300555555556
 20
8.702581944444442
 10
13.30576944444444
 20
8.714998611111109
 10
13.26233888888889
 20
8.724304166666666
 10
13.21581111111111
 20
8.733609722222222
 10
13.16615833333333
 20
8.742915277777775
 10
13.11031111111111
 20
8.746026388888889
 10
13.05446388888889
 20
8.752234722222221
 10
12.99863055555555
 20
8.755331944444442
 10
12.99551944444444
 20
8.755331944444442
 10
12.93968611111111
 20
8.755331944444442
 10
12.93038055555556
 20
8.755331944444442
 42
0.0923872981710953
 10
12.51154722222222
 20
8.693276388888898
  0
ELLIPSE
  5
13A
330
2
100
AcDbEntity
  8
PDF_Layer 1
 62
     7
420
 16777215
370
    70
100
AcDbEllipse
 10
12.93900442968412
 20
8.5269858030462
 30
0.0
 11
-0.3851049608508068
 21
0.0007315656452119
 31
0.0
210
0.0
220
0.0
230
1.0
 40
0.2545832633994669
 41
4.711102486827876
 42
10.99428779400746
  0
ELLIPSE
  5
13B
330
2
100
AcDbEntity
  8
PDF_Layer 1
 62
     7
420
 16777215
370
    70
100
AcDbEllipse
 10
12.9381286556986
 20
9.512864312769856
 30
0.0
 11
0.3521421185158958
 21
0.0002276898157626
 31
0.0
210
0.0
220
0.0
230
1.0
 40
0.254660147207191
 41
6.274709695932217
 42
9.428175557438731
  0
ARC
  5
13C
330
2
100
AcDbEntity
  8
PDF_Layer 1
 62
     7
420
 16777215
370
    70
100
AcDbCircle
 10
12.93967222222221
 20
9.82230098353737
 30
0.0
 40
1.25963953871363
100
AcDbArc
 50
257.1929576766275
 51
282.8070423233735
  0
ARC
  5
13D
330
2
100
AcDbEntity
  8
PDF_Layer 1
 62
     7
420
 16777215
370
    70
100
AcDbCircle
 10
12.93968611111113
 20
9.705335429100649
 30
0.0
 40
1.136156262433992
100
AcDbArc
 50
256.578925710876
 51
283.4210742891217
  0
LWPOLYLINE
  5
13E
330
2
100
AcDbEntity
  8
PDF_Layer 1
 62
     7
420
 16777215
370
    70
100
AcDbPolyline
 90
       17
 70
     0
 43
0.0
 10
14.39164444444444
 20
3.586595833333332
 10
14.39164444444444
 20
3.592818055555555
 10
14.39164444444444
 20
3.605220833333333
 10
14.39164444444444
 20
3.623831944444444
 10
14.39164444444444
 20
3.645554166666666
 10
14.39164444444444
 20
3.676581944444444
 10
14.39164444444444
 20
3.707595833333332
 10
14.39164444444444
 20
3.744831944444444
 10
14.39164444444444
 20
3.778956944444444
 10
14.39164444444444
 20
3.816193055555555
 10
14.39164444444444
 20
3.853415277777777
 10
14.39164444444444
 20
3.884443055555555
 10
14.39164444444444
 20
3.912359722222221
 10
14.39164444444444
 20
3.937193055555555
 10
14.39164444444444
 20
3.955790277777777
 10
14.39164444444444
 20
3.968206944444443
 10
14.39164444444444
 20
3.974415277777777
  0
LWPOLYLINE
  5
140
330
2
100
AcDbEntity
  8
PDF_Layer 1
 62
     7
420
 16777215
370
    70
100
AcDbPolyline
 90
       23
 70
     0
 43
0.0
 10
15.21689444444444
 20
3.443887499999999
 10
15.21689444444444
 20
3.44699861111111
 10
15.21689444444444
 20
3.456304166666666
 10
15.21689444444444
 20
3.471818055555555
 10
15.21689444444444
 20
3.496637499999999
 10
15.21689444444444
 20
3.524554166666666
 10
15.21689444444444
 20
3.558693055555555
 10
15.21689444444444
 20
3.599012499999999
 10
15.21689444444444
 20
3.639345833333333
 10
15.21689444444444
 20
3.685887499999999
 10
15.21689444444444
 20
3.732415277777777
 10
15.21689444444444
 20
3.778956944444444
 10
15.21689444444444
 20
3.828595833333332
 10
15.21689444444444
 20
3.8751375
 10
15.21689444444444
 20
3.921665277777777
 10
15.21689444444444
 20
3.962012499999999
 10
15.21689444444444
 20
4.002331944444444
 10
15.21689444444444
 20
4.036456944444443
 10
15.21689444444444
 20
4.064387499999999
 10
15.21689444444444
 20
4.086095833333333
 10
15.21689444444444
 20
4.104720833333333
 10
15.21689444444444
 20
4.114026388888889
 10
15.21689444444444
 20
4.1171375
  0
LWPOLYLINE
  5
144
330
2
100
AcDbEntity
  8
PDF_Layer 1
 62
     7
420
 16777215
370
    70
100
AcDbPolyline
 90
       23
 70
     0
 43
0.0
 10
14.81978333333333
 20
3.443887499999999
 10
14.81978333333333
 20
3.44699861111111
 10
14.81978333333333
 20
3.456304166666666
 10
14.81978333333333
 20
3.471818055555555
 10
14.81978333333333
 20
3.496637499999999
 10
14.81978333333333
 20
3.524554166666666
 10
14.81978333333333
 20
3.558693055555555
 10
14.81978333333333
 20
3.599012499999999
 10
14.81978333333333
 20
3.639345833333333
 10
14.81978333333333
 20
3.685887499999999
 10
14.81978333333333
 20
3.732415277777777
 10
14.81978333333333
 20
3.778956944444444
 10
14.81978333333333
 20
3.828595833333332
 10
14.81978333333333
 20
3.8751375
 10
14.81978333333333
 20
3.921665277777777
 10
14.81978333333333
 20
3.962012499999999
 10
14.81978333333333
 20
4.002331944444444
 10
14.81978333333333
 20
4.036456944444443
 10
14.81978333333333
 20
4.064387499999999
 10
14.81978333333333
 20
4.086095833333333
 10
14.81978333333333
 20
4.104720833333333
 10
14.81978333333333
 20
4.114026388888889
 10
14.81978333333333
 20
4.1171375
  0
LWPOLYLINE
  5
14A
330
2
100
AcDbEntity
  8
PDF_Layer 1
 62
     7
420
 16777215
370
    70
100
AcDbPolyline
 90
       17
 70
     0
 43
0.0
 10
14.70808888888889
 20
3.586595833333332
 10
14.70808888888889
 20
3.592818055555555
 10
14.70808888888889
 20
3.605220833333333
 10
14.70808888888889
 20
3.623831944444444
 10
14.70808888888889
 20
3.645554166666666
 10
14.70808888888889
 20
3.676581944444444
 10
14.70808888888889
 20
3.707595833333332
 10
14.70808888888889
 20
3.744831944444444
 10
14.70808888888889
 20
3.778956944444444
 10
14.70808888888889
 20
3.816193055555555
 10
14.70808888888889
 20
3.853415277777777
 10
14.70808888888889
 20
3.884443055555555
 10
14.70808888888889
 20
3.912359722222221
 10
14.70808888888889
 20
3.937193055555555
 10
14.70808888888889
 20
3.955790277777777
 10
14.70808888888889
 20
3.968206944444443
 10
14.70808888888889
 20
3.974415277777777
  0
LWPOLYLINE
  5
14C
330
2
100
AcDbEntity
  8
PDF_Layer 1
 62
     7
420
 16777215
370
    70
100
AcDbPolyline
 90
       57
 70
     1
 43
0.0
 10
14.13413055555555
 20
3.778956944444444
 10
14.13413055555555
 20
3.716901388888888
 10
14.13413055555555
 20
3.654859722222222
 10
14.13413055555555
 20
3.592818055555555
 10
14.13413055555555
 20
3.53387361111111
 10
14.13413055555555
 20
3.478012499999999
 10
14.13413055555555
 20
3.422179166666666
 10
14.13413055555555
 20
3.375637499999999
 10
14.13413055555555
 20
3.329095833333333
 10
14.13413055555555
 20
3.29187361111111
 10
14.13413055555555
 20
3.25774861111111
 10
14.13413055555555
 20
3.229818055555555
 10
14.13413055555555
 20
3.208095833333333
 10
14.13413055555555
 20
3.192581944444444
 10
14.13413055555555
 20
3.183276388888888
 10
14.13413055555555
 20
3.18949861111111
 10
14.13413055555555
 20
3.201901388888888
 10
14.13413055555555
 20
3.22362361111111
 10
14.13413055555555
 20
3.248443055555555
 10
14.13413055555555
 20
3.282568055555555
 10
14.13413055555555
 20
3.319790277777777
 10
14.13413055555555
 20
3.363220833333333
 10
14.13413055555555
 20
3.409762499999999
 10
14.13413055555555
 20
3.462512499999999
 10
14.13413055555555
 20
3.518345833333333
 10
14.13413055555555
 20
3.577290277777777
 10
14.13413055555555
 20
3.639345833333333
 10
14.13413055555555
 20
3.701401388888888
 10
14.13413055555555
 20
3.763443055555555
 10
14.13413055555555
 20
3.828595833333332
 10
14.13413055555555
 20
3.890651388888888
 10
14.13413055555555
 20
3.952693055555555
 10
14.13413055555555
 20
4.011651388888888
 10
14.13413055555555
 20
4.070595833333332
 10
14.13413055555555
 20
4.123331944444444
 10
14.13413055555555
 20
4.172970833333333
 10
14.13413055555555
 20
4.219512499999999
 10
14.13413055555555
 20
4.259845833333333
 10
14.13413055555555
 20
4.293970833333332
 10
14.13413055555555
 20
4.324984722222222
 10
14.13413055555555
 20
4.346706944444444
 10
14.13413055555555
 20
4.365331944444443
 10
14.13413055555555
 20
4.374637499999999
 10
14.13413055555555
 20
4.377734722222221
 10
14.13413055555555
 20
4.368429166666666
 10
14.13413055555555
 20
4.352915277777777
 10
14.13413055555555
 20
4.331206944444444
 10
14.13413055555555
 20
4.303276388888888
 10
14.13413055555555
 20
4.269151388888889
 10
14.13413055555555
 20
4.228818055555555
 10
14.13413055555555
 20
4.185387499999999
 10
14.13413055555555
 20
4.135734722222221
 10
14.13413055555555
 20
4.083012499999999
 10
14.13413055555555
 20
4.027151388888889
 10
14.13413055555555
 20
3.968206944444443
 10
14.13413055555555
 20
3.906151388888888
 10
14.13413055555555
 20
3.844109722222222
  0
LWPOLYLINE
  5
14E
330
2
100
AcDbEntity
  8
PDF_Layer 1
 62
     7
420
 16777215
370
    70
100
AcDbPolyline
 90
        9
 70
     0
 43
0.0
 10
14.14033888888889
 20
3.772762499999999
 10
14.13722777777778
 20
3.856526388888888
 10
14.13722777777778
 20
3.943387499999999
 10
14.13722777777778
 20
4.027151388888889
 10
14.13722777777778
 20
4.0985125
 10
14.13722777777778
 20
4.163665277777777
 10
14.13413055555555
 20
4.219512499999999
 10
14.13413055555555
 20
4.250526388888888
 10
14.13413055555555
 20
4.2722625
  0
LWPOLYLINE
  5
14F
330
2
100
AcDbEntity
  8
PDF_Layer 1
 62
     7
420
 16777215
370
    70
100
AcDbPolyline
 90
        2
 70
     0
 43
0.0
 10
13.72460277777778
 20
4.480109722222222
 10
13.72460277777778
 20
4.480109722222222
  0
LWPOLYLINE
  5
150
330
2
100
AcDbEntity
  8
PDF_Layer 1
 62
     7
420
 16777215
370
    70
100
AcDbPolyline
 90
        2
 70
     0
 43
0.0
 10
13.74321388888889
 20
3.077804166666666
 10
13.74321388888889
 20
3.077804166666666
  0
LWPOLYLINE
  5
154
330
2
100
AcDbEntity
  8
PDF_Layer 1
 62
     7
420
 16777215
370
    70
100
AcDbPolyline
 90
       37
 70
     0
 43
0.0
 10
12.02754722222222
 20
2.662068055555555
 10
12.03686666666667
 20
2.662068055555555
 10
12.05236666666667
 20
2.662068055555555
 10
12.07408888888889
 20
2.662068055555555
 10
12.10200555555555
 20
2.662068055555555
 10
12.13613055555555
 20
2.662068055555555
 10
12.17647777777778
 20
2.662068055555555
 10
12.22300555555555
 20
2.662068055555555
 10
12.27264444444444
 20
2.662068055555555
 10
12.32849166666667
 20
2.662068055555555
 10
12.39054722222222
 20
2.662068055555555
 10
12.45568611111111
 20
2.662068055555555
 10
12.52395
 20
2.662068055555555
 10
12.59531111111111
 20
2.662068055555555
 10
12.66667222222222
 20
2.662068055555555
 10
12.74422777777778
 20
2.662068055555555
 10
12.82179722222222
 20
2.662068055555555
 10
12.89935277777778
 20
2.662068055555555
 10
12.97690833333333
 20
2.662068055555555
 10
13.057575
 20
2.662068055555555
 10
13.13203333333333
 20
2.662068055555555
 10
13.20958888888889
 20
2.662068055555555
 10
13.28406111111111
 20
2.662068055555555
 10
13.35540833333333
 20
2.662068055555555
 10
13.42367222222222
 20
2.662068055555555
 10
13.488825
 20
2.662068055555555
 10
13.54776944444444
 20
2.662068055555555
 10
13.60361666666667
 20
2.662068055555555
 10
13.65635277777778
 20
2.662068055555555
 10
13.69978333333333
 20
2.662068055555555
 10
13.74013055555555
 20
2.662068055555555
 10
13.77425555555555
 20
2.662068055555555
 10
13.80526944444444
 20
2.662068055555555
 10
13.82699166666667
 20
2.662068055555555
 10
13.83939444444444
 20
2.662068055555555
 10
13.8487
 20
2.662068055555555
 10
13.85181111111111
 20
2.662068055555555
  0
LWPOLYLINE
  5
155
330
2
100
AcDbEntity
  8
PDF_Layer 1
 62
     7
420
 16777215
370
    70
100
AcDbPolyline
 90
       38
 70
     0
 43
0.0
 10
12.00583888888889
 20
2.553484722222222
 10
12.01204722222222
 20
2.553484722222222
 10
12.02445
 20
2.553484722222222
 10
12.04617222222222
 20
2.553484722222222
 10
12.07099166666667
 20
2.553484722222222
 10
12.10511666666667
 20
2.553484722222222
 10
12.14235277777778
 20
2.553484722222222
 10
12.18888055555555
 20
2.553484722222222
 10
12.23851944444444
 20
2.553484722222222
 10
12.29125555555556
 20
2.553484722222222
 10
12.35331111111111
 20
2.553484722222222
 10
12.41536666666666
 20
2.553484722222222
 10
12.48361666666667
 20
2.553484722222222
 10
12.55497777777778
 20
2.553484722222222
 10
12.626325
 20
2.553484722222222
 10
12.70389444444444
 20
2.553484722222222
 10
12.78145
 20
2.553484722222222
 10
12.85901944444444
 20
2.553484722222222
 10
12.93968611111111
 20
2.553484722222222
 10
13.01724166666667
 20
2.553484722222222
 10
13.09789444444444
 20
2.553484722222222
 10
13.17546388888889
 20
2.553484722222222
 10
13.24993611111111
 20
2.553484722222222
 10
13.32438055555555
 20
2.553484722222222
 10
13.39264444444444
 20
2.553484722222222
 10
13.46089444444444
 20
2.553484722222222
 10
13.52604722222222
 20
2.553484722222222
 10
13.58500555555555
 20
2.553484722222222
 10
13.64083888888889
 20
2.553484722222222
 10
13.69047777777778
 20
2.553484722222222
 10
13.73390833333333
 20
2.553484722222222
 10
13.77114444444444
 20
2.553484722222222
 10
13.80526944444444
 20
2.553484722222222
 10
13.83008888888889
 20
2.553484722222222
 10
13.85181111111111
 20
2.553484722222222
 10
13.86421388888889
 20
2.553484722222222
 10
13.87042222222222
 20
2.553484722222222
 10
13.87351944444444
 20
2.553484722222222
  0
LWPOLYLINE
  5
156
330
2
100
AcDbEntity
  8
PDF_Layer 1
 62
     7
420
 16777215
370
    70
100
AcDbPolyline
 90
       37
 70
     0
 43
0.0
 10
12.06167222222222
 20
2.686887499999999
 10
12.06478333333333
 20
2.686887499999999
 10
12.07408888888889
 20
2.686887499999999
 10
12.08960277777778
 20
2.686887499999999
 10
12.11442222222222
 20
2.686887499999999
 10
12.14235277777778
 20
2.686887499999999
 10
12.179575
 20
2.686887499999999
 10
12.21990833333333
 20
2.686887499999999
 10
12.26643611111111
 20
2.686887499999999
 10
12.316075
 20
2.686887499999999
 10
12.37503333333333
 20
2.686887499999999
 10
12.43397777777778
 20
2.686887499999999
 10
12.49913055555555
 20
2.686887499999999
 10
12.56738055555556
 20
2.686887499999999
 10
12.63874166666667
 20
2.686887499999999
 10
12.71010277777778
 20
2.686887499999999
 10
12.78767222222222
 20
2.686887499999999
 10
12.86211666666666
 20
2.686887499999999
 10
12.93968611111111
 20
2.686887499999999
 10
13.01413055555556
 20
2.686887499999999
 10
13.0917
 20
2.686887499999999
 10
13.16615833333333
 20
2.686887499999999
 10
13.23751944444444
 20
2.686887499999999
 10
13.30888055555555
 20
2.686887499999999
 10
13.37713055555555
 20
2.686887499999999
 10
13.44228333333333
 20
2.686887499999999
 10
13.504325
 20
2.686887499999999
 10
13.56018611111111
 20
2.686887499999999
 10
13.61290833333333
 20
2.686887499999999
 10
13.65945
 20
2.686887499999999
 10
13.69978333333333
 20
2.686887499999999
 10
13.73390833333333
 20
2.686887499999999
 10
13.76493611111111
 20
2.686887499999999
 10
13.78665833333333
 20
2.686887499999999
 10
13.80215833333333
 20
2.686887499999999
 10
13.814575
 20
2.686887499999999
 10
13.81768611111111
 20
2.686887499999999
  0
LWPOLYLINE
  5
157
330
2
100
AcDbEntity
  8
PDF_Layer 1
 62
     7
420
 16777215
370
    70
100
AcDbPolyline
 90
       36
 70
     0
 43
0.0
 10
12.09581111111111
 20
2.779956944444444
 10
12.10200555555555
 20
2.779956944444444
 10
12.11131111111111
 20
2.779956944444444
 10
12.12993611111111
 20
2.779956944444444
 10
12.15475555555556
 20
2.779956944444444
 10
12.18578333333333
 20
2.779956944444444
 10
12.22300555555555
 20
2.779956944444444
 10
12.26335277777778
 20
2.779956944444444
 10
12.30988055555555
 20
2.779956944444444
 10
12.36261666666667
 20
2.779956944444444
 10
12.41846388888889
 20
2.779956944444444
 10
12.48050555555555
 20
2.779956944444444
 10
12.54567222222222
 20
2.779956944444444
 10
12.61081111111111
 20
2.779956944444444
 10
12.68217222222222
 20
2.779956944444444
 10
12.75353333333333
 20
2.779956944444444
 10
12.82799166666667
 20
2.779956944444444
 10
12.90245
 20
2.779956944444444
 10
12.97690833333333
 20
2.779956944444444
 10
13.05136666666667
 20
2.779956944444444
 10
13.12272777777778
 20
2.779956944444444
 10
13.194075
 20
2.779956944444444
 10
13.26543611111111
 20
2.779956944444444
 10
13.3337
 20
2.779956944444444
 10
13.39574166666667
 20
2.779956944444444
 10
13.45779722222222
 20
2.779956944444444
 10
13.51364444444444
 20
2.779956944444444
 10
13.56638055555555
 20
2.779956944444444
 10
13.61290833333333
 20
2.779956944444444
 10
13.65635277777778
 20
2.779956944444444
 10
13.693575
 20
2.779956944444444
 10
13.72150555555555
 20
2.779956944444444
 10
13.746325
 20
2.779956944444444
 10
13.76493611111111
 20
2.779956944444444
 10
13.77733888888889
 20
2.779956944444444
 10
13.78045
 20
2.779956944444444
  0
LWPOLYLINE
  5
158
330
2
100
AcDbEntity
  8
PDF_Layer 1
 62
     7
420
 16777215
370
    70
100
AcDbPolyline
 90
       24
 70
     0
 43
0.0
 10
13.29025555555556
 20
9.751220833333331
 10
13.29025555555556
 20
9.757429166666664
 10
13.28406111111111
 20
9.769845833333331
 10
13.26854722222222
 20
9.782248611111111
 10
13.24993611111111
 20
9.791554166666665
 10
13.22200555555556
 20
9.803970833333332
 10
13.19099166666666
 20
9.813276388888887
 10
13.15375555555555
 20
9.822581944444442
 10
13.11342222222222
 20
9.828790277777777
 10
13.06999166666666
 20
9.834998611111108
 10
13.02345
 20
9.838095833333333
 10
12.97690833333333
 20
9.841193055555553
 10
12.92726944444444
 20
9.841193055555553
 10
12.87763055555555
 20
9.841193055555553
 10
12.83108888888889
 20
9.838095833333333
 10
12.78456111111111
 20
9.831887499999998
 10
12.74111666666666
 20
9.825679166666667
 10
12.70389444444444
 20
9.81637361111111
 10
12.66975555555555
 20
9.807068055555554
 10
12.64183888888889
 20
9.797762500000001
 10
12.61701944444444
 20
9.788456944444444
 10
12.60150555555555
 20
9.776054166666664
 10
12.58910277777778
 20
9.763637499999997
 10
12.58599166666667
 20
9.751220833333331
  0
LWPOLYLINE
  5
15B
330
2
100
AcDbEntity
  8
PDF_Layer 1
 62
     7
420
 16777215
370
    70
100
AcDbPolyline
 90
       21
 70
     0
 43
0.0
 10
15.27583888888889
 20
6.022054166666666
 10
15.27274166666666
 20
6.022054166666666
 10
15.26343611111111
 20
6.022054166666666
 10
15.24792222222222
 20
6.022054166666666
 10
15.22621388888889
 20
6.022054166666666
 10
15.19828333333333
 20
6.022054166666666
 10
15.16415833333333
 20
6.022054166666666
 10
15.13003333333333
 20
6.022054166666666
 10
15.0897
 20
6.022054166666666
 10
15.04936666666667
 20
6.022054166666666
 10
15.00592222222222
 20
6.022054166666666
 10
14.96249166666667
 20
6.022054166666666
 10
14.91904722222222
 20
6.022054166666666
 10
14.87872777777778
 20
6.022054166666666
 10
14.84149166666666
 20
6.022054166666666
 10
14.80736666666667
 20
6.022054166666666
 10
14.77633888888889
 20
6.022054166666666
 10
14.75153333333333
 20
6.022054166666666
 10
14.73290833333333
 20
6.022054166666666
 10
14.72050555555555
 20
6.022054166666666
 10
14.71429722222222
 20
6.022054166666666
  0
LWPOLYLINE
  5
15C
330
2
100
AcDbEntity
  8
PDF_Layer 1
 62
     7
420
 16777215
370
    70
100
AcDbPolyline
 90
       21
 70
     0
 43
0.0
 10
14.71429722222222
 20
5.972415277777777
 10
14.72050555555555
 20
5.972415277777777
 10
14.73290833333333
 20
5.972415277777777
 10
14.75153333333333
 20
5.972415277777777
 10
14.77633888888889
 20
5.972415277777777
 10
14.80736666666667
 20
5.972415277777777
 10
14.84149166666666
 20
5.972415277777777
 10
14.87872777777778
 20
5.972415277777777
 10
14.91904722222222
 20
5.972415277777777
 10
14.96249166666667
 20
5.972415277777777
 10
15.00592222222222
 20
5.972415277777777
 10
15.04936666666667
 20
5.972415277777777
 10
15.0897
 20
5.972415277777777
 10
15.13003333333333
 20
5.972415277777777
 10
15.16415833333333
 20
5.972415277777777
 10
15.19828333333333
 20
5.972415277777777
 10
15.22621388888889
 20
5.972415277777777
 10
15.24792222222222
 20
5.972415277777777
 10
15.26343611111111
 20
5.972415277777777
 10
15.27274166666666
 20
5.972415277777777
 10
15.27583888888889
 20
5.972415277777777
  0
LWPOLYLINE
  5
15D
330
2
100
AcDbEntity
  8
PDF_Layer 1
 62
     7
420
 16777215
370
    70
100
AcDbPolyline
 90
       21
 70
     0
 43
0.0
 10
15.26653333333333
 20
5.95999861111111
 10
15.26343611111111
 20
5.95999861111111
 10
15.25411666666667
 20
5.95999861111111
 10
15.23551944444444
 20
5.95999861111111
 10
15.21379722222222
 20
5.95999861111111
 10
15.18586666666666
 20
5.95999861111111
 10
15.15485277777778
 20
5.95999861111111
 10
15.11761666666666
 20
5.95999861111111
 10
15.07728333333333
 20
5.95999861111111
 10
15.03696388888889
 20
5.95999861111111
 10
14.99351944444444
 20
5.95999861111111
 10
14.95318611111111
 20
5.95999861111111
 10
14.90975555555555
 20
5.95999861111111
 10
14.87251944444444
 20
5.95999861111111
 10
14.83529722222222
 20
5.95999861111111
 10
14.80426944444444
 20
5.95999861111111
 10
14.77633888888889
 20
5.95999861111111
 10
14.75463055555555
 20
5.95999861111111
 10
14.73601944444444
 20
5.95999861111111
 10
14.72671388888889
 20
5.95999861111111
 10
14.72360277777777
 20
5.95999861111111
  0
LWPOLYLINE
  5
15E
330
2
100
AcDbEntity
  8
PDF_Layer 1
 62
     7
420
 16777215
370
    70
100
AcDbPolyline
 90
       20
 70
     0
 43
0.0
 10
14.73911666666667
 20
5.95999861111111
 10
14.745325
 20
5.95999861111111
 10
14.76083888888889
 20
5.95999861111111
 10
14.77945
 20
5.95999861111111
 10
14.80426944444444
 20
5.95999861111111
 10
14.8322
 20
5.95999861111111
 10
14.866325
 20
5.95999861111111
 10
14.90354722222222
 20
5.95999861111111
 10
14.94388055555555
 20
5.95999861111111
 10
14.98421388888889
 20
5.95999861111111
 10
15.02454722222222
 20
5.95999861111111
 10
15.06486666666666
 20
5.95999861111111
 10
15.10521388888889
 20
5.95999861111111
 10
15.13933888888889
 20
5.95999861111111
 10
15.17035277777778
 20
5.95999861111111
 10
15.19828333333333
 20
5.95999861111111
 10
15.21999166666667
 20
5.95999861111111
 10
15.23551944444444
 20
5.95999861111111
 10
15.24792222222222
 20
5.95999861111111
 10
15.25103333333333
 20
5.95999861111111
  0
LWPOLYLINE
  5
160
330
2
100
AcDbEntity
  8
PDF_Layer 1
 62
     7
420
 16777215
370
    70
100
AcDbPolyline
 90
       19
 70
     0
 43
0.0
 10
15.23240833333333
 20
5.944484722222221
 10
15.22621388888889
 20
5.944484722222221
 10
15.2107
 20
5.944484722222221
 10
15.19208888888889
 20
5.944484722222221
 10
15.16726944444444
 20
5.944484722222221
 10
15.13622777777778
 20
5.944484722222221
 10
15.10210277777778
 20
5.944484722222221
 10
15.06486666666666
 20
5.944484722222221
 10
15.02454722222222
 20
5.944484722222221
 10
14.98421388888889
 20
5.944484722222221
 10
14.94388055555555
 20
5.944484722222221
 10
14.90665833333333
 20
5.944484722222221
 10
14.86942222222222
 20
5.944484722222221
 10
14.83839444444444
 20
5.944484722222221
 10
14.81047777777778
 20
5.944484722222221
 10
14.78565833333333
 20
5.944484722222221
 10
14.77014444444444
 20
5.944484722222221
 10
14.76083888888889
 20
5.944484722222221
 10
14.75772777777778
 20
5.944484722222221
  0
LWPOLYLINE
  5
161
330
2
100
AcDbEntity
  8
PDF_Layer 1
 62
     7
420
 16777215
370
    70
100
AcDbPolyline
 90
       30
 70
     0
 43
0.0
 10
14.298575
 20
3.183276388888888
 10
14.298575
 20
3.18949861111111
 10
14.298575
 20
3.201901388888888
 10
14.298575
 20
3.22362361111111
 10
14.298575
 20
3.248443055555555
 10
14.298575
 20
3.282568055555555
 10
14.298575
 20
3.319790277777777
 10
14.298575
 20
3.363220833333333
 10
14.298575
 20
3.409762499999999
 10
14.298575
 20
3.462512499999999
 10
14.298575
 20
3.518345833333333
 10
14.298575
 20
3.577290277777777
 10
14.298575
 20
3.639345833333333
 10
14.298575
 20
3.701401388888888
 10
14.298575
 20
3.763443055555555
 10
14.298575
 20
3.828595833333332
 10
14.298575
 20
3.890651388888888
 10
14.298575
 20
3.952693055555555
 10
14.298575
 20
4.011651388888888
 10
14.298575
 20
4.070595833333332
 10
14.298575
 20
4.123331944444444
 10
14.298575
 20
4.172970833333333
 10
14.298575
 20
4.219512499999999
 10
14.298575
 20
4.259845833333333
 10
14.298575
 20
4.293970833333332
 10
14.298575
 20
4.324984722222222
 10
14.298575
 20
4.346706944444444
 10
14.298575
 20
4.365331944444443
 10
14.298575
 20
4.374637499999999
 10
14.298575
 20
4.377734722222221
  0
LWPOLYLINE
  5
162
330
2
100
AcDbEntity
  8
PDF_Layer 1
 62
     7
420
 16777215
370
    70
100
AcDbPolyline
 90
       23
 70
     0
 43
0.0
 10
13.74321388888889
 20
3.077804166666666
 10
13.73390833333333
 20
3.090206944444444
 10
13.71839444444444
 20
3.111929166666666
 10
13.693575
 20
3.149151388888888
 10
13.66256111111111
 20
3.195693055555555
 10
13.625325
 20
3.254637499999999
 10
13.57878333333333
 20
3.332206944444444
 10
13.52914444444444
 20
3.431470833333333
 10
13.488825
 20
3.521456944444444
 10
13.45779722222222
 20
3.617637499999999
 10
13.44228333333333
 20
3.692081944444444
 10
13.436075
 20
3.772762499999999
 10
13.436075
 20
3.850318055555555
 10
13.44849166666667
 20
3.927887499999999
 10
13.47640833333333
 20
4.020956944444444
 10
13.51053333333333
 20
4.110915277777777
 10
13.56018611111111
 20
4.216401388888888
 10
13.61601944444444
 20
4.312581944444444
 10
13.65325555555555
 20
4.374637499999999
 10
13.68738055555555
 20
4.4273875
 10
13.70908888888889
 20
4.458401388888888
 10
13.72150555555555
 20
4.477012499999999
 10
13.72460277777778
 20
4.480109722222222
  0
LWPOLYLINE
  5
164
330
2
100
AcDbEntity
  8
PDF_Layer 1
 62
     7
420
 16777215
370
    70
100
AcDbPolyline
 90
       35
 70
     0
 43
0.0
 10
13.7122
 20
5.292970833333333
 10
13.70908888888889
 20
5.292970833333333
 10
13.69978333333333
 20
5.292970833333333
 10
13.68426944444445
 20
5.292970833333333
 10
13.65945
 20
5.292970833333333
 10
13.63153333333333
 20
5.292970833333333
 10
13.59739444444444
 20
5.292970833333333
 10
13.557075
 20
5.292970833333333
 10
13.51053333333333
 20
5.292970833333333
 10
13.46089444444444
 20
5.292970833333333
 10
13.40506111111111
 20
5.292970833333333
 10
13.34611666666666
 20
5.292970833333333
 10
13.28406111111111
 20
5.292970833333333
 10
13.21889444444444
 20
5.292970833333333
 10
13.15064444444444
 20
5.292970833333333
 10
13.08239444444444
 20
5.292970833333333
 10
13.01104722222222
 20
5.292970833333333
 10
12.93968611111111
 20
5.292970833333333
 10
12.868325
 20
5.292970833333333
 10
12.79696388888889
 20
5.292970833333333
 10
12.72561666666667
 20
5.292970833333333
 10
12.66045
 20
5.292970833333333
 10
12.5922
 20
5.292970833333333
 10
12.53015833333333
 20
5.292970833333333
 10
12.4712
 20
5.292970833333333
 10
12.41846388888889
 20
5.292970833333333
 10
12.36572777777778
 20
5.292970833333333
 10
12.31918611111111
 20
5.292970833333333
 10
12.27885277777778
 20
5.292970833333333
 10
12.24472777777778
 20
5.292970833333333
 10
12.21679722222222
 20
5.292970833333333
 10
12.19508888888889
 20
5.292970833333333
 10
12.17647777777778
 20
5.292970833333333
 10
12.16717222222222
 20
5.292970833333333
 10
12.16406111111111
 20
5.292970833333333
  0
LWPOLYLINE
  5
167
330
2
100
AcDbEntity
  8
PDF_Layer 1
 62
     7
420
 16777215
370
    70
100
AcDbPolyline
 90
       98
 70
     1
 43
0.0
 10
2.616445833333333
 20
9.841205555555555
 10
2.551293055555555
 20
9.602302777777778
 10
2.517168055555555
 20
9.499927777777777
 10
2.483043055555555
 20
9.394441666666667
 10
2.445806944444444
 20
9.292066666666666
 10
2.405473611111111
 20
9.189677777777777
 10
2.362043055555555
 20
9.0904
 10
2.315501388888888
 20
8.988011111111111
 10
2.268973611111111
 20
8.891844444444444
 10
2.219320833333333
 20
8.792566666666667
 10
2.216223611111111
 20
8.786358333333334
 10
2.210015277777777
 20
8.78015
 10
2.203806944444444
 20
8.773941666666667
 10
2.197612499999999
 20
8.767747222222222
 10
2.191404166666666
 20
8.761538888888889
 10
2.182098611111111
 20
8.758441666666668
 10
2.175890277777777
 20
8.758441666666668
 10
2.166584722222222
 20
8.755330555555556
 10
2.151070833333333
 20
8.749122222222222
 10
2.135556944444444
 20
8.739816666666667
 10
2.126251388888888
 20
8.724316666666666
 10
2.120043055555555
 20
8.705691666666666
 10
2.123154166666666
 20
8.687080555555555
 10
2.129348611111111
 20
8.671566666666667
 10
2.144862499999999
 20
8.65915
 10
2.160376388888888
 20
8.652941666666666
 10
2.163473611111111
 20
8.649844444444445
 10
2.172793055555555
 20
8.649844444444445
 10
2.191404166666666
 20
8.643636111111112
 10
2.213126388888889
 20
8.637441666666667
 10
2.244140277777777
 20
8.631233333333334
 10
2.278279166666666
 20
8.621927777777777
 10
2.318598611111111
 20
8.60951111111111
 10
2.362043055555555
 20
8.597108333333334
 10
2.411681944444444
 20
8.584691666666667
 10
2.461320833333333
 20
8.572288888888889
 10
2.517168055555555
 20
8.556775
 10
2.569904166666666
 20
8.541261111111111
 10
2.628848611111111
 20
8.525747222222221
 10
2.684695833333333
 20
8.510233333333333
 10
2.740543055555555
 20
8.497816666666667
 10
2.793279166666666
 20
8.482316666666667
 10
2.846029166666666
 20
8.4699
 10
2.892570833333333
 20
8.454399999999999
 10
2.939098611111111
 20
8.445080555555556
 10
2.976334722222222
 20
8.432677777777778
 10
3.013556944444444
 20
8.423372222222223
 10
3.0414875
 20
8.417163888888889
 10
3.063195833333333
 20
8.410955555555556
 10
3.081806944444444
 20
8.404747222222223
 10
3.091112499999999
 20
8.40165
 10
3.094223611111111
 20
8.40165
 10
3.112834722222222
 20
8.398552777777778
 10
3.131459722222222
 20
8.404747222222223
 10
3.1438625
 20
8.414066666666666
 10
3.156265277777777
 20
8.429566666666667
 10
3.162473611111111
 20
8.445080555555556
 10
3.159376388888889
 20
8.463691666666667
 10
3.153168055555555
 20
8.482316666666667
 10
3.140765277777777
 20
8.494719444444445
 10
3.134556944444444
 20
8.500927777777778
 10
3.128348611111111
 20
8.507136111111112
 10
3.125251388888889
 20
8.513344444444445
 10
3.119043055555555
 20
8.519538888888888
 10
3.115945833333333
 20
8.528844444444445
 10
3.115945833333333
 20
8.535052777777778
 10
3.112834722222222
 20
8.544372222222222
 10
3.112834722222222
 20
8.553663888888889
 10
3.119043055555555
 20
8.662261111111112
 10
3.128348611111111
 20
8.770844444444444
 10
3.137654166666667
 20
8.882538888888889
 10
3.153168055555555
 20
8.991122222222223
 10
3.168681944444444
 20
9.099705555555555
 10
3.187293055555556
 20
9.205191666666667
 10
3.209015277777777
 20
9.313774999999999
 10
3.2307375
 20
9.422358333333333
 10
3.295890277777777
 20
9.65815
 10
3.292779166666666
 20
9.65815
 10
3.286584722222221
 20
9.661261111111111
 10
3.271056944444444
 20
9.664358333333334
 10
3.249348611111111
 20
9.670566666666667
 10
3.224529166666666
 20
9.676761111111112
 10
3.190404166666666
 20
9.686080555555555
 10
3.156265277777777
 20
9.695386111111112
 10
3.115945833333333
 20
9.707788888888888
 10
3.072515277777777
 20
9.720205555555555
 10
3.025959722222222
 20
9.732608333333333
 10
2.979431944444444
 20
9.745025
 10
2.932890277777777
 20
9.757427777777778
 10
2.883251388888889
 20
9.769844444444444
 10
2.839820833333333
 20
9.782247222222222
 10
2.796390277777777
 20
9.791552777777777
 10
2.756056944444444
 20
9.803969444444444
 10
2.718820833333333
 20
9.813275
 10
2.687793055555555
 20
9.822580555555555
 10
2.659876388888888
 20
9.828788888888889
 10
2.641265277777777
 20
9.834997222222222
 10
2.625751388888888
 20
9.838094444444445
  0
ARC
  5
16E
330
2
100
AcDbEntity
  8
PDF_Layer 1
 62
     7
420
 16777215
370
    70
100
AcDbCircle
 10
4.824890503646133
 20
9.249073855382167
 30
0.0
 40
1.582777616344404
100
AcDbArc
 50
359.9836510991582
 51
165.0216170979718
  0
ARC
  5
16F
330
2
100
AcDbEntity
  8
PDF_Layer 1
 62
     7
420
 16777215
370
    70
100
AcDbCircle
 10
4.825184700324602
 20
9.249018310828006
 30
0.0
 40
2.286747278423192
100
AcDbArc
 50
359.990075770177
 51
164.9913490787364
  0
LWPOLYLINE
  5
172
330
2
100
AcDbEntity
  8
PDF_Layer 1
 62
     7
420
 16777215
370
    70
100
AcDbPolyline
 90
       25
 70
     0
 43
0.0
 10
7.111931944444444
 20
5.327094444444444
 10
7.111931944444444
 20
9.248622222222222
 10
7.108820833333332
 20
9.248622222222222
 10
7.099515277777777
 20
9.248622222222222
 10
7.084015277777778
 20
9.248622222222222
 10
7.062293055555555
 20
9.248622222222222
 10
7.03747361111111
 20
9.248622222222222
 10
7.00334861111111
 20
9.248622222222222
 10
6.966112499999999
 20
9.248622222222222
 10
6.922681944444443
 20
9.248622222222222
 10
6.879251388888889
 20
9.248622222222222
 10
6.832709722222221
 20
9.248622222222222
 10
6.783070833333333
 20
9.248622222222222
 10
6.733431944444443
 20
9.248622222222222
 10
6.686890277777777
 20
9.248622222222222
 10
6.637251388888888
 20
9.248622222222222
 10
6.593820833333332
 20
9.248622222222222
 10
6.553487500000001
 20
9.248622222222222
 10
6.513154166666666
 20
9.248622222222222
 10
6.482126388888888
 20
9.248622222222222
 10
6.454195833333333
 20
9.248622222222222
 10
6.4324875
 20
9.248622222222222
 10
6.41697361111111
 20
9.248622222222222
 10
6.407668055555555
 20
9.248622222222222
 10
6.407668055555555
 20
5.327094444444444
  0
LWPOLYLINE
  5
174
330
2
100
AcDbEntity
  8
PDF_Layer 1
 62
     7
420
 16777215
370
    70
100
AcDbPolyline
 90
      159
 70
     1
 43
0.0
 10
7.602126388888889
 20
2.779955555555556
 10
7.599015277777777
 20
2.783066666666667
 10
7.595918055555555
 20
2.786177777777778
 10
7.592806944444443
 20
2.786177777777778
 10
7.589709722222222
 20
2.789261111111112
 10
7.586612499999999
 20
2.789261111111112
 10
7.583515277777777
 20
2.789261111111112
 10
7.574195833333332
 20
2.789261111111112
 10
7.558681944444442
 20
2.789261111111112
 10
7.533862499999999
 20
2.789261111111112
 10
7.505945833333333
 20
2.789261111111112
 10
7.471820833333332
 20
2.789261111111112
 10
7.428390277777777
 20
2.789261111111112
 10
7.381848611111109
 20
2.789261111111112
 10
7.332209722222222
 20
2.789261111111112
 10
7.276362499999999
 20
2.789261111111112
 10
7.214320833333331
 20
2.789261111111112
 10
7.152265277777777
 20
2.789261111111112
 10
7.084015277777778
 20
2.789261111111112
 10
7.015751388888888
 20
2.789261111111112
 10
6.944390277777777
 20
2.789261111111112
 10
6.869945833333334
 20
2.789261111111112
 10
6.795473611111111
 20
2.789261111111112
 10
6.721015277777777
 20
2.789261111111112
 10
6.646556944444444
 20
2.789261111111112
 10
6.575195833333332
 20
2.789261111111112
 10
6.503848611111109
 20
2.789261111111112
 10
6.4324875
 20
2.789261111111112
 10
6.367334722222222
 20
2.789261111111112
 10
6.302181944444443
 20
2.789261111111112
 10
6.243237499999999
 20
2.789261111111112
 10
6.187390277777776
 20
2.789261111111112
 10
6.134654166666665
 20
2.789261111111112
 10
6.0881125
 20
2.789261111111112
 10
6.047779166666666
 20
2.789261111111112
 10
6.013654166666666
 20
2.789261111111112
 10
5.982626388888888
 20
2.789261111111112
 10
5.960904166666665
 20
2.789261111111112
 10
5.942293055555555
 20
2.789261111111112
 10
5.932987499999999
 20
2.789261111111112
 10
5.929890277777777
 20
2.789261111111112
 10
5.926779166666666
 20
2.789261111111112
 10
5.926779166666666
 20
2.786177777777778
 10
5.923681944444443
 20
2.786177777777778
 10
5.920584722222221
 20
2.786177777777778
 10
5.917473611111111
 20
2.783066666666667
 10
5.917473611111111
 20
2.779955555555556
 10
5.908168055555555
 20
2.77066388888889
 10
5.901959722222222
 20
2.761358333333334
 10
5.895751388888888
 20
2.748941666666667
 10
5.892654166666666
 20
2.736525
 10
5.886459722222221
 20
2.724122222222223
 10
5.883348611111111
 20
2.711705555555556
 10
5.883348611111111
 20
2.699302777777778
 10
5.880251388888888
 20
2.686886111111112
 10
5.880251388888888
 20
2.683788888888889
 10
5.880251388888888
 20
2.680677777777778
 10
5.877140277777778
 20
2.677580555555556
 10
5.874043055555555
 20
2.677580555555556
 10
5.870931944444443
 20
2.674483333333334
 10
5.867834722222221
 20
2.671372222222222
 10
5.861626388888888
 20
2.671372222222222
 10
5.858529166666667
 20
2.671372222222222
 10
5.855431944444443
 20
2.671372222222222
 10
5.852334722222222
 20
2.668261111111111
 10
5.849223611111111
 20
2.665177777777779
 10
5.846126388888888
 20
2.662066666666667
 10
5.839918055555554
 20
2.649663888888889
 10
5.836806944444443
 20
2.637247222222223
 10
5.830612499999999
 20
2.624830555555557
 10
5.827501388888888
 20
2.609316666666667
 10
5.827501388888888
 20
2.59691388888889
 10
5.824404166666666
 20
2.58141388888889
 10
5.824404166666666
 20
2.568997222222224
 10
5.824404166666666
 20
2.553483333333335
 10
5.824404166666666
 20
2.550372222222223
 10
5.827501388888888
 20
2.547288888888889
 10
5.827501388888888
 20
2.544177777777778
 10
5.830612499999999
 20
2.544177777777778
 10
5.833709722222221
 20
2.541066666666668
 10
5.836806944444443
 20
2.541066666666668
 10
5.839918055555554
 20
2.537969444444445
 10
5.843015277777777
 20
2.537969444444445
 10
5.846126388888888
 20
2.537969444444445
 10
5.855431944444443
 20
2.537969444444445
 10
5.870931944444443
 20
2.537969444444445
 10
5.895751388888888
 20
2.537969444444445
 10
5.923681944444443
 20
2.537969444444445
 10
5.957806944444444
 20
2.537969444444445
 10
6.001237499999999
 20
2.537969444444445
 10
6.044681944444443
 20
2.537969444444445
 10
6.097418055555555
 20
2.537969444444445
 10
6.153265277777776
 20
2.537969444444445
 10
6.215320833333333
 20
2.537969444444445
 10
6.277362499999998
 20
2.537969444444445
 10
6.345626388888888
 20
2.537969444444445
 10
6.41697361111111
 20
2.537969444444445
 10
6.491431944444444
 20
2.537969444444445
 10
6.565890277777777
 20
2.537969444444445
 10
6.643459722222221
 20
2.537969444444445
 10
6.721015277777777
 20
2.537969444444445
 10
6.798584722222221
 20
2.537969444444445
 10
6.876140277777777
 20
2.537969444444445
 10
6.950598611111111
 20
2.537969444444445
 10
7.028168055555555
 20
2.537969444444445
 10
7.099515277777777
 20
2.537969444444445
 10
7.170876388888888
 20
2.537969444444445
 10
7.239140277777776
 20
2.537969444444445
 10
7.304293055555554
 20
2.537969444444445
 10
7.3632375
 20
2.537969444444445
 10
7.419070833333334
 20
2.537969444444445
 10
7.471820833333332
 20
2.537969444444445
 10
7.5183625
 20
2.537969444444445
 10
7.558681944444442
 20
2.537969444444445
 10
7.592806944444443
 20
2.537969444444445
 10
7.623834722222222
 20
2.537969444444445
 10
7.645556944444443
 20
2.537969444444445
 10
7.661070833333333
 20
2.537969444444445
 10
7.673487499999998
 20
2.537969444444445
 10
7.676584722222221
 20
2.537969444444445
 10
7.679681944444444
 20
2.537969444444445
 10
7.682793055555555
 20
2.541066666666668
 10
7.685890277777778
 20
2.541066666666668
 10
7.685890277777778
 20
2.544177777777778
 10
7.688987499999999
 20
2.544177777777778
 10
7.692084722222221
 20
2.547288888888889
 10
7.692084722222221
 20
2.550372222222223
 10
7.692084722222221
 20
2.553483333333335
 10
7.692084722222221
 20
2.568997222222224
 10
7.692084722222221
 20
2.58141388888889
 10
7.692084722222221
 20
2.59691388888889
 10
7.688987499999999
 20
2.609316666666667
 10
7.685890277777778
 20
2.624830555555557
 10
7.682793055555555
 20
2.637247222222223
 10
7.676584722222221
 20
2.649663888888889
 10
7.670376388888888
 20
2.662066666666667
 10
7.670376388888888
 20
2.665177777777779
 10
7.667279166666666
 20
2.665177777777779
 10
7.667279166666666
 20
2.668261111111111
 10
7.664168055555554
 20
2.668261111111111
 10
7.664168055555554
 20
2.671372222222222
 10
7.661070833333333
 20
2.671372222222222
 10
7.657959722222221
 20
2.671372222222222
 10
7.6548625
 20
2.671372222222222
 10
7.651765277777776
 20
2.671372222222222
 10
7.648654166666666
 20
2.674483333333334
 10
7.645556944444443
 20
2.674483333333334
 10
7.642459722222222
 20
2.677580555555556
 10
7.63934861111111
 20
2.677580555555556
 10
7.63934861111111
 20
2.680677777777778
 10
7.63934861111111
 20
2.683788888888889
 10
7.636251388888888
 20
2.686886111111112
 10
7.636251388888888
 20
2.699302777777778
 10
7.633140277777776
 20
2.711705555555556
 10
7.630043055555555
 20
2.724122222222223
 10
7.626945833333333
 20
2.736525
 10
7.6207375
 20
2.748941666666667
 10
7.614529166666667
 20
2.761358333333334
 10
7.608320833333333
 20
2.77066388888889
  0
LWPOLYLINE
  5
180
330
2
100
AcDbEntity
  8
PDF_Layer 1
 62
     7
420
 16777215
370
    70
100
AcDbPolyline
 90
       79
 70
     0
 43
0.0
 10
6.900959722222221
 20
4.110927777777778
 10
6.904070833333333
 20
4.309483333333334
 10
6.907168055555555
 20
4.545275
 10
6.91647361111111
 20
4.777955555555556
 10
6.928890277777776
 20
5.01065
 10
6.941293055555554
 20
5.246427777777778
 10
6.956806944444442
 20
5.479108333333333
 10
6.975418055555554
 20
5.711802777777778
 10
6.997140277777777
 20
5.944483333333334
 10
6.997140277777777
 20
5.947594444444444
 10
6.997140277777777
 20
5.950691666666667
 10
7.000237499999999
 20
5.953788888888889
 10
7.00334861111111
 20
5.9569
 10
7.006445833333332
 20
5.959997222222223
 10
7.009543055555555
 20
5.959997222222223
 10
7.012654166666665
 20
5.959997222222223
 10
7.015751388888888
 20
5.959997222222223
 10
7.031265277777777
 20
5.959997222222223
 10
7.031265277777777
 20
5.963108333333334
 10
7.034362499999998
 20
5.963108333333334
 10
7.03747361111111
 20
5.963108333333334
 10
7.03747361111111
 20
5.966205555555555
 10
7.040570833333331
 20
5.969302777777778
 10
7.040570833333331
 20
5.972413888888889
 10
7.040570833333331
 20
6.022052777777778
 10
7.040570833333331
 20
6.025163888888889
 10
7.03747361111111
 20
6.028247222222223
 10
7.034362499999998
 20
6.031358333333333
 10
7.031265277777777
 20
6.031358333333333
 10
7.028168055555555
 20
6.031358333333333
 10
7.015751388888888
 20
6.031358333333333
 10
7.000237499999999
 20
6.031358333333333
 10
6.978515277777777
 20
6.031358333333333
 10
6.950598611111111
 20
6.031358333333333
 10
6.919570833333333
 20
6.031358333333333
 10
6.88234861111111
 20
6.031358333333333
 10
6.842015277777777
 20
6.031358333333333
 10
6.801681944444444
 20
6.031358333333333
 10
6.758251388888888
 20
6.031358333333333
 10
6.717918055555555
 20
6.031358333333333
 10
6.67447361111111
 20
6.031358333333333
 10
6.637251388888888
 20
6.031358333333333
 10
6.600029166666665
 20
6.031358333333333
 10
6.565890277777777
 20
6.031358333333333
 10
6.541070833333332
 20
6.031358333333333
 10
6.516251388888887
 20
6.031358333333333
 10
6.500751388888888
 20
6.031358333333333
 10
6.491431944444444
 20
6.031358333333333
 10
6.488334722222221
 20
6.031358333333333
 10
6.485223611111111
 20
6.031358333333333
 10
6.482126388888888
 20
6.031358333333333
 10
6.479029166666665
 20
6.028247222222223
 10
6.479029166666665
 20
6.025163888888889
 10
6.479029166666665
 20
6.022052777777778
 10
6.475918055555554
 20
6.022052777777778
 10
6.475918055555554
 20
5.972413888888889
 10
6.479029166666665
 20
5.969302777777778
 10
6.479029166666665
 20
5.966205555555555
 10
6.479029166666665
 20
5.963108333333334
 10
6.482126388888888
 20
5.963108333333334
 10
6.485223611111111
 20
5.963108333333334
 10
6.488334722222221
 20
5.959997222222223
 10
6.503848611111109
 20
5.959997222222223
 10
6.506945833333332
 20
5.959997222222223
 10
6.510043055555554
 20
5.959997222222223
 10
6.513154166666666
 20
5.959997222222223
 10
6.516251388888887
 20
5.9569
 10
6.516251388888887
 20
5.953788888888889
 10
6.519362499999999
 20
5.950691666666667
 10
6.519362499999999
 20
5.947594444444444
 10
6.522459722222221
 20
5.944483333333334
 10
6.541070833333332
 20
5.711802777777778
 10
6.559695833333334
 20
5.479108333333333
 10
6.578306944444445
 20
5.246427777777778
 10
6.59072361111111
 20
5.01065
 10
6.600029166666665
 20
4.777955555555556
 10
6.609320833333333
 20
4.545275
 10
6.615529166666666
 20
4.309483333333334
 10
6.618640277777776
 20
4.110927777777778
  0
LWPOLYLINE
  5
189
330
2
100
AcDbEntity
  8
PDF_Layer 1
 62
     7
420
 16777215
370
    70
100
AcDbPolyline
 90
       34
 70
     0
 43
0.0
 10
7.021959722222222
 20
6.031358333333333
 10
7.01884861111111
 20
6.031358333333333
 10
7.015751388888888
 20
6.034469444444445
 10
7.012654166666665
 20
6.034469444444445
 10
7.009543055555555
 20
6.037552777777777
 10
7.006445833333332
 20
6.040663888888889
 10
7.006445833333332
 20
6.043775
 10
7.00334861111111
 20
6.046872222222223
 10
6.997140277777777
 20
6.046872222222223
 10
6.98472361111111
 20
6.046872222222223
 10
6.966112499999999
 20
6.046872222222223
 10
6.941293055555554
 20
6.046872222222223
 10
6.910265277777778
 20
6.046872222222223
 10
6.876140277777777
 20
6.046872222222223
 10
6.838918055555554
 20
6.046872222222223
 10
6.798584722222221
 20
6.046872222222223
 10
6.758251388888888
 20
6.046872222222223
 10
6.717918055555555
 20
6.046872222222223
 10
6.677584722222221
 20
6.046872222222223
 10
6.643459722222221
 20
6.046872222222223
 10
6.609320833333333
 20
6.046872222222223
 10
6.578306944444445
 20
6.046872222222223
 10
6.553487500000001
 20
6.046872222222223
 10
6.534876388888887
 20
6.046872222222223
 10
6.519362499999999
 20
6.046872222222223
 10
6.513154166666666
 20
6.046872222222223
 10
6.513154166666666
 20
6.043775
 10
6.510043055555554
 20
6.040663888888889
 10
6.510043055555554
 20
6.037552777777777
 10
6.506945833333332
 20
6.037552777777777
 10
6.503848611111109
 20
6.034469444444445
 10
6.500751388888888
 20
6.034469444444445
 10
6.497640277777776
 20
6.031358333333333
 10
6.494543055555555
 20
6.031358333333333
  0
LWPOLYLINE
  5
18F
330
2
100
AcDbEntity
  8
PDF_Layer 1
 62
     7
420
 16777215
370
    70
100
AcDbPolyline
 90
        2
 70
     0
 43
0.0
 10
6.758251388888888
 20
6.276455555555556
 10
6.758251388888888
 20
6.276455555555556
  0
CIRCLE
  5
192
330
2
100
AcDbEntity
  8
PDF_Layer 1
 62
     7
420
 16777215
370
    70
100
AcDbCircle
 10
6.758948933129181
 20
3.780958390237851
 30
0.0
 40
0.3618923958268378
  0
LWPOLYLINE
  5
193
330
2
100
AcDbEntity
  8
PDF_Layer 1
 62
     7
420
 16777215
370
    70
100
AcDbPolyline
 90
       24
 70
     0
 43
0.0
 10
7.567987499999999
 20
2.789261111111112
 10
7.533862499999999
 20
5.292969444444445
 10
7.533862499999999
 20
5.299163888888889
 10
7.530765277777776
 20
5.305386111111111
 10
7.527668055555555
 20
5.311580555555556
 10
7.521459722222221
 20
5.317788888888889
 10
7.5183625
 20
5.320900000000001
 10
7.512154166666666
 20
5.323983333333334
 10
7.505945833333333
 20
5.327094444444444
 10
7.496640277777776
 20
5.327094444444444
 10
7.493543055555555
 20
5.327094444444444
 10
7.48422361111111
 20
5.327094444444444
 10
7.468709722222222
 20
5.327094444444444
 10
7.443890277777777
 20
5.327094444444444
 10
7.415973611111111
 20
5.327094444444444
 10
7.381848611111109
 20
5.327094444444444
 10
7.341515277777777
 20
5.327094444444444
 10
7.29497361111111
 20
5.327094444444444
 10
7.242237499999999
 20
5.327094444444444
 10
7.186390277777777
 20
5.327094444444444
 10
7.127445833333332
 20
5.327094444444444
 10
7.065390277777778
 20
5.327094444444444
 10
7.000237499999999
 20
5.327094444444444
 10
6.947501388888888
 20
5.327094444444444
  0
LWPOLYLINE
  5
194
330
2
100
AcDbEntity
  8
PDF_Layer 1
 62
     7
420
 16777215
370
    70
100
AcDbPolyline
 90
       24
 70
     0
 43
0.0
 10
6.57209861111111
 20
5.327094444444444
 10
6.516251388888887
 20
5.327094444444444
 10
6.45109861111111
 20
5.327094444444444
 10
6.389056944444444
 20
5.327094444444444
 10
6.330098611111109
 20
5.327094444444444
 10
6.274265277777777
 20
5.327094444444444
 10
6.224626388888889
 20
5.327094444444444
 10
6.178084722222221
 20
5.327094444444444
 10
6.137751388888888
 20
5.327094444444444
 10
6.100529166666667
 20
5.327094444444444
 10
6.07259861111111
 20
5.327094444444444
 10
6.050876388888889
 20
5.327094444444444
 10
6.032265277777778
 20
5.327094444444444
 10
6.022959722222222
 20
5.327094444444444
 10
6.019862499999998
 20
5.327094444444444
 10
6.013654166666666
 20
5.327094444444444
 10
6.007445833333333
 20
5.323983333333334
 10
6.001237499999999
 20
5.320900000000001
 10
5.995043055555555
 20
5.317788888888889
 10
5.991931944444443
 20
5.311580555555556
 10
5.988834722222222
 20
5.305386111111111
 10
5.985737499999999
 20
5.299163888888889
 10
5.985737499999999
 20
5.292969444444445
 10
5.95159861111111
 20
2.789261111111112
  0
LWPOLYLINE
  5
197
330
2
100
AcDbEntity
  8
PDF_Layer 1
 62
     7
420
 16777215
370
    70
100
AcDbPolyline
 90
       44
 70
     1
 43
0.0
 10
2.551293055555555
 20
9.602302777777778
 10
2.560598611111111
 20
9.602302777777778
 10
2.573001388888888
 20
9.599205555555556
 10
2.591626388888888
 20
9.593011111111112
 10
2.616445833333333
 20
9.586802777777778
 10
2.647473611111111
 20
9.577483333333333
 10
2.681598611111111
 20
9.568177777777778
 10
2.721918055555555
 20
9.558872222222221
 10
2.7653625
 20
9.546455555555555
 10
2.808793055555555
 20
9.534052777777779
 10
2.855334722222222
 20
9.521636111111112
 10
2.904973611111111
 20
9.509233333333334
 10
2.951515277777777
 20
9.496830555555556
 10
2.998043055555555
 20
9.484413888888889
 10
3.0414875
 20
9.472011111111111
 10
3.081806944444444
 20
9.462691666666668
 10
3.119043055555555
 20
9.45028888888889
 10
3.153168055555555
 20
9.440983333333333
 10
3.181084722222222
 20
9.434775
 10
3.202806944444444
 20
9.428566666666666
 10
3.218320833333333
 20
9.425469444444445
 10
3.227626388888888
 20
9.422358333333333
 10
3.2307375
 20
9.422358333333333
 10
3.221431944444444
 20
9.422358333333333
 10
3.205918055555555
 20
9.428566666666666
 10
3.187293055555556
 20
9.434775
 10
3.159376388888889
 20
9.440983333333333
 10
3.128348611111111
 20
9.45028888888889
 10
3.091112499999999
 20
9.459594444444444
 10
3.050793055555555
 20
9.468899999999999
 10
3.007348611111111
 20
9.481316666666666
 10
2.960820833333333
 20
9.493719444444444
 10
2.914279166666666
 20
9.506136111111111
 10
2.8677375
 20
9.518538888888889
 10
2.821209722222222
 20
9.530955555555555
 10
2.774668055555555
 20
9.543358333333333
 10
2.7312375
 20
9.555775
 10
2.690904166666666
 20
9.565080555555555
 10
2.656765277777777
 20
9.574386111111111
 10
2.622640277777777
 20
9.583691666666666
 10
2.597820833333333
 20
9.5899
 10
2.576112499999999
 20
9.596108333333333
 10
2.560598611111111
 20
9.599205555555556
 10
2.554390277777777
 20
9.602302777777778
  0
LWPOLYLINE
  5
19A
330
2
100
AcDbEntity
  8
PDF_Layer 1
 62
     7
420
 16777215
370
    70
100
AcDbPolyline
 90
       38
 70
     0
 43
0.0
 10
5.861626388888888
 20
2.671372222222222
 10
5.8647375
 20
2.671372222222222
 10
5.870931944444443
 20
2.671372222222222
 10
5.883348611111111
 20
2.671372222222222
 10
5.901959722222222
 20
2.671372222222222
 10
5.929890277777777
 20
2.671372222222222
 10
5.960904166666665
 20
2.671372222222222
 10
5.998140277777777
 20
2.671372222222222
 10
6.041584722222221
 20
2.671372222222222
 10
6.091209722222221
 20
2.671372222222222
 10
6.147056944444443
 20
2.671372222222222
 10
6.202904166666666
 20
2.671372222222222
 10
6.268056944444444
 20
2.671372222222222
 10
6.333209722222221
 20
2.671372222222222
 10
6.40145972222222
 20
2.671372222222222
 10
6.475918055555554
 20
2.671372222222222
 10
6.547279166666665
 20
2.671372222222222
 10
6.62484861111111
 20
2.671372222222222
 10
6.702404166666665
 20
2.671372222222222
 10
6.7768625
 20
2.671372222222222
 10
6.854418055555555
 20
2.671372222222222
 10
6.931987499999999
 20
2.671372222222222
 10
7.006445833333332
 20
2.671372222222222
 10
7.080904166666666
 20
2.671372222222222
 10
7.149168055555554
 20
2.671372222222222
 10
7.217418055555555
 20
2.671372222222222
 10
7.282570833333332
 20
2.671372222222222
 10
7.3446125
 20
2.671372222222222
 10
7.400459722222221
 20
2.671372222222222
 10
7.45009861111111
 20
2.671372222222222
 10
7.496640277777776
 20
2.671372222222222
 10
7.540070833333333
 20
2.671372222222222
 10
7.574195833333332
 20
2.671372222222222
 10
7.602126388888889
 20
2.671372222222222
 10
7.626945833333333
 20
2.671372222222222
 10
7.642459722222222
 20
2.671372222222222
 10
7.651765277777776
 20
2.671372222222222
 10
7.6548625
 20
2.671372222222222
  0
CIRCLE
  5
19C
330
2
100
AcDbEntity
  8
PDF_Layer 1
 62
     7
420
 16777215
370
    70
100
AcDbCircle
 10
6.758442619594815
 20
3.77995913067199
 30
0.0
 40
0.3383732745073125
  0
ARC
  5
19D
330
2
100
AcDbEntity
  8
PDF_Layer 1
 62
     7
420
 16777215
370
    70
100
AcDbCircle
 10
6.758864880212167
 20
3.779646089632619
 30
0.0
 40
0.5973921300643575
100
AcDbArc
 50
104.1816859302225
 51
75.9324074054573
  0
LWPOLYLINE
  5
1A0
330
2
100
AcDbEntity
  8
PDF_Layer 1
 62
     7
420
 16777215
370
    70
100
AcDbPolyline
 90
       28
 70
     0
 43
0.0
 10
3.140765277777777
 20
8.494719444444445
 10
3.137654166666667
 20
8.494719444444445
 10
3.128348611111111
 20
8.497816666666667
 10
3.112834722222222
 20
8.500927777777778
 10
3.088015277777778
 20
8.507136111111112
 10
3.060098611111111
 20
8.516441666666667
 10
3.025959722222222
 20
8.525747222222221
 10
2.9887375
 20
8.535052777777778
 10
2.945306944444444
 20
8.547469444444445
 10
2.898765277777777
 20
8.559872222222223
 10
2.846029166666666
 20
8.572288888888889
 10
2.793279166666666
 20
8.587788888888889
 10
2.737445833333333
 20
8.603316666666668
 10
2.681598611111111
 20
8.615719444444444
 10
2.625751388888888
 20
8.631233333333334
 10
2.569904166666666
 20
8.646747222222222
 10
2.514056944444444
 20
8.662261111111112
 10
2.461320833333333
 20
8.677775
 10
2.411681944444444
 20
8.690177777777778
 10
2.362043055555555
 20
8.702594444444445
 10
2.318598611111111
 20
8.714997222222223
 10
2.281376388888888
 20
8.724316666666666
 10
2.247251388888888
 20
8.733622222222223
 10
2.219320833333333
 20
8.742913888888889
 10
2.197612499999999
 20
8.746025000000001
 10
2.179001388888889
 20
8.752233333333334
 10
2.169681944444444
 20
8.755330555555556
 10
2.166584722222222
 20
8.755330555555556
  0
LWPOLYLINE
  5
1A1
330
2
100
AcDbEntity
  8
PDF_Layer 1
 62
     7
420
 16777215
370
    70
100
AcDbPolyline
 90
       27
 70
     0
 43
0.0
 10
2.219320833333333
 20
8.792566666666667
 10
2.222431944444444
 20
8.792566666666667
 10
2.231737499999999
 20
8.789455555555555
 10
2.250348611111111
 20
8.783247222222222
 10
2.272070833333333
 20
8.78015
 10
2.2999875
 20
8.770844444444444
 10
2.331015277777777
 20
8.761538888888889
 10
2.371348611111111
 20
8.752233333333334
 10
2.411681944444444
 20
8.739816666666667
 10
2.458223611111111
 20
8.727413888888889
 10
2.507848611111111
 20
8.714997222222223
 10
2.560598611111111
 20
8.702594444444445
 10
2.613348611111111
 20
8.687080555555555
 10
2.666084722222222
 20
8.671566666666667
 10
2.721918055555555
 20
8.65915
 10
2.774668055555555
 20
8.643636111111112
 10
2.824306944444444
 20
8.631233333333334
 10
2.873945833333333
 20
8.615719444444444
 10
2.9204875
 20
8.603316666666668
 10
2.963918055555555
 20
8.593997222222222
 10
3.001154166666666
 20
8.584691666666667
 10
3.035279166666666
 20
8.575386111111111
 10
3.063195833333333
 20
8.566080555555556
 10
3.084918055555555
 20
8.559872222222223
 10
3.100431944444444
 20
8.556775
 10
3.1097375
 20
8.553663888888889
 10
3.112834722222222
 20
8.553663888888889
  0
LWPOLYLINE
  5
1A4
330
2
100
AcDbEntity
  8
PDF_Layer 1
 62
     7
420
 16777215
370
    70
100
AcDbPolyline
 90
       37
 70
     0
 43
0.0
 10
5.846126388888888
 20
2.662066666666667
 10
5.855431944444443
 20
2.662066666666667
 10
5.867834722222221
 20
2.662066666666667
 10
5.886459722222221
 20
2.662066666666667
 10
5.914376388888888
 20
2.662066666666667
 10
5.948501388888887
 20
2.662066666666667
 10
5.985737499999999
 20
2.662066666666667
 10
6.029168055555555
 20
2.662066666666667
 10
6.078806944444444
 20
2.662066666666667
 10
6.134654166666665
 20
2.662066666666667
 10
6.193598611111111
 20
2.662066666666667
 10
6.258751388888887
 20
2.662066666666667
 10
6.327001388888888
 20
2.662066666666667
 10
6.395251388888889
 20
2.662066666666667
 10
6.46972361111111
 20
2.662066666666667
 10
6.544181944444444
 20
2.662066666666667
 10
6.6217375
 20
2.662066666666667
 10
6.699293055555555
 20
2.662066666666667
 10
6.779973611111111
 20
2.662066666666667
 10
6.857529166666665
 20
2.662066666666667
 10
6.93509861111111
 20
2.662066666666667
 10
7.009543055555555
 20
2.662066666666667
 10
7.084015277777778
 20
2.662066666666667
 10
7.15847361111111
 20
2.662066666666667
 10
7.226723611111109
 20
2.662066666666667
 10
7.291876388888887
 20
2.662066666666667
 10
7.353918055555555
 20
2.662066666666667
 10
7.409765277777777
 20
2.662066666666667
 10
7.462515277777777
 20
2.662066666666667
 10
7.512154166666666
 20
2.662066666666667
 10
7.552487499999999
 20
2.662066666666667
 10
7.586612499999999
 20
2.662066666666667
 10
7.617640277777777
 20
2.662066666666667
 10
7.642459722222222
 20
2.662066666666667
 10
7.657959722222221
 20
2.662066666666667
 10
7.667279166666666
 20
2.662066666666667
 10
7.670376388888888
 20
2.662066666666667
  0
LWPOLYLINE
  5
1A5
330
2
100
AcDbEntity
  8
PDF_Layer 1
 62
     7
420
 16777215
370
    70
100
AcDbPolyline
 90
       38
 70
     0
 43
0.0
 10
5.824404166666666
 20
2.553483333333335
 10
5.827501388888888
 20
2.553483333333335
 10
5.839918055555554
 20
2.553483333333335
 10
5.855431944444443
 20
2.553483333333335
 10
5.877140277777778
 20
2.553483333333335
 10
5.908168055555555
 20
2.553483333333335
 10
5.942293055555555
 20
2.553483333333335
 10
5.985737499999999
 20
2.553483333333335
 10
6.032265277777778
 20
2.553483333333335
 10
6.085001388888888
 20
2.553483333333335
 10
6.140848611111112
 20
2.553483333333335
 10
6.202904166666666
 20
2.553483333333335
 10
6.268056944444444
 20
2.553483333333335
 10
6.339418055555555
 20
2.553483333333335
 10
6.410779166666666
 20
2.553483333333335
 10
6.485223611111111
 20
2.553483333333335
 10
6.562793055555555
 20
2.553483333333335
 10
6.640348611111111
 20
2.553483333333335
 10
6.717918055555555
 20
2.553483333333335
 10
6.798584722222221
 20
2.553483333333335
 10
6.876140277777777
 20
2.553483333333335
 10
6.956806944444442
 20
2.553483333333335
 10
7.031265277777777
 20
2.553483333333335
 10
7.105723611111111
 20
2.553483333333335
 10
7.180181944444443
 20
2.553483333333335
 10
7.248445833333333
 20
2.553483333333335
 10
7.313584722222222
 20
2.553483333333335
 10
7.375640277777778
 20
2.553483333333335
 10
7.43458472222222
 20
2.553483333333335
 10
7.48422361111111
 20
2.553483333333335
 10
7.533862499999999
 20
2.553483333333335
 10
7.574195833333332
 20
2.553483333333335
 10
7.611431944444444
 20
2.553483333333335
 10
7.63934861111111
 20
2.553483333333335
 10
7.664168055555554
 20
2.553483333333335
 10
7.679681944444444
 20
2.553483333333335
 10
7.688987499999999
 20
2.553483333333335
 10
7.692084722222221
 20
2.553483333333335
  0
LWPOLYLINE
  5
1A6
330
2
100
AcDbEntity
  8
PDF_Layer 1
 62
     7
420
 16777215
370
    70
100
AcDbPolyline
 90
       37
 70
     0
 43
0.0
 10
5.880251388888888
 20
2.686886111111112
 10
5.883348611111111
 20
2.686886111111112
 10
5.892654166666666
 20
2.686886111111112
 10
5.911279166666666
 20
2.686886111111112
 10
5.932987499999999
 20
2.686886111111112
 10
5.964015277777777
 20
2.686886111111112
 10
5.998140277777777
 20
2.686886111111112
 10
6.038473611111109
 20
2.686886111111112
 10
6.085001388888888
 20
2.686886111111112
 10
6.137751388888888
 20
2.686886111111112
 10
6.193598611111111
 20
2.686886111111112
 10
6.255654166666666
 20
2.686886111111112
 10
6.320806944444445
 20
2.686886111111112
 10
6.389056944444444
 20
2.686886111111112
 10
6.457306944444443
 20
2.686886111111112
 10
6.531765277777777
 20
2.686886111111112
 10
6.606223611111111
 20
2.686886111111112
 10
6.683793055555554
 20
2.686886111111112
 10
6.758251388888888
 20
2.686886111111112
 10
6.835806944444444
 20
2.686886111111112
 10
6.910265277777778
 20
2.686886111111112
 10
6.987834722222222
 20
2.686886111111112
 10
7.059195833333332
 20
2.686886111111112
 10
7.130543055555554
 20
2.686886111111112
 10
7.198793055555555
 20
2.686886111111112
 10
7.263945833333332
 20
2.686886111111112
 10
7.322890277777778
 20
2.686886111111112
 10
7.378737499999999
 20
2.686886111111112
 10
7.431487499999999
 20
2.686886111111112
 10
7.478015277777776
 20
2.686886111111112
 10
7.5183625
 20
2.686886111111112
 10
7.555584722222221
 20
2.686886111111112
 10
7.583515277777777
 20
2.686886111111112
 10
7.608320833333333
 20
2.686886111111112
 10
7.623834722222222
 20
2.686886111111112
 10
7.633140277777776
 20
2.686886111111112
 10
7.636251388888888
 20
2.686886111111112
  0
LWPOLYLINE
  5
1A7
330
2
100
AcDbEntity
  8
PDF_Layer 1
 62
     7
420
 16777215
370
    70
100
AcDbPolyline
 90
       36
 70
     0
 43
0.0
 10
5.917473611111111
 20
2.779955555555556
 10
5.923681944444443
 20
2.779955555555556
 10
5.936084722222222
 20
2.779955555555556
 10
5.957806944444444
 20
2.779955555555556
 10
5.982626388888888
 20
2.779955555555556
 10
6.013654166666666
 20
2.779955555555556
 10
6.050876388888889
 20
2.779955555555556
 10
6.094320833333332
 20
2.779955555555556
 10
6.143959722222222
 20
2.779955555555556
 10
6.196695833333333
 20
2.779955555555556
 10
6.255654166666666
 20
2.779955555555556
 10
6.317695833333333
 20
2.779955555555556
 10
6.382848611111111
 20
2.779955555555556
 10
6.448001388888888
 20
2.779955555555556
 10
6.519362499999999
 20
2.779955555555556
 10
6.593820833333332
 20
2.779955555555556
 10
6.665168055555554
 20
2.779955555555556
 10
6.739626388888888
 20
2.779955555555556
 10
6.814098611111111
 20
2.779955555555556
 10
6.888543055555555
 20
2.779955555555556
 10
6.963015277777778
 20
2.779955555555556
 10
7.034362499999998
 20
2.779955555555556
 10
7.102626388888888
 20
2.779955555555556
 10
7.170876388888888
 20
2.779955555555556
 10
7.232931944444443
 20
2.779955555555556
 10
7.291876388888887
 20
2.779955555555556
 10
7.347723611111112
 20
2.779955555555556
 10
7.400459722222221
 20
2.779955555555556
 10
7.443890277777777
 20
2.779955555555556
 10
7.48422361111111
 20
2.779955555555556
 10
7.521459722222221
 20
2.779955555555556
 10
7.549376388888887
 20
2.779955555555556
 10
7.571098611111111
 20
2.779955555555556
 10
7.589709722222222
 20
2.779955555555556
 10
7.599015277777777
 20
2.779955555555556
 10
7.602126388888889
 20
2.779955555555556
  0
LWPOLYLINE
  5
1A8
330
2
100
AcDbEntity
  8
PDF_Layer 1
 62
     7
420
 16777215
370
    70
100
AcDbPolyline
 90
       22
 70
     0
 43
0.0
 10
6.475918055555554
 20
5.972413888888889
 10
6.479029166666665
 20
5.972413888888889
 10
6.482126388888888
 20
5.972413888888889
 10
6.494543055555555
 20
5.972413888888889
 10
6.510043055555554
 20
5.972413888888889
 10
6.534876388888887
 20
5.972413888888889
 10
6.562793055555555
 20
5.972413888888889
 10
6.596918055555555
 20
5.972413888888889
 10
6.634154166666666
 20
5.972413888888889
 10
6.67447361111111
 20
5.972413888888889
 10
6.714820833333332
 20
5.972413888888889
 10
6.758251388888888
 20
5.972413888888889
 10
6.801681944444444
 20
5.972413888888889
 10
6.8451125
 20
5.972413888888889
 10
6.885445833333333
 20
5.972413888888889
 10
6.919570833333333
 20
5.972413888888889
 10
6.953709722222221
 20
5.972413888888889
 10
6.981626388888889
 20
5.972413888888889
 10
7.006445833333332
 20
5.972413888888889
 10
7.025056944444443
 20
5.972413888888889
 10
7.034362499999998
 20
5.972413888888889
 10
7.040570833333331
 20
5.972413888888889
  0
LWPOLYLINE
  5
1AA
330
2
100
AcDbEntity
  8
PDF_Layer 1
 62
     7
420
 16777215
370
    70
100
AcDbPolyline
 90
       21
 70
     0
 43
0.0
 10
7.031265277777777
 20
5.959997222222223
 10
7.028168055555555
 20
5.959997222222223
 10
7.015751388888888
 20
5.959997222222223
 10
7.000237499999999
 20
5.959997222222223
 10
6.978515277777777
 20
5.959997222222223
 10
6.950598611111111
 20
5.959997222222223
 10
6.919570833333333
 20
5.959997222222223
 10
6.88234861111111
 20
5.959997222222223
 10
6.842015277777777
 20
5.959997222222223
 10
6.801681944444444
 20
5.959997222222223
 10
6.758251388888888
 20
5.959997222222223
 10
6.717918055555555
 20
5.959997222222223
 10
6.67447361111111
 20
5.959997222222223
 10
6.637251388888888
 20
5.959997222222223
 10
6.600029166666665
 20
5.959997222222223
 10
6.565890277777777
 20
5.959997222222223
 10
6.541070833333332
 20
5.959997222222223
 10
6.516251388888887
 20
5.959997222222223
 10
6.500751388888888
 20
5.959997222222223
 10
6.491431944444444
 20
5.959997222222223
 10
6.488334722222221
 20
5.959997222222223
  0
LWPOLYLINE
  5
1AB
330
2
100
AcDbEntity
  8
PDF_Layer 1
 62
     7
420
 16777215
370
    70
100
AcDbPolyline
 90
       22
 70
     0
 43
0.0
 10
7.040570833333331
 20
6.022052777777778
 10
7.034362499999998
 20
6.022052777777778
 10
7.025056944444443
 20
6.022052777777778
 10
7.006445833333332
 20
6.022052777777778
 10
6.981626388888889
 20
6.022052777777778
 10
6.953709722222221
 20
6.022052777777778
 10
6.919570833333333
 20
6.022052777777778
 10
6.885445833333333
 20
6.022052777777778
 10
6.8451125
 20
6.022052777777778
 10
6.801681944444444
 20
6.022052777777778
 10
6.758251388888888
 20
6.022052777777778
 10
6.714820833333332
 20
6.022052777777778
 10
6.67447361111111
 20
6.022052777777778
 10
6.634154166666666
 20
6.022052777777778
 10
6.596918055555555
 20
6.022052777777778
 10
6.562793055555555
 20
6.022052777777778
 10
6.534876388888887
 20
6.022052777777778
 10
6.510043055555554
 20
6.022052777777778
 10
6.494543055555555
 20
6.022052777777778
 10
6.482126388888888
 20
6.022052777777778
 10
6.479029166666665
 20
6.022052777777778
 10
6.475918055555554
 20
6.022052777777778
  0
LWPOLYLINE
  5
1AD
330
2
100
AcDbEntity
  8
PDF_Layer 1
 62
     7
420
 16777215
370
    70
100
AcDbPolyline
 90
       21
 70
     0
 43
0.0
 10
6.503848611111109
 20
5.959997222222223
 10
6.506945833333332
 20
5.959997222222223
 10
6.513154166666666
 20
5.959997222222223
 10
6.528668055555554
 20
5.959997222222223
 10
6.547279166666665
 20
5.959997222222223
 10
6.575195833333332
 20
5.959997222222223
 10
6.606223611111111
 20
5.959997222222223
 10
6.640348611111111
 20
5.959997222222223
 10
6.677584722222221
 20
5.959997222222223
 10
6.717918055555555
 20
5.959997222222223
 10
6.758251388888888
 20
5.959997222222223
 10
6.798584722222221
 20
5.959997222222223
 10
6.838918055555554
 20
5.959997222222223
 10
6.876140277777777
 20
5.959997222222223
 10
6.913376388888888
 20
5.959997222222223
 10
6.944390277777777
 20
5.959997222222223
 10
6.969223611111109
 20
5.959997222222223
 10
6.990931944444444
 20
5.959997222222223
 10
7.00334861111111
 20
5.959997222222223
 10
7.012654166666665
 20
5.959997222222223
 10
7.015751388888888
 20
5.959997222222223
  0
LWPOLYLINE
  5
1B0
330
2
100
AcDbEntity
  8
PDF_Layer 1
 62
     7
420
 16777215
370
    70
100
AcDbPolyline
 90
       19
 70
     0
 43
0.0
 10
6.997140277777777
 20
5.944483333333334
 10
6.994043055555556
 20
5.944483333333334
 10
6.987834722222222
 20
5.944483333333334
 10
6.972320833333332
 20
5.944483333333334
 10
6.950598611111111
 20
5.944483333333334
 10
6.922681944444443
 20
5.944483333333334
 10
6.891654166666667
 20
5.944483333333334
 10
6.857529166666665
 20
5.944483333333334
 10
6.820293055555556
 20
5.944483333333334
 10
6.779973611111111
 20
5.944483333333334
 10
6.739626388888888
 20
5.944483333333334
 10
6.699293055555555
 20
5.944483333333334
 10
6.662070833333332
 20
5.944483333333334
 10
6.62484861111111
 20
5.944483333333334
 10
6.593820833333332
 20
5.944483333333334
 10
6.569001388888889
 20
5.944483333333334
 10
6.547279166666665
 20
5.944483333333334
 10
6.531765277777777
 20
5.944483333333334
 10
6.522459722222221
 20
5.944483333333334
  0
ARC
  5
1B1
330
2
100
AcDbEntity
  8
PDF_Layer 1
 62
     7
420
 16777215
370
    70
100
AcDbCircle
 10
6.758859282353519
 20
3.780837315738525
 30
0.0
 40
0.5627197578610094
100
AcDbArc
 50
104.7563773526012
 51
75.05853265976792
  0
LWPOLYLINE
  5
1B2
330
2
100
AcDbEntity
  8
PDF_Layer 1
 62
     7
420
 16777215
370
    70
100
AcDbPolyline
 90
       44
 70
     0
 43
0.0
 10
6.907168055555555
 20
4.461511111111111
 10
6.944390277777777
 20
4.449094444444444
 10
7.01884861111111
 20
4.418066666666668
 10
7.093320833333333
 20
4.371525
 10
7.161570833333334
 20
4.315691666666666
 10
7.195695833333331
 20
4.281566666666667
 10
7.263945833333332
 20
4.185386111111112
 10
7.319793055555555
 20
4.083011111111112
 10
7.347723611111112
 20
3.999247222222224
 10
7.369431944444444
 20
3.912372222222223
 10
7.378737499999999
 20
3.8379
 10
7.378737499999999
 20
3.760344444444444
 10
7.375640277777778
 20
3.685886111111112
 10
7.3632375
 20
3.611427777777779
 10
7.332209722222222
 20
3.51215
 10
7.291876388888887
 20
3.419066666666668
 10
7.226723611111109
 20
3.313580555555556
 10
7.13984861111111
 20
3.223622222222223
 10
7.062293055555555
 20
3.164677777777778
 10
6.972320833333332
 20
3.118136111111112
 10
6.891654166666667
 20
3.090205555555556
 10
6.807890277777778
 20
3.077802777777779
 10
6.721015277777777
 20
3.077802777777779
 10
6.634154166666666
 20
3.090205555555556
 10
6.556584722222222
 20
3.111927777777778
 10
6.482126388888888
 20
3.14915
 10
6.407668055555555
 20
3.198802777777778
 10
6.342515277777778
 20
3.254636111111111
 10
6.277362499999998
 20
3.332205555555556
 10
6.218418055555554
 20
3.431483333333334
 10
6.181181944444444
 20
3.521455555555556
 10
6.153265277777776
 20
3.617636111111112
 10
6.140848611111112
 20
3.695191666666667
 10
6.137751388888888
 20
3.772761111111111
 10
6.140848611111112
 20
3.850316666666667
 10
6.153265277777776
 20
3.927886111111112
 10
6.178084722222221
 20
4.024066666666667
 10
6.212209722222221
 20
4.110927777777778
 10
6.274265277777777
 20
4.219511111111112
 10
6.354931944444443
 20
4.312580555555556
 10
6.4324875
 20
4.377733333333333
 10
6.522459722222221
 20
4.427386111111111
 10
6.603126388888886
 20
4.4584
 10
6.609320833333333
 20
4.461511111111111
  0
LWPOLYLINE
  5
1B4
330
2
100
AcDbEntity
  8
PDF_Layer 1
 62
     7
420
 16777215
370
    70
100
AcDbPolyline
 90
       16
 70
     0
 43
0.0
 10
7.533862499999999
 20
5.292969444444445
 10
7.530765277777776
 20
5.292969444444445
 10
7.521459722222221
 20
5.292969444444445
 10
7.502834722222221
 20
5.292969444444445
 10
7.481126388888888
 20
5.292969444444445
 10
7.453209722222222
 20
5.292969444444445
 10
7.415973611111111
 20
5.292969444444445
 10
7.375640277777778
 20
5.292969444444445
 10
7.332209722222222
 20
5.292969444444445
 10
7.279459722222222
 20
5.292969444444445
 10
7.226723611111109
 20
5.292969444444445
 10
7.167779166666665
 20
5.292969444444445
 10
7.102626388888888
 20
5.292969444444445
 10
7.03747361111111
 20
5.292969444444445
 10
6.972320833333332
 20
5.292969444444445
 10
6.944390277777777
 20
5.292969444444445
  0
LWPOLYLINE
  5
1B5
330
2
100
AcDbEntity
  8
PDF_Layer 1
 62
     7
420
 16777215
370
    70
100
AcDbPolyline
 90
       16
 70
     0
 43
0.0
 10
6.575195833333332
 20
5.292969444444445
 10
6.547279166666665
 20
5.292969444444445
 10
6.479029166666665
 20
5.292969444444445
 10
6.413876388888889
 20
5.292969444444445
 10
6.351820833333333
 20
5.292969444444445
 10
6.292876388888888
 20
5.292969444444445
 10
6.237029166666665
 20
5.292969444444445
 10
6.187390277777776
 20
5.292969444444445
 10
6.140848611111112
 20
5.292969444444445
 10
6.100529166666667
 20
5.292969444444445
 10
6.066404166666666
 20
5.292969444444445
 10
6.035376388888888
 20
5.292969444444445
 10
6.013654166666666
 20
5.292969444444445
 10
5.998140277777777
 20
5.292969444444445
 10
5.988834722222222
 20
5.292969444444445
 10
5.985737499999999
 20
5.292969444444445
  0
LWPOLYLINE
  5
1B6
330
2
100
AcDbEntity
  8
PDF_Layer 1
 62
     7
420
 16777215
370
    25
100
AcDbPolyline
 90
        2
 70
     0
 43
0.0
 10
11.55683055555555
 20
7.058533333333333
 10
12.51273333333333
 20
7.058533333333333
  0
LWPOLYLINE
  5
1B7
330
2
100
AcDbEntity
  8
PDF_Layer 1
 62
     7
420
 16777215
370
    25
100
AcDbPolyline
 90
        2
 70
     0
 43
0.0
 10
13.36414861111111
 20
7.058533333333333
 10
13.84870416666666
 20
7.058533333333333
  0
LWPOLYLINE
  5
1B8
330
2
100
AcDbEntity
  8
PDF_Layer 1
 62
     7
420
 16777215
370
    25
100
AcDbPolyline
 90
        2
 70
     0
 43
0.0
 10
12.58599166666666
 20
7.058533333333333
 10
13.29025555555555
 20
7.058533333333333
  0
LWPOLYLINE
  5
1B9
330
2
100
AcDbEntity
  8
PDF_Layer 1
 62
     7
420
 16777215
370
    25
100
AcDbPolyline
 90
        2
 70
     0
 43
0.0
 10
15.01782222222222
 20
6.276455555555555
 10
16.39583611111111
 20
6.276455555555555
  0
LWPOLYLINE
  5
1BA
330
2
100
AcDbEntity
  8
PDF_Layer 1
 62
     7
420
 16777215
370
    25
100
AcDbPolyline
 90
        2
 70
     0
 43
0.0
 10
16.35065416666666
 20
6.21427361111111
 10
16.35065416666666
 20
3.84114861111111
  0
LWPOLYLINE
  5
1BB
330
2
100
AcDbEntity
  8
PDF_Layer 1
 62
     7
420
 16777215
370
    25
100
AcDbPolyline
 90
        2
 70
     0
 43
0.0
 10
5.9454
 20
2.789265277777777
 10
5.9454
 20
1.619640277777777
  0
LWPOLYLINE
  5
1BC
330
2
100
AcDbEntity
  8
PDF_Layer 1
 62
     7
420
 16777215
370
    25
100
AcDbPolyline
 90
        2
 70
     0
 43
0.0
 10
7.571098611111111
 20
2.789265277777777
 10
7.571098611111111
 20
1.619640277777777
  0
LWPOLYLINE
  5
1BD
330
2
100
AcDbEntity
  8
PDF_Layer 1
 62
     7
420
 16777215
370
    25
100
AcDbPolyline
 90
        2
 70
     0
 43
0.0
 10
5.824401388888888
 20
2.553480555555555
 10
5.824401388888888
 20
0.9557027777777779
  0
LWPOLYLINE
  5
1BE
330
2
100
AcDbEntity
  8
PDF_Layer 1
 62
     7
420
 16777215
370
    25
100
AcDbPolyline
 90
        2
 70
     0
 43
0.0
 10
7.692091666666664
 20
2.553480555555555
 10
7.692091666666664
 20
0.9557027777777779
  0
LWPOLYLINE
  5
1BF
330
2
100
AcDbEntity
  8
PDF_Layer 1
 62
     7
420
 16777215
370
    25
100
AcDbPolyline
 90
        2
 70
     0
 43
0.0
 10
7.676581944444444
 20
2.537963888888888
 10
8.750040277777777
 20
2.537963888888888
  0
LWPOLYLINE
  5
1C0
330
2
100
AcDbEntity
  8
PDF_Layer 1
 62
     7
420
 16777215
370
    25
100
AcDbPolyline
 90
        2
 70
     0
 43
0.0
 10
6.007581944444444
 20
1.796481944444444
 10
7.508915277777777
 20
1.796481944444444
  0
LWPOLYLINE
  5
1C1
330
2
100
AcDbEntity
  8
PDF_Layer 1
 62
     7
420
 16777215
370
    25
100
AcDbPolyline
 90
        2
 70
     0
 43
0.0
 10
7.571098611111111
 20
1.796481944444444
 10
8.750043055555554
 20
1.796481944444444
  0
LWPOLYLINE
  5
1C2
330
2
100
AcDbEntity
  8
PDF_Layer 1
 62
     7
420
 16777215
370
    25
100
AcDbPolyline
 90
        2
 70
     0
 43
0.0
 10
5.886590277777777
 20
1.132541666666666
 10
7.629909722222222
 20
1.132541666666666
  0
LWPOLYLINE
  5
1C3
330
2
100
AcDbEntity
  8
PDF_Layer 1
 62
     7
420
 16777215
370
    25
100
AcDbPolyline
 90
        2
 70
     0
 43
0.0
 10
5.843018055555554
 20
2.537963888888888
 10
1.052795833333333
 20
2.537963888888888
  0
LWPOLYLINE
  5
1C4
330
2
100
AcDbEntity
  8
PDF_Layer 1
 62
     7
420
 16777215
370
    25
100
AcDbPolyline
 90
        2
 70
     0
 43
0.0
 10
6.019856944444443
 20
5.327094444444444
 10
5.331106944444443
 20
5.327094444444444
  0
LWPOLYLINE
  5
1C5
330
2
100
AcDbEntity
  8
PDF_Layer 1
 62
     7
420
 16777215
370
    25
100
AcDbPolyline
 90
        2
 70
     0
 43
0.0
 10
1.127230555555555
 20
8.463562499999998
 10
1.127230555555555
 20
2.600145833333331
  0
LWPOLYLINE
  5
1C6
330
2
100
AcDbEntity
  8
PDF_Layer 1
 62
     7
420
 16777215
370
    25
100
AcDbPolyline
 90
        3
 70
     0
 43
0.0
 10
0.5998375000000001
 20
8.525749999999998
 10
2.628851388888888
 20
8.525749999999998
 10
2.628851388888888
 20
7.28786111111111
  0
LWPOLYLINE
  5
1C7
330
2
100
AcDbEntity
  8
PDF_Layer 1
 62
     7
420
 16777215
370
    25
100
AcDbPolyline
 90
        2
 70
     0
 43
0.0
 10
8.690226388888889
 20
11.47296805555555
 10
8.690226388888889
 20
2.600148611111112
  0
LWPOLYLINE
  5
1C8
330
2
100
AcDbEntity
  8
PDF_Layer 1
 62
     7
420
 16777215
370
    25
100
AcDbPolyline
 90
        2
 70
     0
 43
0.0
 10
2.160380555555555
 20
8.65294722222222
 10
0.6680888888888889
 20
9.053169444444442
  0
LWPOLYLINE
  5
1CA
330
2
100
AcDbEntity
  8
PDF_Layer 1
 62
     7
420
 16777215
370
    25
100
AcDbPolyline
 90
        9
 70
     0
 43
0.0
 10
0.8387249999999999
 20
9.006631944444443
 10
0.8232111111111109
 20
8.947687499999998
 10
0.8108083333333333
 20
8.888743055555554
 10
0.7983916666666666
 20
8.82979861111111
 10
0.7921833333333332
 20
8.767743055555554
 10
0.7828777777777778
 20
8.708798611111109
 10
0.7797805555555555
 20
8.646743055555553
 10
0.7766694444444445
 20
8.587798611111109
 10
0.7735722222222222
 20
8.525743055555555
  0
LWPOLYLINE
  5
1CB
330
2
100
AcDbEntity
  8
PDF_Layer 1
 62
     7
420
 16777215
370
    25
100
AcDbPolyline
 90
        9
 70
     0
 43
0.0
 10
1.058999999999999
 20
9.51233611111111
 10
1.027972222222222
 20
9.4596
 10
0.9969444444444444
 20
9.40685
 10
0.9690277777777776
 20
9.351002777777777
 10
0.9411111111111109
 20
9.295155555555554
 10
0.9162916666666665
 20
9.239322222222222
 10
0.8945694444444443
 20
9.183474999999999
 10
0.8728472222222221
 20
9.124530555555555
 10
0.8546111111111111
 20
9.066752777777777
  0
MTEXT
  5
1CC
330
2
100
AcDbEntity
  8
PDF_Text
 62
     7
420
 16777215
100
AcDbMText
 10
4.322631944444443
 20
7.449926731944444
 30
0.0
 40
0.314152657063802
 41
0.0
 46
0.0
 71
     7
 72
     5
  1
118
  7
PDF Arial
 73
     1
 44
1.0
  0
MTEXT
  5
1CD
330
2
100
AcDbEntity
  8
PDF_Text
 62
     7
420
 16777215
100
AcDbMText
 10
11.59707361111111
 20
7.115793398611109
 30
0.0
 40
0.314152657063802
 41
0.0
 46
0.0
 71
     7
 72
     5
  1
Ø20
  7
PDF Arial
 73
     1
 44
1.0
  0
MTEXT
  5
1CE
330
2
100
AcDbEntity
  8
PDF_Text
 62
     7
420
 16777215
100
AcDbMText
 10
7.800840902777778
 20
1.841882594444443
 30
0.0
 40
0.314152657063802
 41
0.0
 46
0.0
 71
     7
 72
     5
  1
Ø46
  7
PDF Arial
 73
     1
 44
1.0
  0
MTEXT
  5
1CF
330
2
100
AcDbEntity
  8
PDF_Text
 62
     7
420
 16777215
100
AcDbMText
 10
7.800841666666665
 20
1.198353120833333
 30
0.0
 40
0.314152657063802
 41
0.0
 46
0.0
 71
     7
 72
     5
  1
Ø53
  7
PDF Arial
 73
     1
 44
1.0
  0
MTEXT
  5
1D0
330
2
100
AcDbEntity
  8
PDF_Text
 62
     7
420
 16777215
100
AcDbMText
 10
1.083731308333334
 20
5.183461429166666
 30
0.0
 40
0.314152657063802
 41
0.0
 46
0.0
 71
     7
 72
     5
  1
170
  7
PDF Arial
 11
0.0000000000000001
 21
1.0
 31
0.0
 73
     1
 44
1.0
  0
MTEXT
  5
1D1
330
2
100
AcDbEntity
  8
PDF_Text
 62
     7
420
 16777215
100
AcDbMText
 10
5.364038545833333
 20
3.705783333333332
 30
0.0
 40
0.314152657063802
 41
0.0
 46
0.0
 71
     7
 72
     5
  1
79
  7
PDF Arial
 11
0.0000000000000001
 21
1.0
 31
0.0
 73
     1
 44
1.0
  0
MTEXT
  5
1D2
330
2
100
AcDbEntity
  8
PDF_Text
 62
     7
420
 16777215
100
AcDbMText
 10
8.635820608333332
 20
6.665967104166665
 30
0.0
 40
0.314152657063802
 41
0.0
 46
0.0
 71
     7
 72
     5
  1
256
  7
PDF Arial
 11
0.0000000000000001
 21
1.0
 31
0.0
 73
     1
 44
1.0
  0
MTEXT
  5
1D3
330
2
100
AcDbEntity
  8
PDF_Text
 62
     7
420
 16777215
100
AcDbMText
 10
16.30064583333333
 20
4.771266666666665
 30
0.0
 40
0.314152657063802
 41
0.0
 46
0.0
 71
     7
 72
     5
  1
71
  7
PDF Arial
 11
0.0000000000000001
 21
1.0
 31
0.0
 73
     1
 44
1.0
  0
MTEXT
  5
1D4
330
2
100
AcDbEntity
  8
PDF_Text
 62
     7
420
 16777215
100
AcDbMText
 10
0.6469255472222222
 20
8.470732133333331
 30
0.0
 40
0.314152657063802
 41
0.0
 46
0.0
 71
     7
 72
     5
  1
15°
  7
PDF Arial
 11
0.1558790427030294
 21
0.9877761507780936
 31
0.0
 73
     1
 44
1.0
  0
LWPOLYLINE
  5
1D5
330
2
100
AcDbEntity
  8
PDF_Layer 1
 62
     7
420
 16777215
370
    70
100
AcDbPolyline
 90
        3
 70
     0
 43
0.0
 10
15.24171388888889
 20
6.04687361111111
 42
0.3897522235853129
 10
14.99351944444444
 20
6.276456944444443
 42
0.3949803774230969
 10
14.74842222222221
 20
6.046873611111111
  0
LWPOLYLINE
  5
1D6
330
2
100
AcDbEntity
  8
PDF_Layer 1
 62
     7
420
 16777215
370
    70
100
AcDbPolyline
 90
        3
 70
     0
 43
0.0
 10
7.00334861111111
 20
6.046872222222223
 42
0.3999179905876648
 10
6.758251388888888
 20
6.276455555555556
 42
0.3950462205014552
 10
6.51315416666668
 20
6.046872222222222
  0
VIEWPORT
  5
4A
330
C
100
AcDbEntity
 67
     1
  8
0
100
AcDbViewport
 10
17.24759499286355
 20
11.49745669559334
 30
0.0
 40
36.33732196730226
 41
27.12504315869042
 68
     1
 69
     1
 12
17.24759499286355
 22
11.49745669559334
 13
0.0
 23
0.0
 14
0.5
 24
0.5
 15
0.5
 25
0.5
 16
0.0
 26
0.0
 36
1.0
 17
0.0
 27
0.0
 37
0.0
 42
50.0
 43
0.0
 44
0.0
 45
27.12504315869042
 50
0.0
 51
0.0
 72
  1000
 90
    32864
  1

281
     0
 71
     1
 74
     0
110
0.0
120
0.0
130
0.0
111
1.0
121
0.0
131
0.0
112
0.0
122
1.0
132
0.0
 79
     0
146
0.0
170
     0
 61
     5
348
88
292
     1
282
     1
141
0.0
142
0.0
 63
   250
421
  3355443
  0
ENDSEC
  0
SECTION
  2
OBJECTS
  0
DICTIONARY
  5
7
330
0
100
AcDbDictionary
281
     1
  3
ACAD_CIP_PREVIOUS_PRODUCT_INFO
350
CD
  3
ACAD_COLOR
350
55
  3
ACAD_DETAILVIEWSTYLE
350
C5
  3
ACAD_GROUP
350
1F
  3
ACAD_LAYOUT
350
B
  3
ACAD_MATERIAL
350
54
  3
ACAD_MLEADERSTYLE
350
C1
  3
ACAD_MLINESTYLE
350
20
  3
ACAD_PLOTSETTINGS
350
21
  3
ACAD_PLOTSTYLENAME
350
6
  3
ACAD_SCALELIST
350
AF
  3
ACAD_SECTIONVIEWSTYLE
350
C3
  3
ACAD_TABLESTYLE
350
93
  3
ACAD_VISUALSTYLE
350
82
  3
ACDB_RECOMPOSE_DATA
350
1FC
  3
AcDbVariableDictionary
350
9B
  0
DICTIONARY
  5
1D8
330
4
100
AcDbDictionary
280
     1
281
     1
  3
ADSK_XREC_LAYER_RECONCILED
360
1D9
  0
DICTIONARY
  5
1DA
330
25
100
AcDbDictionary
280
     1
281
     1
  3
ADSK_XREC_LAYER_RECONCILED
360
1DB
  0
DICTIONARY
  5
1DC
330
CE
100
AcDbDictionary
280
     1
281
     1
  3
ADSK_XREC_LAYER_RECONCILED
360
1DD
  0
DICTIONARY
  5
1DE
330
E3
100
AcDbDictionary
280
     1
281
     1
  3
ADSK_XREC_LAYER_RECONCILED
360
1DF
  0
XRECORD
  5
CD
102
{ACAD_REACTORS
330
7
102
}
330
7
100
AcDbXrecord
280
     1
300
ACD
300
2017
300
ACD_F_S
  0
DICTIONARY
  5
55
102
{ACAD_REACTORS
330
7
102
}
330
7
100
AcDbDictionary
281
     1
  0
DICTIONARY
  5
C5
102
{ACAD_REACTORS
330
7
102
}
330
7
100
AcDbDictionary
281
     1
  3
Imperial24
350
C6
  0
DICTIONARY
  5
1F
102
{ACAD_REACTORS
330
7
102
}
330
7
100
AcDbDictionary
281
     1
  0
DICTIONARY
  5
B
102
{ACAD_REACTORS
330
7
102
}
330
7
100
AcDbDictionary
281
     1
  3
Generic 24in x 36in Title Block
350
F
  3
Model
350
A
  0
DICTIONARY
  5
54
102
{ACAD_REACTORS
330
7
102
}
330
7
100
AcDbDictionary
281
     1
  3
ByBlock
350
80
  3
ByLayer
350
7F
  3
Global
350
81
  0
DICTIONARY
  5
C1
102
{ACAD_REACTORS
330
7
102
}
330
7
100
AcDbDictionary
281
     1
  3
Standard
350
C2
  0
DICTIONARY
  5
20
102
{ACAD_REACTORS
330
7
102
}
330
7
100
AcDbDictionary
281
     1
  3
Standard
350
22
  0
DICTIONARY
  5
21
102
{ACAD_REACTORS
330
7
102
}
330
7
100
AcDbDictionary
281
     1
  0
ACDBDICTIONARYWDFLT
  5
6
102
{ACAD_REACTORS
330
7
102
}
330
7
100
AcDbDictionary
281
     1
  3
Normal
350
5
100
AcDbDictionaryWithDefault
340
5
  0
DICTIONARY
  5
AF
102
{ACAD_REACTORS
330
7
102
}
330
7
100
AcDbDictionary
281
     1
  3
A0
350
B0
  3
A1
350
B1
  3
A2
350
B2
  3
A3
350
B3
  3
A4
350
B4
  3
A5
350
B5
  3
A6
350
B6
  3
A7
350
B7
  3
A8
350
B8
  3
A9
350
B9
  3
B0
350
BA
  3
B1
350
BB
  3
B2
350
BC
  3
B3
350
BD
  3
B4
350
BE
  3
B5
350
BF
  3
B6
350
C0
  0
DICTIONARY
  5
C3
102
{ACAD_REACTORS
330
7
102
}
330
7
100
AcDbDictionary
281
     1
  3
Imperial24
350
C4
  0
DICTIONARY
  5
93
102
{ACAD_REACTORS
330
7
102
}
330
7
100
AcDbDictionary
281
     1
  3
Standard
350
94
  0
DICTIONARY
  5
82
102
{ACAD_REACTORS
330
7
102
}
330
7
100
AcDbDictionary
281
     1
  3
2dWireframe
350
88
  3
3D Hidden
350
8A
  3
3dWireframe
350
89
  3
Basic
350
87
  3
Brighten
350
8E
  3
ColorChange
350
92
  3
Conceptual
350
8B
  3
Dim
350
8D
  3
EdgeColorOff
350
AE
  3
Facepattern
350
91
  3
Flat
350
83
  3
FlatWithEdges
350
84
  3
Gouraud
350
85
  3
GouraudWithEdges
350
86
  3
Hidden
350
A6
  3
JitterOff
350
AC
  3
Linepattern
350
90
  3
OverhangOff
350
AD
  3
Realistic
350
8C
  3
Shaded
350
AB
  3
Shaded with edges
350
AA
  3
Shades of Gray
350
A7
  3
Sketchy
350
A8
  3
Thicken
350
8F
  3
Wireframe
350
A5
  3
X-Ray
350
A9
  0
XRECORD
  5
1FC
102
{ACAD_REACTORS
330
7
102
}
330
7
100
AcDbXrecord
280
     1
 90
        1
330
94
330
C4
330
C6
  0
DICTIONARY
  5
9B
102
{ACAD_REACTORS
330
7
102
}
330
7
100
AcDbDictionary
281
     1
  3
CANNOSCALE
350
1F2
  3
CMLEADERSTYLE
350
1EE
  3
CTABLESTYLE
350
9C
  3
CVIEWDETAILSTYLE
350
1EF
  3
CVIEWSECTIONSTYLE
350
1F0
  3
LAYEREVAL
350
1F4
  3
LAYERNOTIFY
350
1F5
  3
LIGHTINGUNITS
350
1F3
  3
MSLTSCALE
350
1F1
  0
XRECORD
  5
1D9
102
{ACAD_REACTORS
330
1D8
102
}
330
1D8
100
AcDbXrecord
280
     1
290
     1
  0
XRECORD
  5
1DB
102
{ACAD_REACTORS
330
1DA
102
}
330
1DA
100
AcDbXrecord
280
     1
290
     1
  0
XRECORD
  5
1DD
102
{ACAD_REACTORS
330
1DC
102
}
330
1DC
100
AcDbXrecord
280
     1
290
     1
  0
XRECORD
  5
1DF
102
{ACAD_REACTORS
330
1DE
102
}
330
1DE
100
AcDbXrecord
280
     1
290
     1
  0
ACDBDETAILVIEWSTYLE
  5
C6
102
{ACAD_XDICTIONARY
360
1FA
102
}
102
{ACAD_REACTORS
330
C5
102
}
330
C5
100
AcDbModelDocViewStyle
 70
     0
  3
Imperial24
290
     0
100
AcDbDetailViewStyle
 70
     0
 71
     0
 90
        3
 71
     1
340
12
 62
   256
 40
0.24
340
0
 62
   256
 40
0.24
300

 40
0.36
280
     3
 71
     2
340
8
 90
       25
 62
   256
 71
     3
340
12
 62
   256
 40
0.24
 90
        1
 40
0.75
 90
        1
300
%<\AcVar ViewType \f "%tc1">% %<\AcVar ViewDetailId>%\PSCALE %<\AcVar ViewScale \f "%sn">%
 71
     4
340
8
 90
       25
 62
   256
340
8
 90
       25
 62
   256
280
     0
  0
LAYOUT
  5
F
102
{ACAD_REACTORS
330
B
102
}
330
B
100
AcDbPlotSettings
  1

  2
none_device
  4
ARCH_D_(24.00_x_36.00_Inches)
  6

 40
6.4
 41
19.1
 42
6.4
 43
19.1
 44
609.5999755859375
 45
914.4000244140626
 46
6.095999999999999
 47
-0.254
 48
0.0
 49
0.0
140
0.0
141
0.0
142
1.0
143
1.0
 70
   692
 72
     0
 73
     1
 74
     1
  7

 75
    16
147
1.0
 76
     0
 77
     2
 78
   300
148
0.2650993882970653
149
0.268587724897764
100
AcDbLayout
  1
Generic 24in x 36in Title Block
 70
     1
 71
     1
 10
-0.7524054877282309
 20
-0.5025428238148726
 11
35.24759547345533
 21
23.49745621500156
 12
0.0
 22
0.0
 32
0.0
 14
1.000000000000000E+20
 24
1.000000000000000E+20
 34
1.000000000000000E+20
 15
-1.000000000000000E+20
 25
-1.000000000000000E+20
 35
-1.000000000000000E+20
146
0.0
 13
0.0
 23
0.0
 33
0.0
 16
1.0
 26
0.0
 36
0.0
 17
0.0
 27
1.0
 37
0.0
 76
     0
330
C
331
4A
  0
LAYOUT
  5
A
102
{ACAD_REACTORS
330
B
102
}
330
B
100
AcDbPlotSettings
  1

  2
none_device
  4
Letter_(8.50_x_11.00_Inches)
  6

 40
6.349999904632568
 41
6.349999904632568
 42
6.350006103515625
 43
6.350006103515625
 44
215.8999938964844
 45
279.3999938964844
 46
20.37045378159827
 47
10.87052656611426
 48
0.0
 49
0.0
140
0.0
141
0.0
142
1.0
143
3.59932905303845
 70
 11956
 72
     0
 73
     1
 74
     1
  7

 75
     0
147
0.2778295580271631
 76
     0
 77
     2
 78
   300
148
5.106903281790129
149
0.2718425107115592
100
AcDbLayout
  1
Model
 70
     1
 71
     0
 10
0.0
 20
0.0
 11
12.0
 21
9.0
 12
0.0
 22
0.0
 32
0.0
 14
0.0
 24
0.0
 34
0.0
 15
0.0
 25
0.0
 35
0.0
146
0.0
 13
0.0
 23
0.0
 33
0.0
 16
1.0
 26
0.0
 36
0.0
 17
0.0
 27
1.0
 37
0.0
 76
     0
330
2
331
7D
  0
MATERIAL
  5
80
102
{ACAD_REACTORS
330
54
102
}
330
54
100
AcDbMaterial
  1
ByBlock
 73
     1
 78
     1
172
     1
176
     1
270
     1
274
     1
 94
       63
  0
MATERIAL
  5
7F
102
{ACAD_REACTORS
330
54
102
}
330
54
100
AcDbMaterial
  1
ByLayer
 73
     1
 78
     1
172
     1
176
     1
270
     1
274
     1
 94
       63
  0
MATERIAL
  5
81
102
{ACAD_REACTORS
330
54
102
}
330
54
100
AcDbMaterial
  1
Global
 73
     1
 78
     1
172
     1
176
     1
270
     1
274
     1
 94
       63
  0
MLEADERSTYLE
  5
C2
102
{ACAD_REACTORS
330
C1
102
}
330
C1
100
AcDbMLeaderStyle
179
     2
170
     2
171
     1
172
     0
 90
        2
 40
0.0
 41
0.0
173
     1
 91
-1056964608
340
15
 92
       -2
290
     1
 42
0.09
291
     1
 43
0.36
  3
Standard
 44
0.18
300

342
12
174
     1
178
     6
175
     1
176
     0
 93
-1056964608
 45
0.18
292
     0
297
     0
 46
0.18
 94
-1056964608
 47
1.0
 49
1.0
140
1.0
293
     1
141
0.0
294
     1
177
     0
142
1.0
295
     1
296
     0
143
0.125
271
     0
272
     9
273
     9
298
     1
  0
MLINESTYLE
  5
22
102
{ACAD_REACTORS
330
20
102
}
330
20
100
AcDbMlineStyle
  2
STANDARD
 70
     0
  3

 62
   256
 51
90.0
 52
90.0
 71
     2
 49
0.5
 62
   256
  6
BYLAYER
 49
-0.5
 62
   256
  6
BYLAYER
  0
ACDBPLACEHOLDER
  5
5
102
{ACAD_REACTORS
330
6
102
}
330
6
  0
SCALE
  5
B0
102
{ACAD_REACTORS
330
AF
102
}
330
AF
100
AcDbScale
 70
     0
300
1:1
140
1.0
141
1.0
290
     1
  0
SCALE
  5
B1
102
{ACAD_REACTORS
330
AF
102
}
330
AF
100
AcDbScale
 70
     0
300
1/128" = 1'-0"
140
0.0078125
141
12.0
290
     0
  0
SCALE
  5
B2
102
{ACAD_REACTORS
330
AF
102
}
330
AF
100
AcDbScale
 70
     0
300
1/64" = 1'-0"
140
0.015625
141
12.0
290
     0
  0
SCALE
  5
B3
102
{ACAD_REACTORS
330
AF
102
}
330
AF
100
AcDbScale
 70
     0
300
1/32" = 1'-0"
140
0.03125
141
12.0
290
     0
  0
SCALE
  5
B4
102
{ACAD_REACTORS
330
AF
102
}
330
AF
100
AcDbScale
 70
     0
300
1/16" = 1'-0"
140
0.0625
141
12.0
290
     0
  0
SCALE
  5
B5
102
{ACAD_REACTORS
330
AF
102
}
330
AF
100
AcDbScale
 70
     0
300
3/32" = 1'-0"
140
0.09375
141
12.0
290
     0
  0
SCALE
  5
B6
102
{ACAD_REACTORS
330
AF
102
}
330
AF
100
AcDbScale
 70
     0
300
1/8" = 1'-0"
140
0.125
141
12.0
290
     0
  0
SCALE
  5
B7
102
{ACAD_REACTORS
330
AF
102
}
330
AF
100
AcDbScale
 70
     0
300
3/16" = 1'-0"
140
0.1875
141
12.0
290
     0
  0
SCALE
  5
B8
102
{ACAD_REACTORS
330
AF
102
}
330
AF
100
AcDbScale
 70
     0
300
1/4" = 1'-0"
140
0.25
141
12.0
290
     0
  0
SCALE
  5
B9
102
{ACAD_REACTORS
330
AF
102
}
330
AF
100
AcDbScale
 70
     0
300
3/8" = 1'-0"
140
0.375
141
12.0
290
     0
  0
SCALE
  5
BA
102
{ACAD_REACTORS
330
AF
102
}
330
AF
100
AcDbScale
 70
     0
300
1/2" = 1'-0"
140
0.5
141
12.0
290
     0
  0
SCALE
  5
BB
102
{ACAD_REACTORS
330
AF
102
}
330
AF
100
AcDbScale
 70
     0
300
3/4" = 1'-0"
140
0.75
141
12.0
290
     0
  0
SCALE
  5
BC
102
{ACAD_REACTORS
330
AF
102
}
330
AF
100
AcDbScale
 70
     0
300
1" = 1'-0"
140
1.0
141
12.0
290
     0
  0
SCALE
  5
BD
102
{ACAD_REACTORS
330
AF
102
}
330
AF
100
AcDbScale
 70
     0
300
1-1/2" = 1'-0"
140
1.5
141
12.0
290
     0
  0
SCALE
  5
BE
102
{ACAD_REACTORS
330
AF
102
}
330
AF
100
AcDbScale
 70
     0
300
3" = 1'-0"
140
3.0
141
12.0
290
     0
  0
SCALE
  5
BF
102
{ACAD_REACTORS
330
AF
102
}
330
AF
100
AcDbScale
 70
     0
300
6" = 1'-0"
140
6.0
141
12.0
290
     0
  0
SCALE
  5
C0
102
{ACAD_REACTORS
330
AF
102
}
330
AF
100
AcDbScale
 70
     0
300
1'-0" = 1'-0"
140
12.0
141
12.0
290
     0
  0
ACDBSECTIONVIEWSTYLE
  5
C4
102
{ACAD_XDICTIONARY
360
1F8
102
}
102
{ACAD_REACTORS
330
C3
102
}
330
C3
100
AcDbModelDocViewStyle
 70
     0
  3
Imperial24
290
     0
100
AcDbSectionViewStyle
 70
     0
 71
     0
 90
       78
 71
     1
340
12
 62
   256
 40
0.24
340
0
340
0
 62
   256
 40
0.24
300
I, O, Q, S, X, Z
 40
0.48
 90
        3
 40
0.18
 90
        1
 71
     2
340
8
 90
       25
 62
   256
340
8
 90
       50
 62
   256
 40
0.24
 40
0.0
 40
0.24
 71
     3
340
12
 62
   256
 40
0.24
 90
        1
 40
0.75
 90
        1
300
%<\AcVar ViewType \f "%tc1">% %<\AcVar ViewSectionStartId>%-%<\AcVar ViewSectionEndId>%\PSCALE %<\AcVar ViewScale \f "%sn">%
 71
     4
 62
   256
 62
   257
300
ANSI31
 40
1.0
 90
        0
290
     0
290
     0
 90
        6
 40
0.0
 40
1.570796326794896
 40
0.2617993877991494
 40
1.308996938995747
 40
-0.2617993877991494
 40
1.832595714594046
  0
TABLESTYLE
  5
94
102
{ACAD_XDICTIONARY
360
1F6
102
}
102
{ACAD_REACTORS
330
93
102
}
330
93
100
AcDbTableStyle
280
     0
  3
Standard
 70
     0
 71
     0
 40
0.06
 41
0.06
280
     0
281
     0
  7
Standard
140
0.18
170
     2
 62
     0
 63
     7
283
     0
 90
      512
 91
        0
  1

274
    -2
284
     1
 64
     0
275
    -2
285
     1
 65
     0
276
    -2
286
     1
 66
     0
277
    -2
287
     1
 67
     0
278
    -2
288
     1
 68
     0
279
    -2
289
     1
 69
     0
  7
Standard
140
0.25
170
     5
 62
     0
 63
     7
283
     0
 90
      512
 91
        0
  1

274
    -2
284
     1
 64
     0
275
    -2
285
     1
 65
     0
276
    -2
286
     1
 66
     0
277
    -2
287
     1
 67
     0
278
    -2
288
     1
 68
     0
279
    -2
289
     1
 69
     0
  7
Standard
140
0.18
170
     5
 62
     0
 63
     7
283
     0
 90
      512
 91
        0
  1

274
    -2
284
     1
 64
     0
275
    -2
285
     1
 65
     0
276
    -2
286
     1
 66
     0
277
    -2
287
     1
 67
     0
278
    -2
288
     1
 68
     0
279
    -2
289
     1
 69
     0
  0
VISUALSTYLE
  5
88
102
{ACAD_REACTORS
330
82
102
}
330
82
100
AcDbVisualStyle
  2
2dWireframe
 70
     4
177
     3
291
     0
 70
    58
 90
        0
176
     1
 90
        2
176
     1
 90
        1
176
     1
 90
        0
176
     1
 40
0.6
176
     1
 40
30.0
176
     1
 62
     7
420
 16777215
176
     1
 90
        1
176
     1
 90
        4
176
     1
 62
     7
176
     1
 62
   257
176
     1
 90
        1
176
     1
 90
        1
176
     1
 40
1.0
176
     1
 90
        0
176
     1
 62
   257
176
     1
 40
1.0
176
     1
 90
        1
176
     1
 90
        6
176
     1
 90
        2
176
     1
 62
     7
176
     1
 90
        5
176
     1
 90
        0
176
     1
 90
        0
176
     1
290
     0
176
     1
 90
        1
176
     1
 40
0.0
176
     1
 90
        0
176
     1
290
     1
176
     1
290
     1
176
     1
290
     0
176
     1
290
     0
176
     1
290
     0
176
     1
290
     0
176
     1
290
     0
176
     1
290
     0
176
     1
290
     0
176
     1
 90
       50
176
     1
 40
0.0
176
     1
 40
1.0
176
     1
 90
        0
176
     1
 62
    18
420
        0
176
     1
 90
       50
176
     1
 90
        3
176
     1
 62
     5
420
      255
176
     1
290
     0
176
     1
 90
       50
176
     1
 90
       50
176
     1
 90
       50
176
     1
290
     0
176
     1
 90
       50
176
     1
 62
   256
176
     0
 40
1.0
176
     0
 90
        2
176
     1
  1
strokes_ogs.tif
176
     1
290
     0
176
     1
 40
1.0
176
     1
 40
1.0
176
     1
  0
VISUALSTYLE
  5
8A
102
{ACAD_REACTORS
330
82
102
}
330
82
100
AcDbVisualStyle
  2
3D Hidden
 70
     6
177
     3
291
     0
 70
    58
 90
        1
176
     1
 90
        2
176
     1
 90
        2
176
     1
 90
        0
176
     1
 40
0.6
176
     1
 40
30.0
176
     1
 62
     7
420
 16777215
176
     1
 90
        2
176
     1
 90
       10
176
     1
 62
     7
176
     1
 62
   257
176
     1
 90
        2
176
     1
 90
        2
176
     1
 40
40.0
176
     1
 90
        0
176
     1
 62
   257
176
     1
 40
1.0
176
     1
 90
        1
176
     1
 90
        6
176
     1
 90
        2
176
     1
 62
     7
176
     1
 90
        3
176
     1
 90
        0
176
     1
 90
        0
176
     1
290
     0
176
     1
 90
        1
176
     1
 40
0.0
176
     1
 90
        0
176
     1
290
     0
176
     1
290
     1
176
     1
290
     1
176
     1
290
     0
176
     1
290
     0
176
     1
290
     0
176
     1
290
     0
176
     1
290
     0
176
     1
290
     0
176
     1
 90
       50
176
     1
 40
0.0
176
     1
 40
1.0
176
     1
 90
        0
176
     1
 62
    18
420
        0
176
     1
 90
       50
176
     1
 90
        3
176
     1
 62
     5
420
      255
176
     1
290
     0
176
     1
 90
       50
176
     1
 90
       50
176
     1
 90
       50
176
     1
290
     0
176
     1
 90
       50
176
     1
 62
   256
176
     0
 40
1.0
176
     0
 90
        2
176
     1
  1
strokes_ogs.tif
176
     1
290
     0
176
     1
 40
1.0
176
     1
 40
1.0
176
     1
  0
VISUALSTYLE
  5
89
102
{ACAD_REACTORS
330
82
102
}
330
82
100
AcDbVisualStyle
  2
3dWireframe
 70
     5
177
     3
291
     0
 70
    58
 90
        0
176
     1
 90
        2
176
     1
 90
        1
176
     1
 90
        0
176
     1
 40
0.6
176
     1
 40
30.0
176
     1
 62
     7
420
 16777215
176
     1
 90
        1
176
     1
 90
        4
176
     1
 62
     7
176
     1
 62
   257
176
     1
 90
        1
176
     1
 90
        1
176
     1
 40
1.0
176
     1
 90
        0
176
     1
 62
   257
176
     1
 40
1.0
176
     1
 90
        1
176
     1
 90
        6
176
     1
 90
        2
176
     1
 62
     7
176
     1
 90
        5
176
     1
 90
        0
176
     1
 90
        0
176
     1
290
     0
176
     1
 90
        1
176
     1
 40
0.0
176
     1
 90
        0
176
     1
290
     0
176
     1
290
     1
176
     1
290
     1
176
     1
290
     0
176
     1
290
     0
176
     1
290
     0
176
     1
290
     0
176
     1
290
     0
176
     1
290
     0
176
     1
 90
       50
176
     1
 40
0.0
176
     1
 40
1.0
176
     1
 90
        0
176
     1
 62
    18
420
        0
176
     1
 90
       50
176
     1
 90
        3
176
     1
 62
     5
420
      255
176
     1
290
     0
176
     1
 90
       50
176
     1
 90
       50
176
     1
 90
       50
176
     1
290
     0
176
     1
 90
       50
176
     1
 62
   256
176
     0
 40
1.0
176
     0
 90
        2
176
     1
  1
strokes_ogs.tif
176
     1
290
     0
176
     1
 40
1.0
176
     1
 40
1.0
176
     1
  0
VISUALSTYLE
  5
87
102
{ACAD_REACTORS
330
82
102
}
330
82
100
AcDbVisualStyle
  2
Basic
 70
     7
177
     3
291
     1
 70
    58
 90
        1
176
     1
 90
        0
176
     1
 90
        1
176
     1
 90
        0
176
     1
 40
0.6
176
     1
 40
30.0
176
     1
 62
     7
420
 16777215
176
     1
 90
        0
176
     1
 90
        4
176
     1
 62
     7
176
     1
 62
   257
176
     1
 90
        1
176
     1
 90
        1
176
     1
 40
1.0
176
     1
 90
        8
176
     1
 62
     7
176
     1
 40
1.0
176
     1
 90
        1
176
     1
 90
        6
176
     1
 90
        2
176
     1
 62
     7
176
     1
 90
        5
176
     1
 90
        0
176
     1
 90
        0
176
     1
290
     0
176
     1
 90
        1
176
     1
 40
0.0
176
     1
 90
        0
176
     1
290
     0
176
     1
290
     1
176
     1
290
     1
176
     1
290
     0
176
     1
290
     0
176
     1
290
     0
176
     1
290
     0
176
     1
290
     0
176
     1
290
     0
176
     1
 90
       50
176
     1
 40
0.0
176
     1
 40
1.0
176
     1
 90
        0
176
     1
 62
    18
420
        0
176
     1
 90
       50
176
     1
 90
        3
176
     1
 62
     5
420
      255
176
     1
290
     0
176
     1
 90
       50
176
     1
 90
       50
176
     1
 90
       50
176
     1
290
     0
176
     1
 90
       50
176
     1
 62
   256
176
     0
 40
1.0
176
     0
 90
        2
176
     1
  1
strokes_ogs.tif
176
     1
290
     0
176
     1
 40
1.0
176
     1
 40
1.0
176
     1
  0
VISUALSTYLE
  5
8E
102
{ACAD_REACTORS
330
82
102
}
330
82
100
AcDbVisualStyle
  2
Brighten
 70
    12
177
     3
291
     1
 70
    58
 90
        2
176
     1
 90
        2
176
     1
 90
        1
176
     1
 90
        0
176
     1
 40
0.6
176
     1
 40
30.0
176
     1
 62
     7
420
 16777215
176
     1
 90
        1
176
     1
 90
        4
176
     1
 62
     7
176
     1
 62
   257
176
     1
 90
        1
176
     1
 90
        1
176
     1
 40
1.0
176
     1
 90
        8
176
     1
 62
     7
176
     1
 40
1.0
176
     1
 90
        1
176
     1
 90
        6
176
     1
 90
        2
176
     1
 62
     7
176
     1
 90
        5
176
     1
 90
        0
176
     1
 90
        0
176
     1
290
     0
176
     1
 90
        1
176
     1
 40
50.0
176
     1
 90
        0
176
     1
290
     0
176
     1
290
     1
176
     1
290
     1
176
     1
290
     0
176
     1
290
     0
176
     1
290
     0
176
     1
290
     0
176
     1
290
     0
176
     1
290
     0
176
     1
 90
       50
176
     1
 40
0.0
176
     1
 40
1.0
176
     1
 90
        0
176
     1
 62
    18
420
        0
176
     1
 90
       50
176
     1
 90
        3
176
     1
 62
     5
420
      255
176
     1
290
     0
176
     1
 90
       50
176
     1
 90
       50
176
     1
 90
       50
176
     1
290
     0
176
     1
 90
       50
176
     1
 62
   256
176
     0
 40
1.0
176
     0
 90
        2
176
     1
  1
strokes_ogs.tif
176
     1
290
     0
176
     1
 40
1.0
176
     1
 40
1.0
176
     1
  0
VISUALSTYLE
  5
92
102
{ACAD_REACTORS
330
82
102
}
330
82
100
AcDbVisualStyle
  2
ColorChange
 70
    16
177
     3
291
     1
 70
    58
 90
        2
176
     1
 90
        2
176
     1
 90
        3
176
     1
 90
        0
176
     1
 40
0.6
176
     1
 40
30.0
176
     1
 62
     8
420
  8421504
176
     1
 90
        1
176
     1
 90
        4
176
     1
 62
     7
176
     1
 62
   257
176
     1
 90
        1
176
     1
 90
        1
176
     1
 40
1.0
176
     1
 90
        8
176
     1
 62
     8
420
  8421504
176
     1
 40
1.0
176
     1
 90
        1
176
     1
 90
        6
176
     1
 90
        2
176
     1
 62
     7
176
     1
 90
        5
176
     1
 90
        0
176
     1
 90
        0
176
     1
290
     0
176
     1
 90
        1
176
     1
 40
0.0
176
     1
 90
        0
176
     1
290
     0
176
     1
290
     1
176
     1
290
     1
176
     1
290
     0
176
     1
290
     0
176
     1
290
     0
176
     1
290
     0
176
     1
290
     0
176
     1
290
     0
176
     1
 90
       50
176
     1
 40
0.0
176
     1
 40
1.0
176
     1
 90
        0
176
     1
 62
    18
420
        0
176
     1
 90
       50
176
     1
 90
        3
176
     1
 62
     5
420
      255
176
     1
290
     0
176
     1
 90
       50
176
     1
 90
       50
176
     1
 90
       50
176
     1
290
     0
176
     1
 90
       50
176
     1
 62
   256
176
     0
 40
1.0
176
     0
 90
        2
176
     1
  1
strokes_ogs.tif
176
     1
290
     0
176
     1
 40
1.0
176
     1
 40
1.0
176
     1
  0
VISUALSTYLE
  5
8B
102
{ACAD_REACTORS
330
82
102
}
330
82
100
AcDbVisualStyle
  2
Conceptual
 70
     9
177
     3
291
     0
 70
    58
 90
        3
176
     1
 90
        2
176
     1
 90
        1
176
     1
 90
        0
176
     1
 40
0.6
176
     1
 40
30.0
176
     1
 62
     7
420
 16777215
176
     1
 90
        2
176
     1
 90
        2
176
     1
 62
     7
176
     1
 62
   257
176
     1
 90
        1
176
     1
 90
        1
176
     1
 40
40.0
176
     1
 90
        8
176
     1
 62
     7
176
     1
 40
1.0
176
     1
 90
        1
176
     1
 90
        6
176
     1
 90
        2
176
     1
 62
     7
176
     1
 90
        5
176
     1
 90
        0
176
     1
 90
        0
176
     1
290
     0
176
     1
 90
        1
176
     1
 40
0.0
176
     1
 90
        0
176
     1
290
     0
176
     1
290
     1
176
     1
290
     1
176
     1
290
     0
176
     1
290
     0
176
     1
290
     0
176
     1
290
     0
176
     1
290
     0
176
     1
290
     0
176
     1
 90
       50
176
     1
 40
0.0
176
     1
 40
1.0
176
     1
 90
        0
176
     1
 62
    18
420
        0
176
     1
 90
       50
176
     1
 90
        3
176
     1
 62
     5
420
      255
176
     1
290
     0
176
     1
 90
       50
176
     1
 90
       50
176
     1
 90
       50
176
     1
290
     0
176
     1
 90
       50
176
     1
 62
   256
176
     0
 40
1.0
176
     0
 90
        2
176
     1
  1
strokes_ogs.tif
176
     1
290
     0
176
     1
 40
1.0
176
     1
 40
1.0
176
     1
  0
VISUALSTYLE
  5
8D
102
{ACAD_REACTORS
330
82
102
}
330
82
100
AcDbVisualStyle
  2
Dim
 70
    11
177
     3
291
     1
 70
    58
 90
        2
176
     1
 90
        2
176
     1
 90
        1
176
     1
 90
        0
176
     1
 40
0.6
176
     1
 40
30.0
176
     1
 62
     7
420
 16777215
176
     1
 90
        1
176
     1
 90
        4
176
     1
 62
     7
176
     1
 62
   257
176
     1
 90
        1
176
     1
 90
        1
176
     1
 40
1.0
176
     1
 90
        8
176
     1
 62
     7
176
     1
 40
1.0
176
     1
 90
        1
176
     1
 90
        6
176
     1
 90
        2
176
     1
 62
     7
176
     1
 90
        5
176
     1
 90
        0
176
     1
 90
        0
176
     1
290
     0
176
     1
 90
        1
176
     1
 40
-50.0
176
     1
 90
        0
176
     1
290
     0
176
     1
290
     1
176
     1
290
     1
176
     1
290
     0
176
     1
290
     0
176
     1
290
     0
176
     1
290
     0
176
     1
290
     0
176
     1
290
     0
176
     1
 90
       50
176
     1
 40
0.0
176
     1
 40
1.0
176
     1
 90
        0
176
     1
 62
    18
420
        0
176
     1
 90
       50
176
     1
 90
        3
176
     1
 62
     5
420
      255
176
     1
290
     0
176
     1
 90
       50
176
     1
 90
       50
176
     1
 90
       50
176
     1
290
     0
176
     1
 90
       50
176
     1
 62
   256
176
     0
 40
1.0
176
     0
 90
        2
176
     1
  1
strokes_ogs.tif
176
     1
290
     0
176
     1
 40
1.0
176
     1
 40
1.0
176
     1
  0
VISUALSTYLE
  5
AE
102
{ACAD_REACTORS
330
82
102
}
330
82
100
AcDbVisualStyle
  2
EdgeColorOff
 70
    22
177
     3
291
     1
 70
    58
 90
        2
176
     0
 90
        2
176
     0
 90
        0
176
     0
 90
        0
176
     0
 40
0.6
176
     0
 40
30.0
176
     0
 62
     7
420
 16777215
176
     0
 90
        1
176
     0
 90
        4
176
     0
 62
     7
176
     0
 62
   257
176
     0
 90
        1
176
     0
 90
        1
176
     0
 40
1.0
176
     0
 90
        8
176
     2
 62
     7
176
     0
 40
1.0
176
     0
 90
        1
176
     0
 90
        6
176
     0
 90
        2
176
     0
 62
     7
176
     0
 90
        5
176
     0
 90
        0
176
     0
 90
        0
176
     0
290
     0
176
     0
 90
        1
176
     0
 40
0.0
176
     0
 90
        0
176
     0
290
     0
176
     0
290
     1
176
     0
290
     1
176
     0
290
     0
176
     0
290
     0
176
     0
290
     0
176
     0
290
     0
176
     0
290
     0
176
     0
290
     0
176
     0
 90
       50
176
     0
 40
0.0
176
     0
 40
1.0
176
     0
 90
        0
176
     0
 62
    18
420
        0
176
     0
 90
       50
176
     0
 90
        3
176
     0
 62
     5
420
      255
176
     0
290
     0
176
     0
 90
       50
176
     0
 90
       50
176
     0
 90
       50
176
     0
290
     0
176
     0
 90
       50
176
     0
 62
   256
176
     0
 40
1.0
176
     0
 90
        2
176
     0
  1
strokes_ogs.tif
176
     0
290
     0
176
     0
 40
1.0
176
     0
 40
1.0
176
     0
  0
VISUALSTYLE
  5
91
102
{ACAD_REACTORS
330
82
102
}
330
82
100
AcDbVisualStyle
  2
Facepattern
 70
    15
177
     3
291
     1
 70
    58
 90
        2
176
     1
 90
        2
176
     1
 90
        1
176
     1
 90
        0
176
     1
 40
0.6
176
     1
 40
30.0
176
     1
 62
     7
420
 16777215
176
     1
 90
        1
176
     1
 90
        4
176
     1
 62
     7
176
     1
 62
   257
176
     1
 90
        1
176
     1
 90
        1
176
     1
 40
1.0
176
     1
 90
        8
176
     1
 62
     7
176
     1
 40
1.0
176
     1
 90
        1
176
     1
 90
        6
176
     1
 90
        2
176
     1
 62
     7
176
     1
 90
        5
176
     1
 90
        0
176
     1
 90
        0
176
     1
290
     0
176
     1
 90
        1
176
     1
 40
0.0
176
     1
 90
        0
176
     1
290
     0
176
     1
290
     1
176
     1
290
     1
176
     1
290
     0
176
     1
290
     0
176
     1
290
     0
176
     1
290
     0
176
     1
290
     0
176
     1
290
     0
176
     1
 90
       50
176
     1
 40
0.0
176
     1
 40
1.0
176
     1
 90
        0
176
     1
 62
    18
420
        0
176
     1
 90
       50
176
     1
 90
        3
176
     1
 62
     5
420
      255
176
     1
290
     0
176
     1
 90
       50
176
     1
 90
       50
176
     1
 90
       50
176
     1
290
     0
176
     1
 90
       50
176
     1
 62
   256
176
     0
 40
1.0
176
     0
 90
        2
176
     1
  1
strokes_ogs.tif
176
     1
290
     0
176
     1
 40
1.0
176
     1
 40
1.0
176
     1
  0
VISUALSTYLE
  5
83
102
{ACAD_REACTORS
330
82
102
}
330
82
100
AcDbVisualStyle
  2
Flat
 70
     0
177
     3
291
     1
 70
    58
 90
        2
176
     1
 90
        1
176
     1
 90
        1
176
     1
 90
        2
176
     1
 40
0.6
176
     1
 40
30.0
176
     1
 62
     7
420
 16777215
176
     1
 90
        0
176
     1
 90
        4
176
     1
 62
     7
176
     1
 62
   257
176
     1
 90
        1
176
     1
 90
        1
176
     1
 40
1.0
176
     1
 90
        8
176
     1
 62
     7
176
     1
 40
1.0
176
     1
 90
        1
176
     1
 90
        6
176
     1
 90
        2
176
     1
 62
     7
176
     1
 90
        5
176
     1
 90
        0
176
     1
 90
        0
176
     1
290
     0
176
     1
 90
        1
176
     1
 40
0.0
176
     1
 90
        0
176
     1
290
     0
176
     1
290
     1
176
     1
290
     1
176
     1
290
     0
176
     1
290
     0
176
     1
290
     0
176
     1
290
     0
176
     1
290
     0
176
     1
290
     0
176
     1
 90
       50
176
     1
 40
0.0
176
     1
 40
1.0
176
     1
 90
        0
176
     1
 62
    18
420
        0
176
     1
 90
       50
176
     1
 90
        3
176
     1
 62
     5
420
      255
176
     1
290
     0
176
     1
 90
       50
176
     1
 90
       50
176
     1
 90
       50
176
     1
290
     0
176
     1
 90
       50
176
     1
 62
   256
176
     0
 40
1.0
176
     0
 90
        2
176
     1
  1
strokes_ogs.tif
176
     1
290
     0
176
     1
 40
1.0
176
     1
 40
1.0
176
     1
  0
VISUALSTYLE
  5
84
102
{ACAD_REACTORS
330
82
102
}
330
82
100
AcDbVisualStyle
  2
FlatWithEdges
 70
     1
177
     3
291
     1
 70
    58
 90
        2
176
     1
 90
        1
176
     1
 90
        1
176
     1
 90
        2
176
     1
 40
0.6
176
     1
 40
30.0
176
     1
 62
     7
420
 16777215
176
     1
 90
        1
176
     1
 90
        4
176
     1
 62
     7
176
     1
 62
   257
176
     1
 90
        1
176
     1
 90
        1
176
     1
 40
1.0
176
     1
 90
        0
176
     1
 62
   257
176
     1
 40
1.0
176
     1
 90
        1
176
     1
 90
        6
176
     1
 90
        2
176
     1
 62
     7
176
     1
 90
        5
176
     1
 90
        0
176
     1
 90
        0
176
     1
290
     0
176
     1
 90
        1
176
     1
 40
0.0
176
     1
 90
        0
176
     1
290
     0
176
     1
290
     1
176
     1
290
     1
176
     1
290
     0
176
     1
290
     0
176
     1
290
     0
176
     1
290
     0
176
     1
290
     0
176
     1
290
     0
176
     1
 90
       50
176
     1
 40
0.0
176
     1
 40
1.0
176
     1
 90
        0
176
     1
 62
    18
420
        0
176
     1
 90
       50
176
     1
 90
        3
176
     1
 62
     5
420
      255
176
     1
290
     0
176
     1
 90
       50
176
     1
 90
       50
176
     1
 90
       50
176
     1
290
     0
176
     1
 90
       50
176
     1
 62
   256
176
     0
 40
1.0
176
     0
 90
        2
176
     1
  1
strokes_ogs.tif
176
     1
290
     0
176
     1
 40
1.0
176
     1
 40
1.0
176
     1
  0
VISUALSTYLE
  5
85
102
{ACAD_REACTORS
330
82
102
}
330
82
100
AcDbVisualStyle
  2
Gouraud
 70
     2
177
     3
291
     1
 70
    58
 90
        2
176
     1
 90
        2
176
     1
 90
        1
176
     1
 90
        2
176
     1
 40
0.6
176
     1
 40
30.0
176
     1
 62
     7
420
 16777215
176
     1
 90
        0
176
     1
 90
        4
176
     1
 62
     7
176
     1
 62
   257
176
     1
 90
        1
176
     1
 90
        1
176
     1
 40
1.0
176
     1
 90
        0
176
     1
 62
     7
176
     1
 40
1.0
176
     1
 90
        1
176
     1
 90
        6
176
     1
 90
        2
176
     1
 62
     7
176
     1
 90
        5
176
     1
 90
        0
176
     1
 90
        0
176
     1
290
     0
176
     1
 90
        1
176
     1
 40
0.0
176
     1
 90
        0
176
     1
290
     0
176
     1
290
     1
176
     1
290
     1
176
     1
290
     0
176
     1
290
     0
176
     1
290
     0
176
     1
290
     0
176
     1
290
     0
176
     1
290
     0
176
     1
 90
       50
176
     1
 40
0.0
176
     1
 40
1.0
176
     1
 90
        0
176
     1
 62
    18
420
        0
176
     1
 90
       50
176
     1
 90
        3
176
     1
 62
     5
420
      255
176
     1
290
     0
176
     1
 90
       50
176
     1
 90
       50
176
     1
 90
       50
176
     1
290
     0
176
     1
 90
       50
176
     1
 62
   256
176
     0
 40
1.0
176
     0
 90
        2
176
     1
  1
strokes_ogs.tif
176
     1
290
     0
176
     1
 40
1.0
176
     1
 40
1.0
176
     1
  0
VISUALSTYLE
  5
86
102
{ACAD_REACTORS
330
82
102
}
330
82
100
AcDbVisualStyle
  2
GouraudWithEdges
 70
     3
177
     3
291
     1
 70
    58
 90
        2
176
     1
 90
        2
176
     1
 90
        1
176
     1
 90
        2
176
     1
 40
0.6
176
     1
 40
30.0
176
     1
 62
     7
420
 16777215
176
     1
 90
        1
176
     1
 90
        4
176
     1
 62
     7
176
     1
 62
   257
176
     1
 90
        1
176
     1
 90
        1
176
     1
 40
1.0
176
     1
 90
        0
176
     1
 62
   257
176
     1
 40
1.0
176
     1
 90
        1
176
     1
 90
        6
176
     1
 90
        2
176
     1
 62
     7
176
     1
 90
        5
176
     1
 90
        0
176
     1
 90
        0
176
     1
290
     0
176
     1
 90
        1
176
     1
 40
0.0
176
     1
 90
        0
176
     1
290
     0
176
     1
290
     1
176
     1
290
     1
176
     1
290
     0
176
     1
290
     0
176
     1
290
     0
176
     1
290
     0
176
     1
290
     0
176
     1
290
     0
176
     1
 90
       50
176
     1
 40
0.0
176
     1
 40
1.0
176
     1
 90
        0
176
     1
 62
    18
420
        0
176
     1
 90
       50
176
     1
 90
        3
176
     1
 62
     5
420
      255
176
     1
290
     0
176
     1
 90
       50
176
     1
 90
       50
176
     1
 90
       50
176
     1
290
     0
176
     1
 90
       50
176
     1
 62
   256
176
     0
 40
1.0
176
     0
 90
        2
176
     1
  1
strokes_ogs.tif
176
     1
290
     0
176
     1
 40
1.0
176
     1
 40
1.0
176
     1
  0
VISUALSTYLE
  5
A6
102
{ACAD_REACTORS
330
82
102
}
330
82
100
AcDbVisualStyle
  2
Hidden
 70
     6
177
     3
291
     0
 70
    58
 90
        1
176
     1
 90
        2
176
     1
 90
        2
176
     1
 90
        0
176
     1
 40
0.6
176
     1
 40
30.0
176
     1
 62
     7
420
 16777215
176
     1
 90
        2
176
     1
 90
        2
176
     1
 62
     7
176
     1
 62
   257
176
     1
 90
        2
176
     1
 90
        1
176
     1
 40
40.0
176
     1
 90
        0
176
     1
 62
   257
176
     1
 40
1.0
176
     1
 90
        1
176
     1
 90
        6
176
     1
 90
        2
176
     1
 62
     7
176
     1
 90
        3
176
     1
 90
        0
176
     1
 90
        0
176
     1
290
     0
176
     1
 90
        1
176
     1
 40
0.0
176
     1
 90
        0
176
     1
290
     0
176
     1
290
     1
176
     1
290
     1
176
     1
290
     0
176
     1
290
     0
176
     1
290
     0
176
     1
290
     0
176
     1
290
     0
176
     1
290
     0
176
     1
 90
       50
176
     1
 40
0.0
176
     1
 40
1.0
176
     1
 90
        0
176
     1
 62
    18
420
        0
176
     1
 90
       50
176
     1
 90
        3
176
     1
 62
     5
420
      255
176
     1
290
     0
176
     1
 90
       50
176
     1
 90
       50
176
     1
 90
       50
176
     1
290
     0
176
     1
 90
       50
176
     1
 62
   256
176
     0
 40
1.0
176
     0
 90
        2
176
     1
  1
strokes_ogs.tif
176
     1
290
     0
176
     1
 40
1.0
176
     1
 40
1.0
176
     1
  0
VISUALSTYLE
  5
AC
102
{ACAD_REACTORS
330
82
102
}
330
82
100
AcDbVisualStyle
  2
JitterOff
 70
    20
177
     3
291
     1
 70
    58
 90
        2
176
     0
 90
        2
176
     0
 90
        0
176
     0
 90
        0
176
     0
 40
0.6
176
     0
 40
30.0
176
     0
 62
     7
420
 16777215
176
     0
 90
        1
176
     0
 90
        4
176
     0
 62
     7
176
     0
 62
   257
176
     0
 90
        1
176
     0
 90
        1
176
     0
 40
1.0
176
     0
 90
       10
176
     2
 62
     7
176
     0
 40
1.0
176
     0
 90
        1
176
     0
 90
        6
176
     0
 90
        2
176
     0
 62
     7
176
     0
 90
        5
176
     0
 90
        0
176
     0
 90
        0
176
     0
290
     0
176
     0
 90
        1
176
     0
 40
0.0
176
     0
 90
        0
176
     0
290
     0
176
     0
290
     1
176
     0
290
     1
176
     0
290
     0
176
     0
290
     0
176
     0
290
     0
176
     0
290
     0
176
     0
290
     0
176
     0
290
     0
176
     0
 90
       50
176
     0
 40
0.0
176
     0
 40
1.0
176
     0
 90
        0
176
     0
 62
    18
420
        0
176
     0
 90
       50
176
     0
 90
        3
176
     0
 62
     5
420
      255
176
     0
290
     0
176
     0
 90
       50
176
     0
 90
       50
176
     0
 90
       50
176
     0
290
     0
176
     0
 90
       50
176
     0
 62
   256
176
     0
 40
1.0
176
     0
 90
        2
176
     0
  1
strokes_ogs.tif
176
     0
290
     0
176
     0
 40
1.0
176
     0
 40
1.0
176
     0
  0
VISUALSTYLE
  5
90
102
{ACAD_REACTORS
330
82
102
}
330
82
100
AcDbVisualStyle
  2
Linepattern
 70
    14
177
     3
291
     1
 70
    58
 90
        2
176
     1
 90
        2
176
     1
 90
        1
176
     1
 90
        0
176
     1
 40
0.6
176
     1
 40
30.0
176
     1
 62
     7
420
 16777215
176
     1
 90
        1
176
     1
 90
        4
176
     1
 62
     7
176
     1
 62
   257
176
     1
 90
        7
176
     1
 90
        7
176
     1
 40
1.0
176
     1
 90
        8
176
     1
 62
     7
176
     1
 40
1.0
176
     1
 90
        1
176
     1
 90
        6
176
     1
 90
        2
176
     1
 62
     7
176
     1
 90
        5
176
     1
 90
        0
176
     1
 90
        0
176
     1
290
     0
176
     1
 90
        1
176
     1
 40
0.0
176
     1
 90
        0
176
     1
290
     0
176
     1
290
     1
176
     1
290
     1
176
     1
290
     0
176
     1
290
     0
176
     1
290
     0
176
     1
290
     0
176
     1
290
     0
176
     1
290
     0
176
     1
 90
       50
176
     1
 40
0.0
176
     1
 40
1.0
176
     1
 90
        0
176
     1
 62
    18
420
        0
176
     1
 90
       50
176
     1
 90
        3
176
     1
 62
     5
420
      255
176
     1
290
     0
176
     1
 90
       50
176
     1
 90
       50
176
     1
 90
       50
176
     1
290
     0
176
     1
 90
       50
176
     1
 62
   256
176
     0
 40
1.0
176
     0
 90
        2
176
     1
  1
strokes_ogs.tif
176
     1
290
     0
176
     1
 40
1.0
176
     1
 40
1.0
176
     1
  0
VISUALSTYLE
  5
AD
102
{ACAD_REACTORS
330
82
102
}
330
82
100
AcDbVisualStyle
  2
OverhangOff
 70
    21
177
     3
291
     1
 70
    58
 90
        2
176
     0
 90
        2
176
     0
 90
        0
176
     0
 90
        0
176
     0
 40
0.6
176
     0
 40
30.0
176
     0
 62
     7
420
 16777215
176
     0
 90
        1
176
     0
 90
        4
176
     0
 62
     7
176
     0
 62
   257
176
     0
 90
        1
176
     0
 90
        1
176
     0
 40
1.0
176
     0
 90
        9
176
     2
 62
     7
176
     0
 40
1.0
176
     0
 90
        1
176
     0
 90
        6
176
     0
 90
        2
176
     0
 62
     7
176
     0
 90
        5
176
     0
 90
        0
176
     0
 90
        0
176
     0
290
     0
176
     0
 90
        1
176
     0
 40
0.0
176
     0
 90
        0
176
     0
290
     0
176
     0
290
     1
176
     0
290
     1
176
     0
290
     0
176
     0
290
     0
176
     0
290
     0
176
     0
290
     0
176
     0
290
     0
176
     0
290
     0
176
     0
 90
       50
176
     0
 40
0.0
176
     0
 40
1.0
176
     0
 90
        0
176
     0
 62
    18
420
        0
176
     0
 90
       50
176
     0
 90
        3
176
     0
 62
     5
420
      255
176
     0
290
     0
176
     0
 90
       50
176
     0
 90
       50
176
     0
 90
       50
176
     0
290
     0
176
     0
 90
       50
176
     0
 62
   256
176
     0
 40
1.0
176
     0
 90
        2
176
     0
  1
strokes_ogs.tif
176
     0
290
     0
176
     0
 40
1.0
176
     0
 40
1.0
176
     0
  0
VISUALSTYLE
  5
8C
102
{ACAD_REACTORS
330
82
102
}
330
82
100
AcDbVisualStyle
  2
Realistic
 70
     8
177
     3
291
     0
 70
    58
 90
        2
176
     1
 90
        2
176
     1
 90
        1
176
     1
 90
        0
176
     1
 40
0.6
176
     1
 40
30.0
176
     1
 62
     7
420
 16777215
176
     1
 90
        1
176
     1
 90
        0
176
     1
 62
     7
176
     1
 62
   257
176
     1
 90
        1
176
     1
 90
        1
176
     1
 40
1.0
176
     1
 90
        8
176
     1
 62
     7
176
     1
 40
1.0
176
     1
 90
        1
176
     1
 90
        6
176
     1
 90
        2
176
     1
 62
     7
176
     1
 90
        5
176
     1
 90
        0
176
     1
 90
        0
176
     1
290
     0
176
     1
 90
       13
176
     1
 40
0.0
176
     1
 90
        0
176
     1
290
     0
176
     1
290
     1
176
     1
290
     1
176
     1
290
     0
176
     1
290
     0
176
     1
290
     0
176
     1
290
     0
176
     1
290
     0
176
     1
290
     0
176
     1
 90
       50
176
     1
 40
0.0
176
     1
 40
1.0
176
     1
 90
        0
176
     1
 62
    18
420
        0
176
     1
 90
       50
176
     1
 90
        3
176
     1
 62
     5
420
      255
176
     1
290
     0
176
     1
 90
       50
176
     1
 90
       50
176
     1
 90
       50
176
     1
290
     0
176
     1
 90
       50
176
     1
 62
   256
176
     0
 40
1.0
176
     0
 90
        2
176
     1
  1
strokes_ogs.tif
176
     1
290
     0
176
     1
 40
1.0
176
     1
 40
1.0
176
     1
  0
VISUALSTYLE
  5
AB
102
{ACAD_REACTORS
330
82
102
}
330
82
100
AcDbVisualStyle
  2
Shaded
 70
    27
177
     3
291
     0
 70
    58
 90
        2
176
     1
 90
        2
176
     1
 90
        1
176
     1
 90
        2
176
     1
 40
0.6
176
     1
 40
30.0
176
     1
 62
     7
420
 16777215
176
     1
 90
        0
176
     1
 90
        4
176
     1
 62
     7
176
     1
 62
   257
176
     1
 90
        1
176
     1
 90
        1
176
     1
 40
1.0
176
     1
 90
        8
176
     1
 62
   257
176
     1
 40
1.0
176
     1
 90
        1
176
     1
 90
        6
176
     1
 90
        2
176
     1
 62
     8
420
  7895160
176
     1
 90
        3
176
     1
 90
        0
176
     1
 90
        0
176
     1
290
     0
176
     1
 90
        5
176
     1
 40
0.0
176
     1
 90
        0
176
     1
290
     0
176
     1
290
     1
176
     1
290
     1
176
     1
290
     0
176
     1
290
     0
176
     1
290
     0
176
     1
290
     0
176
     1
290
     0
176
     1
290
     0
176
     1
 90
       50
176
     1
 40
0.0
176
     1
 40
1.0
176
     1
 90
        0
176
     1
 62
    18
420
        0
176
     1
 90
       50
176
     1
 90
        3
176
     1
 62
     5
420
      255
176
     1
290
     0
176
     1
 90
       50
176
     1
 90
       50
176
     1
 90
       50
176
     1
290
     0
176
     1
 90
       50
176
     1
 62
   256
176
     0
 40
1.0
176
     0
 90
        2
176
     1
  1
strokes_ogs.tif
176
     1
290
     0
176
     1
 40
1.0
176
     1
 40
1.0
176
     1
  0
VISUALSTYLE
  5
AA
102
{ACAD_REACTORS
330
82
102
}
330
82
100
AcDbVisualStyle
  2
Shaded with edges
 70
    26
177
     3
291
     0
 70
    58
 90
        2
176
     1
 90
        2
176
     1
 90
        1
176
     1
 90
        2
176
     1
 40
0.6
176
     1
 40
30.0
176
     1
 62
     7
420
 16777215
176
     1
 90
        1
176
     1
 90
        2
176
     1
 62
     7
176
     1
 62
   257
176
     1
 90
        2
176
     1
 90
        1
176
     1
 40
1.0
176
     1
 90
        8
176
     1
 62
   257
176
     1
 40
1.0
176
     1
 90
        1
176
     1
 90
        6
176
     1
 90
        2
176
     1
 62
     7
176
     1
 90
        3
176
     1
 90
        0
176
     1
 90
        0
176
     1
290
     0
176
     1
 90
        5
176
     1
 40
0.0
176
     1
 90
        0
176
     1
290
     0
176
     1
290
     1
176
     1
290
     1
176
     1
290
     0
176
     1
290
     0
176
     1
290
     0
176
     1
290
     0
176
     1
290
     0
176
     1
290
     0
176
     1
 90
       50
176
     1
 40
0.0
176
     1
 40
1.0
176
     1
 90
        0
176
     1
 62
    18
420
        0
176
     1
 90
       50
176
     1
 90
        3
176
     1
 62
     5
420
      255
176
     1
290
     0
176
     1
 90
       50
176
     1
 90
       50
176
     1
 90
       50
176
     1
290
     0
176
     1
 90
       50
176
     1
 62
   256
176
     0
 40
1.0
176
     0
 90
        2
176
     1
  1
strokes_ogs.tif
176
     1
290
     0
176
     1
 40
1.0
176
     1
 40
1.0
176
     1
  0
VISUALSTYLE
  5
A7
102
{ACAD_REACTORS
330
82
102
}
330
82
100
AcDbVisualStyle
  2
Shades of Gray
 70
    23
177
     3
291
     0
 70
    58
 90
        2
176
     1
 90
        2
176
     1
 90
        3
176
     1
 90
        0
176
     1
 40
0.6
176
     1
 40
30.0
176
     1
 62
     7
420
 16777215
176
     1
 90
        2
176
     1
 90
        2
176
     1
 62
     7
176
     1
 62
     7
176
     1
 90
        1
176
     1
 90
        1
176
     1
 40
40.0
176
     1
 90
        8
176
     1
 62
     7
176
     1
 40
1.0
176
     1
 90
        1
176
     1
 90
        6
176
     1
 90
        2
176
     1
 62
     7
176
     1
 90
        3
176
     1
 90
        0
176
     1
 90
        0
176
     1
290
     0
176
     1
 90
        1
176
     1
 40
0.0
176
     1
 90
        0
176
     1
290
     0
176
     1
290
     1
176
     1
290
     1
176
     1
290
     0
176
     1
290
     0
176
     1
290
     0
176
     1
290
     0
176
     1
290
     0
176
     1
290
     0
176
     1
 90
       50
176
     1
 40
0.0
176
     1
 40
1.0
176
     1
 90
        0
176
     1
 62
    18
420
        0
176
     1
 90
       50
176
     1
 90
        3
176
     1
 62
     5
420
      255
176
     1
290
     0
176
     1
 90
       50
176
     1
 90
       50
176
     1
 90
       50
176
     1
290
     0
176
     1
 90
       50
176
     1
 62
   256
176
     0
 40
1.0
176
     0
 90
        2
176
     1
  1
strokes_ogs.tif
176
     1
290
     0
176
     1
 40
1.0
176
     1
 40
1.0
176
     1
  0
VISUALSTYLE
  5
A8
102
{ACAD_REACTORS
330
82
102
}
330
82
100
AcDbVisualStyle
  2
Sketchy
 70
    24
177
     3
291
     0
 70
    58
 90
        1
176
     1
 90
        2
176
     1
 90
        2
176
     1
 90
        0
176
     1
 40
0.6
176
     1
 40
30.0
176
     1
 62
     7
420
 16777215
176
     1
 90
        2
176
     1
 90
        2
176
     1
 62
     7
176
     1
 62
     7
176
     1
 90
        1
176
     1
 90
        1
176
     1
 40
40.0
176
     1
 90
       11
176
     1
 62
     7
176
     1
 40
1.0
176
     1
 90
        1
176
     1
 90
        6
176
     1
 90
        2
176
     1
 62
     7
176
     1
 90
        6
176
     1
 90
        0
176
     1
 90
        0
176
     1
290
     0
176
     1
 90
        1
176
     1
 40
0.0
176
     1
 90
        0
176
     1
290
     0
176
     1
290
     1
176
     1
290
     1
176
     1
290
     0
176
     1
290
     0
176
     1
290
     0
176
     1
290
     0
176
     1
290
     0
176
     1
290
     0
176
     1
 90
       50
176
     1
 40
0.0
176
     1
 40
1.0
176
     1
 90
        0
176
     1
 62
    18
420
        0
176
     1
 90
       50
176
     1
 90
        3
176
     1
 62
     5
420
      255
176
     1
290
     0
176
     1
 90
       50
176
     1
 90
       50
176
     1
 90
       50
176
     1
290
     0
176
     1
 90
       50
176
     1
 62
   256
176
     0
 40
1.0
176
     0
 90
        2
176
     1
  1
strokes_ogs.tif
176
     1
290
     0
176
     1
 40
1.0
176
     1
 40
1.0
176
     1
  0
VISUALSTYLE
  5
8F
102
{ACAD_REACTORS
330
82
102
}
330
82
100
AcDbVisualStyle
  2
Thicken
 70
    13
177
     3
291
     1
 70
    58
 90
        2
176
     1
 90
        2
176
     1
 90
        1
176
     1
 90
        0
176
     1
 40
0.6
176
     1
 40
30.0
176
     1
 62
     7
420
 16777215
176
     1
 90
        1
176
     1
 90
        4
176
     1
 62
     7
176
     1
 62
   257
176
     1
 90
        1
176
     1
 90
        1
176
     1
 40
1.0
176
     1
 90
       12
176
     1
 62
     7
176
     1
 40
1.0
176
     1
 90
        1
176
     1
 90
        6
176
     1
 90
        2
176
     1
 62
     7
176
     1
 90
        5
176
     1
 90
        0
176
     1
 90
        0
176
     1
290
     0
176
     1
 90
        1
176
     1
 40
0.0
176
     1
 90
        0
176
     1
290
     0
176
     1
290
     1
176
     1
290
     1
176
     1
290
     0
176
     1
290
     0
176
     1
290
     0
176
     1
290
     0
176
     1
290
     0
176
     1
290
     0
176
     1
 90
       50
176
     1
 40
0.0
176
     1
 40
1.0
176
     1
 90
        0
176
     1
 62
    18
420
        0
176
     1
 90
       50
176
     1
 90
        3
176
     1
 62
     5
420
      255
176
     1
290
     0
176
     1
 90
       50
176
     1
 90
       50
176
     1
 90
       50
176
     1
290
     0
176
     1
 90
       50
176
     1
 62
   256
176
     0
 40
1.0
176
     0
 90
        2
176
     1
  1
strokes_ogs.tif
176
     1
290
     0
176
     1
 40
1.0
176
     1
 40
1.0
176
     1
  0
VISUALSTYLE
  5
A5
102
{ACAD_REACTORS
330
82
102
}
330
82
100
AcDbVisualStyle
  2
Wireframe
 70
     5
177
     3
291
     0
 70
    58
 90
        0
176
     1
 90
        2
176
     1
 90
        0
176
     1
 90
        0
176
     1
 40
0.6
176
     1
 40
30.0
176
     1
 62
     7
420
 16777215
176
     1
 90
        1
176
     1
 90
        4
176
     1
 62
     7
176
     1
 62
   257
176
     1
 90
        1
176
     1
 90
        1
176
     1
 40
1.0
176
     1
 90
        0
176
     1
 62
   257
176
     1
 40
1.0
176
     1
 90
        1
176
     1
 90
        6
176
     1
 90
        2
176
     1
 62
     7
176
     1
 90
        3
176
     1
 90
        0
176
     1
 90
        0
176
     1
290
     0
176
     1
 90
        1
176
     1
 40
0.0
176
     1
 90
        0
176
     1
290
     0
176
     1
290
     1
176
     1
290
     1
176
     1
290
     0
176
     1
290
     0
176
     1
290
     0
176
     1
290
     0
176
     1
290
     0
176
     1
290
     0
176
     1
 90
       50
176
     1
 40
0.0
176
     1
 40
1.0
176
     1
 90
        0
176
     1
 62
    18
420
        0
176
     1
 90
       50
176
     1
 90
        3
176
     1
 62
     5
420
      255
176
     1
290
     0
176
     1
 90
       50
176
     1
 90
       50
176
     1
 90
       50
176
     1
290
     0
176
     1
 90
       50
176
     1
 62
   256
176
     0
 40
1.0
176
     0
 90
        2
176
     1
  1
strokes_ogs.tif
176
     1
290
     0
176
     1
 40
1.0
176
     1
 40
1.0
176
     1
  0
VISUALSTYLE
  5
A9
102
{ACAD_REACTORS
330
82
102
}
330
82
100
AcDbVisualStyle
  2
X-Ray
 70
    25
177
     3
291
     0
 70
    58
 90
        2
176
     1
 90
        2
176
     1
 90
        1
176
     1
 90
        1
176
     1
 40
0.5
176
     1
 40
30.0
176
     1
 62
     7
420
 16777215
176
     1
 90
        1
176
     1
 90
        0
176
     1
 62
     7
176
     1
 62
   257
176
     1
 90
        1
176
     1
 90
        1
176
     1
 40
1.0
176
     1
 90
        8
176
     1
 62
     7
176
     1
 40
1.0
176
     1
 90
        1
176
     1
 90
        6
176
     1
 90
        2
176
     1
 62
     7
176
     1
 90
        3
176
     1
 90
        0
176
     1
 90
        0
176
     1
290
     0
176
     1
 90
       13
176
     1
 40
0.0
176
     1
 90
        0
176
     1
290
     0
176
     1
290
     1
176
     1
290
     1
176
     1
290
     0
176
     1
290
     0
176
     1
290
     0
176
     1
290
     0
176
     1
290
     0
176
     1
290
     0
176
     1
 90
       50
176
     1
 40
0.0
176
     1
 40
1.0
176
     1
 90
        0
176
     1
 62
    18
420
        0
176
     1
 90
       50
176
     1
 90
        3
176
     1
 62
     5
420
      255
176
     1
290
     0
176
     1
 90
       50
176
     1
 90
       50
176
     1
 90
       50
176
     1
290
     0
176
     1
 90
       50
176
     1
 62
   256
176
     0
 40
1.0
176
     0
 90
        2
176
     1
  1
strokes_ogs.tif
176
     1
290
     0
176
     1
 40
1.0
176
     1
 40
1.0
176
     1
  0
DICTIONARYVAR
  5
1F2
102
{ACAD_REACTORS
330
9B
102
}
330
9B
100
DictionaryVariables
280
     0
  1
1:1
  0
DICTIONARYVAR
  5
1EE
102
{ACAD_REACTORS
330
9B
102
}
330
9B
100
DictionaryVariables
280
     0
  1
STANDARD
  0
DICTIONARYVAR
  5
9C
102
{ACAD_REACTORS
330
9B
102
}
330
9B
100
DictionaryVariables
280
     0
  1
STANDARD
  0
DICTIONARYVAR
  5
1EF
102
{ACAD_REACTORS
330
9B
102
}
330
9B
100
DictionaryVariables
280
     0
  1
Imperial24
  0
DICTIONARYVAR
  5
1F0
102
{ACAD_REACTORS
330
9B
102
}
330
9B
100
DictionaryVariables
280
     0
  1
Imperial24
  0
DICTIONARYVAR
  5
1F4
102
{ACAD_REACTORS
330
9B
102
}
330
9B
100
DictionaryVariables
280
     0
  1
1
  0
DICTIONARYVAR
  5
1F5
102
{ACAD_REACTORS
330
9B
102
}
330
9B
100
DictionaryVariables
280
     0
  1
15
  0
DICTIONARYVAR
  5
1F3
102
{ACAD_REACTORS
330
9B
102
}
330
9B
100
DictionaryVariables
280
     0
  1
0
  0
DICTIONARYVAR
  5
1F1
102
{ACAD_REACTORS
330
9B
102
}
330
9B
100
DictionaryVariables
280
     0
  1
0
  0
DICTIONARY
  5
1FA
330
C6
100
AcDbDictionary
280
     1
281
     1
  3
ACAD_XREC_ROUNDTRIP
360
1FB
  0
DICTIONARY
  5
1F8
330
C4
100
AcDbDictionary
280
     1
281
     1
  3
ACAD_XREC_ROUNDTRIP
360
1F9
  0
DICTIONARY
  5
1F6
330
94
100
AcDbDictionary
280
     1
281
     1
  3
ACAD_ROUNDTRIP_2008_TABLESTYLE_CELLSTYLEMAP
360
1F7
  0
XRECORD
  5
1FB
102
{ACAD_REACTORS
330
1FA
102
}
330
1FA
100
AcDbXrecord
280
     1
102
DISPLAYNAME
  1
Imperial24
102
FLAGS
 90
        0
  0
XRECORD
  5
1F9
102
{ACAD_REACTORS
330
1F8
102
}
330
1F8
100
AcDbXrecord
280
     1
102
DISPLAYNAME
  1
Imperial24
102
FLAGS
 90
        0
  0
CELLSTYLEMAP
  5
1F7
102
{ACAD_REACTORS
330
1F6
102
}
330
1F6
100
AcDbCellStyleMap
 90
        3
300
CELLSTYLE
  1
TABLEFORMAT_BEGIN
 90
        5
170
     1
 91
        0
 92
    32768
 62
   257
 93
        1
300
CONTENTFORMAT
  1
CONTENTFORMAT_BEGIN
 90
        0
 91
        0
 92
      512
 93
        0
300

 40
0.0
140
1.0
 94
        5
 62
     0
340
12
144
0.25
309
CONTENTFORMAT_END
171
     0
 94
        6
 95
        1
302
GRIDFORMAT
  1
GRIDFORMAT_BEGIN
 90
        0
 91
        1
 62
     0
 92
       -2
340
0
 93
        0
 40
0.045
309
GRIDFORMAT_END
 95
        2
302
GRIDFORMAT
  1
GRIDFORMAT_BEGIN
 90
        0
 91
        1
 62
     0
 92
       -2
340
0
 93
        0
 40
0.045
309
GRIDFORMAT_END
 95
        4
302
GRIDFORMAT
  1
GRIDFORMAT_BEGIN
 90
        0
 91
        1
 62
     0
 92
       -2
340
0
 93
        0
 40
0.045
309
GRIDFORMAT_END
 95
        8
302
GRIDFORMAT
  1
GRIDFORMAT_BEGIN
 90
        0
 91
        1
 62
     0
 92
       -2
340
0
 93
        0
 40
0.045
309
GRIDFORMAT_END
 95
       16
302
GRIDFORMAT
  1
GRIDFORMAT_BEGIN
 90
        0
 91
        1
 62
     0
 92
       -2
340
0
 93
        0
 40
0.045
309
GRIDFORMAT_END
 95
       32
302
GRIDFORMAT
  1
GRIDFORMAT_BEGIN
 90
        0
 91
        1
 62
     0
 92
       -2
340
0
 93
        0
 40
0.045
309
GRIDFORMAT_END
309
TABLEFORMAT_END
  1
CELLSTYLE_BEGIN
 90
        1
 91
        1
300
_TITLE
309
CELLSTYLE_END
300
CELLSTYLE
  1
TABLEFORMAT_BEGIN
 90
        5
170
     1
 91
        0
 92
        0
 62
   257
 93
        1
300
CONTENTFORMAT
  1
CONTENTFORMAT_BEGIN
 90
        0
 91
        0
 92
      512
 93
        0
300

 40
0.0
140
1.0
 94
        5
 62
     0
340
12
144
0.18
309
CONTENTFORMAT_END
171
     0
 94
        6
 95
        1
302
GRIDFORMAT
  1
GRIDFORMAT_BEGIN
 90
        0
 91
        1
 62
     0
 92
       -2
340
0
 93
        0
 40
0.045
309
GRIDFORMAT_END
 95
        2
302
GRIDFORMAT
  1
GRIDFORMAT_BEGIN
 90
        0
 91
        1
 62
     0
 92
       -2
340
0
 93
        0
 40
0.045
309
GRIDFORMAT_END
 95
        4
302
GRIDFORMAT
  1
GRIDFORMAT_BEGIN
 90
        0
 91
        1
 62
     0
 92
       -2
340
0
 93
        0
 40
0.045
309
GRIDFORMAT_END
 95
        8
302
GRIDFORMAT
  1
GRIDFORMAT_BEGIN
 90
        0
 91
        1
 62
     0
 92
       -2
340
0
 93
        0
 40
0.045
309
GRIDFORMAT_END
 95
       16
302
GRIDFORMAT
  1
GRIDFORMAT_BEGIN
 90
        0
 91
        1
 62
     0
 92
       -2
340
0
 93
        0
 40
0.045
309
GRIDFORMAT_END
 95
       32
302
GRIDFORMAT
  1
GRIDFORMAT_BEGIN
 90
        0
 91
        1
 62
     0
 92
       -2
340
0
 93
        0
 40
0.045
309
GRIDFORMAT_END
309
TABLEFORMAT_END
  1
CELLSTYLE_BEGIN
 90
        2
 91
        1
300
_HEADER
309
CELLSTYLE_END
300
CELLSTYLE
  1
TABLEFORMAT_BEGIN
 90
        5
170
     1
 91
        0
 92
        0
 62
   257
 93
        1
300
CONTENTFORMAT
  1
CONTENTFORMAT_BEGIN
 90
        0
 91
        0
 92
      512
 93
        0
300

 40
0.0
140
1.0
 94
        2
 62
     0
340
12
144
0.18
309
CONTENTFORMAT_END
171
     0
 94
        6
 95
        1
302
GRIDFORMAT
  1
GRIDFORMAT_BEGIN
 90
        0
 91
        1
 62
     0
 92
       -2
340
0
 93
        0
 40
0.045
309
GRIDFORMAT_END
 95
        2
302
GRIDFORMAT
  1
GRIDFORMAT_BEGIN
 90
        0
 91
        1
 62
     0
 92
       -2
340
0
 93
        0
 40
0.045
309
GRIDFORMAT_END
 95
        4
302
GRIDFORMAT
  1
GRIDFORMAT_BEGIN
 90
        0
 91
        1
 62
     0
 92
       -2
340
0
 93
        0
 40
0.045
309
GRIDFORMAT_END
 95
        8
302
GRIDFORMAT
  1
GRIDFORMAT_BEGIN
 90
        0
 91
        1
 62
     0
 92
       -2
340
0
 93
        0
 40
0.045
309
GRIDFORMAT_END
 95
       16
302
GRIDFORMAT
  1
GRIDFORMAT_BEGIN
 90
        0
 91
        1
 62
     0
 92
       -2
340
0
 93
        0
 40
0.045
309
GRIDFORMAT_END
 95
       32
302
GRIDFORMAT
  1
GRIDFORMAT_BEGIN
 90
        0
 91
        1
 62
     0
 92
       -2
340
0
 93
        0
 40
0.045
309
GRIDFORMAT_END
309
TABLEFORMAT_END
  1
CELLSTYLE_BEGIN
 90
        3
 91
        2
300
_DATA
309
CELLSTYLE_END
  0
ENDSEC
  0
EOF
