  0
SECTION
  2
HEADER
  9
$ACADVER
  1
AC1009
  9
$DWGCODEPAGE
  3
ansi_1252
  9
$INSBASE
 10
0.0
 20
0.0
 30
0.0
  9
$EXTMIN
 10
1.000000000000000E+20
 20
1.000000000000000E+20
 30
1.000000000000000E+20
  9
$EXTMAX
 10
-1.000000000000000E+20
 20
-1.000000000000000E+20
 30
-1.000000000000000E+20
  9
$LIMMIN
 10
0.0
 20
0.0
  9
$LIMMAX
 10
12.0
 20
9.0
  9
$ORTHOMODE
 70
     0
  9
$REGENMODE
 70
     1
  9
$FILLMODE
 70
     1
  9
$QTEXTMODE
 70
     0
  9
$MIRRTEXT
 70
     1
  9
$DRAGMODE
 70
     2
  9
$LTSCALE
 40
1.0
  9
$OSMODE
 70
    37
  9
$ATTMODE
 70
     1
  9
$TEXTSIZE
 40
0.2
  9
$TRACEWID
 40
0.05
  9
$TEXTSTYLE
  7
STANDARD
  9
$CLAYER
  8
0
  9
$CELTYPE
  6
BYLAYER
  9
$CECOLOR
 62
   256
  9
$DIMSCALE
 40
1.0
  9
$DIMASZ
 40
0.18
  9
$DIMEXO
 40
0.0625
  9
$DIMDLI
 40
0.38
  9
$DIMRND
 40
0.0
  9
$DIMDLE
 40
0.0
  9
$DIMEXE
 40
0.18
  9
$DIMTP
 40
0.0
  9
$DIMTM
 40
0.0
  9
$DIMTXT
 40
0.18
  9
$DIMCEN
 40
0.09
  9
$DIMTSZ
 40
0.0
  9
$DIMTOL
 70
     0
  9
$DIMLIM
 70
     0
  9
$DIMTIH
 70
     1
  9
$DIMTOH
 70
     1
  9
$DIMSE1
 70
     0
  9
$DIMSE2
 70
     0
  9
$DIMTAD
 70
     0
  9
$DIMZIN
 70
     0
  9
$DIMBLK
  1

  9
$DIMASO
 70
     1
  9
$DIMSHO
 70
     1
  9
$DIMPOST
  1

  9
$DIMAPOST
  1

  9
$DIMALT
 70
     0
  9
$DIMALTD
 70
     2
  9
$DIMALTF
 40
25.4
  9
$DIMLFAC
 40
1.0
  9
$DIMTOFL
 70
     0
  9
$DIMTVP
 40
0.0
  9
$DIMTIX
 70
     0
  9
$DIMSOXD
 70
     0
  9
$DIMSAH
 70
     0
  9
$DIMBLK1
  1

  9
$DIMBLK2
  1

  9
$DIMSTYLE
  2
STANDARD
  9
$DIMCLRD
 70
     0
  9
$DIMCLRE
 70
     0
  9
$DIMCLRT
 70
     0
  9
$DIMTFAC
 40
1.0
  9
$DIMGAP
 40
0.09
  9
$LUNITS
 70
     2
  9
$LUPREC
 70
     4
  9
$SKETCHINC
 40
0.1
  9
$FILLETRAD
 40
0.5
  9
$AUNITS
 70
     0
  9
$AUPREC
 70
     0
  9
$MENU
  1
.
  9
$ELEVATION
 40
0.0
  9
$PELEVATION
 40
0.0
  9
$THICKNESS
 40
0.0
  9
$LIMCHECK
 70
     0
  9
$CHAMFERA
 40
0.5
  9
$CHAMFERB
 40
0.5
  9
$SKPOLY
 70
     0
  9
$TDCREATE
 40
2455615.530748183
  9
$TDUPDATE
 40
2455615.530748183
  9
$TDINDWG
 40
0.0000000116
  9
$TDUSRTIMER
 40
0.0000000116
  9
$USRTIMER
 70
     1
  9
$ANGBASE
 50
0.0
  9
$ANGDIR
 70
     0
  9
$PDMODE
 70
     0
  9
$PDSIZE
 40
0.0
  9
$PLINEWID
 40
0.0
  9
$COORDS
 70
     1
  9
$SPLFRAME
 70
     0
  9
$SPLINETYPE
 70
     6
  9
$SPLINESEGS
 70
     8
  9
$ATTDIA
 70
     0
  9
$ATTREQ
 70
     1
  9
$HANDLING
 70
     1
  9
$HANDSEED
  5
A92
  9
$SURFTAB1
 70
     6
  9
$SURFTAB2
 70
     6
  9
$SURFTYPE
 70
     6
  9
$SURFU
 70
     6
  9
$SURFV
 70
     6
  9
$UCSNAME
  2

  9
$UCSORG
 10
0.0
 20
0.0
 30
0.0
  9
$UCSXDIR
 10
1.0
 20
0.0
 30
0.0
  9
$UCSYDIR
 10
0.0
 20
1.0
 30
0.0
  9
$PUCSNAME
  2

  9
$PUCSORG
 10
0.0
 20
0.0
 30
0.0
  9
$PUCSXDIR
 10
1.0
 20
0.0
 30
0.0
  9
$PUCSYDIR
 10
0.0
 20
1.0
 30
0.0
  9
$USERI1
 70
     0
  9
$USERI2
 70
     0
  9
$USERI3
 70
     0
  9
$USERI4
 70
     0
  9
$USERI5
 70
     0
  9
$USERR1
 40
0.0
  9
$USERR2
 40
0.0
  9
$USERR3
 40
0.0
  9
$USERR4
 40
0.0
  9
$USERR5
 40
0.0
  9
$WORLDVIEW
 70
     1
  9
$SHADEDGE
 70
     3
  9
$SHADEDIF
 70
    70
  9
$TILEMODE
 70
     1
  9
$MAXACTVP
 70
    64
  9
$PLIMCHECK
 70
     0
  9
$PEXTMIN
 10
1.000000000000000E+20
 20
1.000000000000000E+20
 30
1.000000000000000E+20
  9
$PEXTMAX
 10
-1.000000000000000E+20
 20
-1.000000000000000E+20
 30
-1.000000000000000E+20
  9
$PLIMMIN
 10
0.0
 20
0.0
  9
$PLIMMAX
 10
12.0
 20
9.0
  9
$UNITMODE
 70
     0
  9
$VISRETAIN
 70
     1
  9
$PLINEGEN
 70
     0
  9
$PSLTSCALE
 70
     1
  0
ENDSEC
  0
SECTION
  2
TABLES
  0
TABLE
  2
VPORT
 70
     1
  0
VPORT
  2
*ACTIVE
 70
     0
 10
0.0
 20
0.0
 11
1.0
 21
1.0
 12
0.0
 22
0.0
 13
0.0
 23
0.0
 14
0.5
 24
0.5
 15
0.5
 25
0.5
 16
420.9846496582031
 26
-664.1762084960938
 36
317.8524780273438
 17
109.5000305175781
 27
13.4395751953125
 37
75.64999389648438
 40
636.6633117235447
 41
1.972972972850329
 42
50.0
 43
0.0
 44
0.0
 50
0.0
 51
0.0
 71
     0
 72
   100
 73
     1
 74
     3
 75
     0
 76
     0
 77
     0
 78
     0
  0
ENDTAB
  0
TABLE
  2
LTYPE
 70
     1
  0
LTYPE
  2
CONTINUOUS
 70
     0
  3
Solid line
 72
    65
 73
     0
 40
0.0
  0
ENDTAB
  0
TABLE
  2
LAYER
 70
     2
  0
LAYER
  2
0
 70
     0
 62
     7
  6
CONTINUOUS
  0
LAYER
  2
LAYER_1
 70
     0
 62
     7
  6
CONTINUOUS
  0
ENDTAB
  0
TABLE
  2
STYLE
 70
     1
  0
STYLE
  2
STANDARD
 70
     0
 40
0.0
 41
1.0
 50
0.0
 71
     0
 42
0.2
  3
txt
  4

  0
ENDTAB
  0
TABLE
  2
VIEW
 70
     0
  0
ENDTAB
  0
TABLE
  2
UCS
 70
     0
  0
ENDTAB
  0
TABLE
  2
APPID
 70
     1
  0
APPID
  2
ACAD
 70
     0
  0
ENDTAB
  0
TABLE
  2
DIMSTYLE
 70
     1
  0
DIMSTYLE
  2
STANDARD
 70
     0
  3

  4

  5

  6

  7

 40
1.0
 41
0.18
 42
0.0625
 43
0.38
 44
0.18
 45
0.0
 46
0.0
 47
0.0
 48
0.0
140
0.18
141
0.09
142
0.0
143
25.4
144
1.0
145
0.0
146
1.0
147
0.09
 71
     0
 72
     0
 73
     1
 74
     1
 75
     0
 76
     0
 77
     0
 78
     0
170
     0
171
     2
172
     0
173
     0
174
     0
175
     0
176
     0
177
     0
178
     0
  0
ENDTAB
  0
ENDSEC
  0
SECTION
  2
BLOCKS
  0
BLOCK
  8
0
  2
$MODEL_SPACE
 70
     0
 10
0.0
 20
0.0
 30
0.0
  3
$MODEL_SPACE
  1

  0
ENDBLK
  5
21
  8
0
  0
BLOCK
 67
     1
  8
0
  2
$PAPER_SPACE
 70
     0
 10
0.0
 20
0.0
 30
0.0
  3
$PAPER_SPACE
  1

  0
ENDBLK
  5
1D
 67
     1
  8
0
  0
BLOCK
  8
0
  2
38
 70
     0
 10
0.0
 20
0.0
 30
0.0
  3
38
  1

  0
POLYLINE
  5
3C
  8
0
 62
     9
 66
     1
 10
0.0
 20
0.0
 30
0.0
 70
    64
 71
    40
 72
    58
  0
VERTEX
  5
3D
  8
0
 10
222.75
 20
-36.40000152587891
 30
221.4499969482422
 70
   192
  0
VERTEX
  5
3E
  8
0
 10
222.75
 20
-36.40000152587891
 30
204.4499969482422
 70
   192
  0
VERTEX
  5
3F
  8
0
 10
219.2299499511719
 20
-35.84326934814453
 30
204.4499969482422
 70
   192
  0
VERTEX
  5
40
  8
0
 10
216.0531768798828
 20
-34.22509002685547
 30
204.4499969482422
 70
   192
  0
VERTEX
  5
41
  8
0
 10
219.2321929931641
 20
-35.84366989135742
 30
221.4499969482422
 70
   192
  0
VERTEX
  5
42
  8
0
 10
213.5300445556641
 20
-31.70385551452637
 30
204.4499969482422
 70
   192
  0
VERTEX
  5
43
  8
0
 10
216.0462188720703
 20
-34.22783660888672
 30
221.4499969482422
 70
   192
  0
VERTEX
  5
44
  8
0
 10
213.5234069824219
 20
-31.70446395874023
 30
221.4499969482422
 70
   192
  0
VERTEX
  5
45
  8
0
 10
211.9097137451172
 20
-28.5272388458252
 30
204.4499969482422
 70
   192
  0
VERTEX
  5
46
  8
0
 10
211.3500061035156
 20
-25.0
 30
204.4499969482422
 70
   192
  0
VERTEX
  5
47
  8
0
 10
211.9031372070312
 20
-28.52713203430176
 30
221.4499969482422
 70
   192
  0
VERTEX
  5
48
  8
0
 10
211.3500061035156
 20
-25.0
 30
221.4499969482422
 70
   192
  0
VERTEX
  5
49
  8
0
 10
226.2800903320312
 20
-35.83375930786133
 30
221.4499969482422
 70
   192
  0
VERTEX
  5
4A
  8
0
 10
229.4528961181641
 20
-34.20916748046875
 30
221.4499969482422
 70
   192
  0
VERTEX
  5
4B
  8
0
 10
226.2772369384766
 20
-35.84029006958008
 30
204.4499969482422
 70
   192
  0
VERTEX
  5
4C
  8
0
 10
229.453857421875
 20
-34.21994781494141
 30
204.4499969482422
 70
   192
  0
VERTEX
  5
4D
  8
0
 10
231.9709014892578
 20
-31.68996620178223
 30
221.4499969482422
 70
   192
  0
VERTEX
  5
4E
  8
0
 10
233.5880889892578
 20
-28.51197814941406
 30
221.4499969482422
 70
   192
  0
VERTEX
  5
4F
  8
0
 10
231.97509765625
 20
-31.69681739807129
 30
204.4499969482422
 70
   192
  0
VERTEX
  5
50
  8
0
 10
234.1499938964844
 20
-25.0
 30
221.4499969482422
 70
   192
  0
VERTEX
  5
51
  8
0
 10
233.59326171875
 20
-28.52004623413086
 30
204.4499969482422
 70
   192
  0
VERTEX
  5
52
  8
0
 10
234.1499938964844
 20
-25.0
 30
204.4499969482422
 70
   192
  0
VERTEX
  5
53
  8
0
 10
211.90673828125
 20
-21.47995376586914
 30
204.4499969482422
 70
   192
  0
VERTEX
  5
54
  8
0
 10
211.9119110107422
 20
-21.48802185058594
 30
221.4499969482422
 70
   192
  0
VERTEX
  5
55
  8
0
 10
222.75
 20
-13.60000038146973
 30
204.4499969482422
 70
   192
  0
VERTEX
  5
56
  8
0
 10
219.2199096679688
 20
-14.16623973846436
 30
221.4499969482422
 70
   192
  0
VERTEX
  5
57
  8
0
 10
219.2227630615234
 20
-14.15971088409424
 30
204.4499969482422
 70
   192
  0
VERTEX
  5
58
  8
0
 10
213.5290985107422
 20
-18.31003379821777
 30
221.4499969482422
 70
   192
  0
VERTEX
  5
59
  8
0
 10
213.52490234375
 20
-18.30318260192871
 30
204.4499969482422
 70
   192
  0
VERTEX
  5
5A
  8
0
 10
216.046142578125
 20
-15.78005218505859
 30
204.4499969482422
 70
   192
  0
VERTEX
  5
5B
  8
0
 10
229.4468231201172
 20
-15.77490901947021
 30
204.4499969482422
 70
   192
  0
VERTEX
  5
5C
  8
0
 10
229.4537811279297
 20
-15.77216243743896
 30
221.4499969482422
 70
   192
  0
VERTEX
  5
5D
  8
0
 10
226.2678070068359
 20
-14.15633010864258
 30
221.4499969482422
 70
   192
  0
VERTEX
  5
5E
  8
0
 10
222.75
 20
-13.60000038146973
 30
221.4499969482422
 70
   192
  0
VERTEX
  5
5F
  8
0
 10
226.2700500488281
 20
-14.15673160552979
 30
204.4499969482422
 70
   192
  0
VERTEX
  5
60
  8
0
 10
233.5902862548828
 20
-21.4727611541748
 30
204.4499969482422
 70
   192
  0
VERTEX
  5
61
  8
0
 10
231.9765930175781
 20
-18.29553604125977
 30
221.4499969482422
 70
   192
  0
VERTEX
  5
62
  8
0
 10
231.9699554443359
 20
-18.29614448547363
 30
204.4499969482422
 70
   192
  0
VERTEX
  5
63
  8
0
 10
233.5968627929688
 20
-21.47286796569824
 30
221.4499969482422
 70
   192
  0
VERTEX
  5
64
  8
0
 10
216.0471038818359
 20
-15.79083347320557
 30
221.4499969482422
 70
   192
  0
VERTEX
  5
65
  8
0
 62
     9
 10
0.0
 20
0.0
 30
0.0
 70
   128
 71
     3
 72
     2
 73
     1
  0
VERTEX
  5
66
  8
0
 62
     9
 10
0.0
 20
0.0
 30
0.0
 70
   128
 71
     5
 72
     4
 73
     3
  0
VERTEX
  5
67
  8
0
 62
     9
 10
0.0
 20
0.0
 30
0.0
 70
   128
 71
     3
 72
     1
 73
     5
  0
VERTEX
  5
68
  8
0
 62
     9
 10
0.0
 20
0.0
 30
0.0
 70
   128
 71
     4
 72
     7
 73
     6
  0
VERTEX
  5
69
  8
0
 62
     9
 10
0.0
 20
0.0
 30
0.0
 70
   128
 71
     7
 72
     4
 73
     5
  0
VERTEX
  5
6A
  8
0
 62
     9
 10
0.0
 20
0.0
 30
0.0
 70
   128
 71
     9
 72
     6
 73
     8
  0
VERTEX
  5
6B
  8
0
 62
     9
 10
0.0
 20
0.0
 30
0.0
 70
   128
 71
     7
 72
     8
 73
     6
  0
VERTEX
  5
6C
  8
0
 62
     9
 10
0.0
 20
0.0
 30
0.0
 70
   128
 71
    11
 72
    10
 73
     9
  0
VERTEX
  5
6D
  8
0
 62
     9
 10
0.0
 20
0.0
 30
0.0
 70
   128
 71
     9
 72
     8
 73
    11
  0
VERTEX
  5
6E
  8
0
 62
     9
 10
0.0
 20
0.0
 30
0.0
 70
   128
 71
    12
 72
    10
 73
    11
  0
VERTEX
  5
6F
  8
0
 62
     9
 10
0.0
 20
0.0
 30
0.0
 70
   128
 71
    13
 72
     1
 73
     2
  0
VERTEX
  5
70
  8
0
 62
     9
 10
0.0
 20
0.0
 30
0.0
 70
   128
 71
    13
 72
    15
 73
    14
  0
VERTEX
  5
71
  8
0
 62
     9
 10
0.0
 20
0.0
 30
0.0
 70
   128
 71
    15
 72
    13
 73
     2
  0
VERTEX
  5
72
  8
0
 62
     9
 10
0.0
 20
0.0
 30
0.0
 70
   128
 71
    17
 72
    14
 73
    16
  0
VERTEX
  5
73
  8
0
 62
     9
 10
0.0
 20
0.0
 30
0.0
 70
   128
 71
    15
 72
    16
 73
    14
  0
VERTEX
  5
74
  8
0
 62
     9
 10
0.0
 20
0.0
 30
0.0
 70
   128
 71
    19
 72
    18
 73
    17
  0
VERTEX
  5
75
  8
0
 62
     9
 10
0.0
 20
0.0
 30
0.0
 70
   128
 71
    17
 72
    16
 73
    19
  0
VERTEX
  5
76
  8
0
 62
     9
 10
0.0
 20
0.0
 30
0.0
 70
   128
 71
    18
 72
    21
 73
    20
  0
VERTEX
  5
77
  8
0
 62
     9
 10
0.0
 20
0.0
 30
0.0
 70
   128
 71
    21
 72
    18
 73
    19
  0
VERTEX
  5
78
  8
0
 62
     9
 10
0.0
 20
0.0
 30
0.0
 70
   128
 71
    21
 72
    22
 73
    20
  0
VERTEX
  5
79
  8
0
 62
     9
 10
0.0
 20
0.0
 30
0.0
 70
   128
 71
    12
 72
    24
 73
    23
  0
VERTEX
  5
7A
  8
0
 62
     9
 10
0.0
 20
0.0
 30
0.0
 70
   128
 71
    27
 72
    26
 73
    25
  0
VERTEX
  5
7B
  8
0
 62
     9
 10
0.0
 20
0.0
 30
0.0
 70
   128
 71
    30
 72
    29
 73
    28
  0
VERTEX
  5
7C
  8
0
 62
     9
 10
0.0
 20
0.0
 30
0.0
 70
   128
 71
    33
 72
    32
 73
    31
  0
VERTEX
  5
7D
  8
0
 62
     9
 10
0.0
 20
0.0
 30
0.0
 70
   128
 71
    33
 72
    35
 73
    34
  0
VERTEX
  5
7E
  8
0
 62
     9
 10
0.0
 20
0.0
 30
0.0
 70
   128
 71
    38
 72
    37
 73
    36
  0
VERTEX
  5
7F
  8
0
 62
     9
 10
0.0
 20
0.0
 30
0.0
 70
   128
 71
    37
 72
    38
 73
    32
  0
VERTEX
  5
80
  8
0
 62
     9
 10
0.0
 20
0.0
 30
0.0
 70
   128
 71
    22
 72
    36
 73
    39
  0
VERTEX
  5
81
  8
0
 62
     9
 10
0.0
 20
0.0
 30
0.0
 70
   128
 71
    37
 72
    39
 73
    36
  0
VERTEX
  5
82
  8
0
 62
     9
 10
0.0
 20
0.0
 30
0.0
 70
   128
 71
    22
 72
    39
 73
    20
  0
VERTEX
  5
83
  8
0
 62
     9
 10
0.0
 20
0.0
 30
0.0
 70
   128
 71
    33
 72
    31
 73
    35
  0
VERTEX
  5
84
  8
0
 62
     9
 10
0.0
 20
0.0
 30
0.0
 70
   128
 71
    32
 72
    38
 73
    31
  0
VERTEX
  5
85
  8
0
 62
     9
 10
0.0
 20
0.0
 30
0.0
 70
   128
 71
    26
 72
    34
 73
    25
  0
VERTEX
  5
86
  8
0
 62
     9
 10
0.0
 20
0.0
 30
0.0
 70
   128
 71
    34
 72
    35
 73
    25
  0
VERTEX
  5
87
  8
0
 62
     9
 10
0.0
 20
0.0
 30
0.0
 70
   128
 71
    30
 72
    40
 73
    27
  0
VERTEX
  5
88
  8
0
 62
     9
 10
0.0
 20
0.0
 30
0.0
 70
   128
 71
    40
 72
    26
 73
    27
  0
VERTEX
  5
89
  8
0
 62
     9
 10
0.0
 20
0.0
 30
0.0
 70
   128
 71
    29
 72
    24
 73
    28
  0
VERTEX
  5
8A
  8
0
 62
     9
 10
0.0
 20
0.0
 30
0.0
 70
   128
 71
    30
 72
    28
 73
    40
  0
VERTEX
  5
8B
  8
0
 62
     9
 10
0.0
 20
0.0
 30
0.0
 70
   128
 71
    23
 72
    10
 73
    12
  0
VERTEX
  5
8C
  8
0
 62
     9
 10
0.0
 20
0.0
 30
0.0
 70
   128
 71
    29
 72
    23
 73
    24
  0
VERTEX
  5
8D
  8
0
 62
     9
 10
0.0
 20
0.0
 30
0.0
 70
   128
 71
     6
 72
     9
 73
    31
  0
VERTEX
  5
8E
  8
0
 62
     9
 10
0.0
 20
0.0
 30
0.0
 70
   128
 71
    23
 72
    29
 73
    27
  0
VERTEX
  5
8F
  8
0
 62
     9
 10
0.0
 20
0.0
 30
0.0
 70
   128
 71
    30
 72
    27
 73
    29
  0
VERTEX
  5
90
  8
0
 62
     9
 10
0.0
 20
0.0
 30
0.0
 70
   128
 71
    27
 72
    25
 73
    10
  0
VERTEX
  5
91
  8
0
 62
     9
 10
0.0
 20
0.0
 30
0.0
 70
   128
 71
    10
 72
    23
 73
    27
  0
VERTEX
  5
92
  8
0
 62
     9
 10
0.0
 20
0.0
 30
0.0
 70
   128
 71
    36
 72
     4
 73
    38
  0
VERTEX
  5
93
  8
0
 62
     9
 10
0.0
 20
0.0
 30
0.0
 70
   128
 71
     9
 72
    25
 73
    35
  0
VERTEX
  5
94
  8
0
 62
     9
 10
0.0
 20
0.0
 30
0.0
 70
   128
 71
    22
 72
    15
 73
     2
  0
VERTEX
  5
95
  8
0
 62
     9
 10
0.0
 20
0.0
 30
0.0
 70
   128
 71
    19
 72
    15
 73
    21
  0
VERTEX
  5
96
  8
0
 62
     9
 10
0.0
 20
0.0
 30
0.0
 70
   128
 71
    15
 72
    22
 73
    21
  0
VERTEX
  5
97
  8
0
 62
     9
 10
0.0
 20
0.0
 30
0.0
 70
   128
 71
    15
 72
    19
 73
    16
  0
VERTEX
  5
98
  8
0
 62
     9
 10
0.0
 20
0.0
 30
0.0
 70
   128
 71
    36
 72
    22
 73
     2
  0
VERTEX
  5
99
  8
0
 62
     9
 10
0.0
 20
0.0
 30
0.0
 70
   128
 71
     4
 72
    36
 73
     3
  0
VERTEX
  5
9A
  8
0
 62
     9
 10
0.0
 20
0.0
 30
0.0
 70
   128
 71
    36
 72
     2
 73
     3
  0
VERTEX
  5
9B
  8
0
 62
     9
 10
0.0
 20
0.0
 30
0.0
 70
   128
 71
     6
 72
    31
 73
    38
  0
VERTEX
  5
9C
  8
0
 62
     9
 10
0.0
 20
0.0
 30
0.0
 70
   128
 71
     4
 72
     6
 73
    38
  0
VERTEX
  5
9D
  8
0
 62
     9
 10
0.0
 20
0.0
 30
0.0
 70
   128
 71
     9
 72
    10
 73
    25
  0
VERTEX
  5
9E
  8
0
 62
     9
 10
0.0
 20
0.0
 30
0.0
 70
   128
 71
    31
 72
     9
 73
    35
  0
SEQEND
  5
9F
  8
0
 62
     9
  0
ENDBLK
  5
A3
  8
0
  0
BLOCK
  8
0
  2
39
 70
     0
 10
0.0
 20
0.0
 30
0.0
  3
39
  1

  0
POLYLINE
  5
A5
  8
0
 62
     9
 66
     1
 10
0.0
 20
0.0
 30
0.0
 70
    64
 71
    29
 72
    54
  0
VERTEX
  5
A6
  8
0
 10
126.0
 20
-21.83866691589355
 30
211.8678741455078
 70
   192
  0
VERTEX
  5
A7
  8
0
 10
246.0
 20
-28.16133308410645
 30
211.8678741455078
 70
   192
  0
VERTEX
  5
A8
  8
0
 10
126.0
 20
-28.06146049499512
 30
211.8479919433594
 70
   192
  0
VERTEX
  5
A9
  8
0
 10
126.0
 20
-33.68502426147461
 30
214.5325012207031
 70
   192
  0
VERTEX
  5
AA
  8
0
 10
246.0
 20
-33.75558853149414
 30
214.5796356201172
 70
   192
  0
VERTEX
  5
AB
  8
0
 10
246.0
 20
-37.62129974365234
 30
219.4436645507812
 70
   192
  0
VERTEX
  5
AC
  8
0
 10
126.0
 20
-37.593017578125
 30
219.4013214111328
 70
   192
  0
VERTEX
  5
AD
  8
0
 10
126.0
 20
-39.0
 30
225.5
 70
   192
  0
VERTEX
  5
AE
  8
0
 10
246.0
 20
-39.0
 30
225.5
 70
   192
  0
VERTEX
  5
AF
  8
0
 10
246.0
 20
-21.93853950500488
 30
211.8479919433594
 70
   192
  0
VERTEX
  5
B0
  8
0
 10
126.0
 20
-16.24441146850586
 30
214.5796356201172
 70
   192
  0
VERTEX
  5
B1
  8
0
 10
246.0
 20
-16.31497573852539
 30
214.5325012207031
 70
   192
  0
VERTEX
  5
B2
  8
0
 10
246.0
 20
-12.40698146820068
 30
219.4013214111328
 70
   192
  0
VERTEX
  5
B3
  8
0
 10
126.0
 20
-12.37870025634766
 30
219.4436645507812
 70
   192
  0
VERTEX
  5
B4
  8
0
 10
246.0
 20
-11.0
 30
225.5
 70
   192
  0
VERTEX
  5
B5
  8
0
 10
126.0
 20
-11.0
 30
225.5
 70
   192
  0
VERTEX
  5
B6
  8
0
 10
126.0
 20
-37.794921875
 30
230.8081970214844
 70
   192
  0
VERTEX
  5
B7
  8
0
 10
126.0
 20
-34.89667129516602
 30
235.4125518798828
 70
   192
  0
VERTEX
  5
B8
  8
0
 10
126.0
 20
-30.33930397033691
 30
238.4420013427734
 70
   192
  0
VERTEX
  5
B9
  8
0
 10
126.0
 20
-19.62849235534668
 30
238.428466796875
 70
   192
  0
VERTEX
  5
BA
  8
0
 10
126.0
 20
-25.0
 30
239.5
 70
   192
  0
VERTEX
  5
BB
  8
0
 10
126.0
 20
-12.07669544219971
 30
230.8355712890625
 70
   192
  0
VERTEX
  5
BC
  8
0
 10
126.0
 20
-15.1555061340332
 30
235.3597717285156
 70
   192
  0
VERTEX
  5
BD
  8
0
 10
246.0
 20
-37.593017578125
 30
231.5986785888672
 70
   192
  0
VERTEX
  5
BE
  8
0
 10
246.0
 20
-21.83866691589355
 30
239.1321258544922
 70
   192
  0
VERTEX
  5
BF
  8
0
 10
246.0
 20
-28.06146049499512
 30
239.1520080566406
 70
   192
  0
VERTEX
  5
C0
  8
0
 10
246.0
 20
-33.68502426147461
 30
236.4674987792969
 70
   192
  0
VERTEX
  5
C1
  8
0
 10
246.0
 20
-12.37870025634766
 30
231.5563354492188
 70
   192
  0
VERTEX
  5
C2
  8
0
 10
246.0
 20
-16.24441146850586
 30
236.4203643798828
 70
   192
  0
VERTEX
  5
C3
  8
0
 62
     9
 10
0.0
 20
0.0
 30
0.0
 70
   128
 71
     3
 72
     2
 73
     1
  0
VERTEX
  5
C4
  8
0
 62
     9
 10
0.0
 20
0.0
 30
0.0
 70
   128
 71
     5
 72
     3
 73
     4
  0
VERTEX
  5
C5
  8
0
 62
     9
 10
0.0
 20
0.0
 30
0.0
 70
   128
 71
     3
 72
     5
 73
     2
  0
VERTEX
  5
C6
  8
0
 62
     9
 10
0.0
 20
0.0
 30
0.0
 70
   128
 71
     7
 72
     6
 73
     5
  0
VERTEX
  5
C7
  8
0
 62
     9
 10
0.0
 20
0.0
 30
0.0
 70
   128
 71
     5
 72
     4
 73
     7
  0
VERTEX
  5
C8
  8
0
 62
     9
 10
0.0
 20
0.0
 30
0.0
 70
   128
 71
     7
 72
     8
 73
     6
  0
VERTEX
  5
C9
  8
0
 62
     9
 10
0.0
 20
0.0
 30
0.0
 70
   128
 71
     8
 72
     9
 73
     6
  0
VERTEX
  5
CA
  8
0
 62
     9
 10
0.0
 20
0.0
 30
0.0
 70
   128
 71
    10
 72
     1
 73
     2
  0
VERTEX
  5
CB
  8
0
 62
     9
 10
0.0
 20
0.0
 30
0.0
 70
   128
 71
    10
 72
    12
 73
    11
  0
VERTEX
  5
CC
  8
0
 62
     9
 10
0.0
 20
0.0
 30
0.0
 70
   128
 71
    11
 72
     1
 73
    10
  0
VERTEX
  5
CD
  8
0
 62
     9
 10
0.0
 20
0.0
 30
0.0
 70
   128
 71
    14
 72
    11
 73
    13
  0
VERTEX
  5
CE
  8
0
 62
     9
 10
0.0
 20
0.0
 30
0.0
 70
   128
 71
    12
 72
    13
 73
    11
  0
VERTEX
  5
CF
  8
0
 62
     9
 10
0.0
 20
0.0
 30
0.0
 70
   128
 71
    15
 72
    14
 73
    13
  0
VERTEX
  5
D0
  8
0
 62
     9
 10
0.0
 20
0.0
 30
0.0
 70
   128
 71
    16
 72
    14
 73
    15
  0
VERTEX
  5
D1
  8
0
 62
     9
 10
0.0
 20
0.0
 30
0.0
 70
   128
 71
     1
 72
     8
 73
     3
  0
VERTEX
  5
D2
  8
0
 62
     9
 10
0.0
 20
0.0
 30
0.0
 70
   128
 71
     1
 72
    17
 73
     8
  0
VERTEX
  5
D3
  8
0
 62
     9
 10
0.0
 20
0.0
 30
0.0
 70
   128
 71
     8
 72
     7
 73
     3
  0
VERTEX
  5
D4
  8
0
 62
     9
 10
0.0
 20
0.0
 30
0.0
 70
   128
 71
     3
 72
     7
 73
     4
  0
VERTEX
  5
D5
  8
0
 62
     9
 10
0.0
 20
0.0
 30
0.0
 70
   128
 71
     1
 72
    11
 73
    17
  0
VERTEX
  5
D6
  8
0
 62
     9
 10
0.0
 20
0.0
 30
0.0
 70
   128
 71
    18
 72
    17
 73
    11
  0
VERTEX
  5
D7
  8
0
 62
     9
 10
0.0
 20
0.0
 30
0.0
 70
   128
 71
    14
 72
    19
 73
    18
  0
VERTEX
  5
D8
  8
0
 62
     9
 10
0.0
 20
0.0
 30
0.0
 70
   128
 71
    18
 72
    11
 73
    14
  0
VERTEX
  5
D9
  8
0
 62
     9
 10
0.0
 20
0.0
 30
0.0
 70
   128
 71
    16
 72
    19
 73
    14
  0
VERTEX
  5
DA
  8
0
 62
     9
 10
0.0
 20
0.0
 30
0.0
 70
   128
 71
    21
 72
    16
 73
    20
  0
VERTEX
  5
DB
  8
0
 62
     9
 10
0.0
 20
0.0
 30
0.0
 70
   128
 71
    21
 72
    19
 73
    16
  0
VERTEX
  5
DC
  8
0
 62
     9
 10
0.0
 20
0.0
 30
0.0
 70
   128
 71
    22
 72
    20
 73
    16
  0
VERTEX
  5
DD
  8
0
 62
     9
 10
0.0
 20
0.0
 30
0.0
 70
   128
 71
    22
 72
    23
 73
    20
  0
VERTEX
  5
DE
  8
0
 62
     9
 10
0.0
 20
0.0
 30
0.0
 70
   128
 71
    24
 72
     9
 73
    17
  0
VERTEX
  5
DF
  8
0
 62
     9
 10
0.0
 20
0.0
 30
0.0
 70
   128
 71
    25
 72
    21
 73
    20
  0
VERTEX
  5
E0
  8
0
 62
     9
 10
0.0
 20
0.0
 30
0.0
 70
   128
 71
    27
 72
    19
 73
    26
  0
VERTEX
  5
E1
  8
0
 62
     9
 10
0.0
 20
0.0
 30
0.0
 70
   128
 71
    28
 72
    23
 73
    22
  0
VERTEX
  5
E2
  8
0
 62
     9
 10
0.0
 20
0.0
 30
0.0
 70
   128
 71
    23
 72
    29
 73
    20
  0
VERTEX
  5
E3
  8
0
 62
     9
 10
0.0
 20
0.0
 30
0.0
 70
   128
 71
    22
 72
    16
 73
    15
  0
VERTEX
  5
E4
  8
0
 62
     9
 10
0.0
 20
0.0
 30
0.0
 70
   128
 71
    15
 72
    28
 73
    22
  0
VERTEX
  5
E5
  8
0
 62
     9
 10
0.0
 20
0.0
 30
0.0
 70
   128
 71
    20
 72
    29
 73
    25
  0
VERTEX
  5
E6
  8
0
 62
     9
 10
0.0
 20
0.0
 30
0.0
 70
   128
 71
    28
 72
    29
 73
    23
  0
VERTEX
  5
E7
  8
0
 62
     9
 10
0.0
 20
0.0
 30
0.0
 70
   128
 71
    26
 72
    19
 73
    21
  0
VERTEX
  5
E8
  8
0
 62
     9
 10
0.0
 20
0.0
 30
0.0
 70
   128
 71
    25
 72
    26
 73
    21
  0
VERTEX
  5
E9
  8
0
 62
     9
 10
0.0
 20
0.0
 30
0.0
 70
   128
 71
    24
 72
    18
 73
    27
  0
VERTEX
  5
EA
  8
0
 62
     9
 10
0.0
 20
0.0
 30
0.0
 70
   128
 71
    27
 72
    18
 73
    19
  0
VERTEX
  5
EB
  8
0
 62
     9
 10
0.0
 20
0.0
 30
0.0
 70
   128
 71
     8
 72
    17
 73
     9
  0
VERTEX
  5
EC
  8
0
 62
     9
 10
0.0
 20
0.0
 30
0.0
 70
   128
 71
    17
 72
    18
 73
    24
  0
VERTEX
  5
ED
  8
0
 62
     9
 10
0.0
 20
0.0
 30
0.0
 70
   128
 71
    10
 72
     2
 73
    15
  0
VERTEX
  5
EE
  8
0
 62
     9
 10
0.0
 20
0.0
 30
0.0
 70
   128
 71
     6
 72
    25
 73
    29
  0
VERTEX
  5
EF
  8
0
 62
     9
 10
0.0
 20
0.0
 30
0.0
 70
   128
 71
    12
 72
    10
 73
    13
  0
VERTEX
  5
F0
  8
0
 62
     9
 10
0.0
 20
0.0
 30
0.0
 70
   128
 71
     2
 72
    28
 73
    15
  0
VERTEX
  5
F1
  8
0
 62
     9
 10
0.0
 20
0.0
 30
0.0
 70
   128
 71
    10
 72
    15
 73
    13
  0
VERTEX
  5
F2
  8
0
 62
     9
 10
0.0
 20
0.0
 30
0.0
 70
   128
 71
     5
 72
    28
 73
     2
  0
VERTEX
  5
F3
  8
0
 62
     9
 10
0.0
 20
0.0
 30
0.0
 70
   128
 71
     6
 72
    29
 73
     5
  0
VERTEX
  5
F4
  8
0
 62
     9
 10
0.0
 20
0.0
 30
0.0
 70
   128
 71
    28
 72
     5
 73
    29
  0
VERTEX
  5
F5
  8
0
 62
     9
 10
0.0
 20
0.0
 30
0.0
 70
   128
 71
     6
 72
     9
 73
    25
  0
VERTEX
  5
F6
  8
0
 62
     9
 10
0.0
 20
0.0
 30
0.0
 70
   128
 71
     9
 72
    26
 73
    25
  0
VERTEX
  5
F7
  8
0
 62
     9
 10
0.0
 20
0.0
 30
0.0
 70
   128
 71
    24
 72
    26
 73
     9
  0
VERTEX
  5
F8
  8
0
 62
     9
 10
0.0
 20
0.0
 30
0.0
 70
   128
 71
    24
 72
    27
 73
    26
  0
SEQEND
  5
F9
  8
0
 62
     9
  0
ENDBLK
  5
FC
  8
0
  0
BLOCK
  8
0
  2
40
 70
     0
 10
0.0
 20
0.0
 30
0.0
  3
40
  1

  0
POLYLINE
  5
FE
  8
0
 62
     9
 66
     1
 10
0.0
 20
0.0
 30
0.0
 70
    64
 71
   174
 72
   304
  0
VERTEX
  5
FF
  8
0
 10
7.494396209716797
 20
43.20000076293945
 30
-23.06552886962891
 70
   192
  0
VERTEX
  5
100
  8
0
 10
11.8520336151123
 20
50.53281021118164
 30
-17.46121406555176
 70
   192
  0
VERTEX
  5
101
  8
0
 10
4.834558486938477
 20
50.53281021118164
 30
-20.54243850708008
 70
   192
  0
VERTEX
  5
102
  8
0
 10
23.06197166442871
 20
43.20000076293945
 30
-7.501446723937988
 70
   192
  0
VERTEX
  5
103
  8
0
 10
20.54243850708008
 20
50.53281021118164
 30
-4.834558486938477
 70
   192
  0
VERTEX
  5
104
  8
0
 10
17.46121406555176
 20
50.53281021118164
 30
-11.8520336151123
 70
   192
  0
VERTEX
  5
105
  8
0
 10
24.25190925598145
 20
43.20000076293945
 30
-0.0000000000000032
 70
   192
  0
VERTEX
  5
106
  8
0
 10
15.09334087371826
 20
56.5
 30
-4.689793586730957
 70
   192
  0
VERTEX
  5
107
  8
0
 10
21.10366630554199
 20
50.53281021118164
 30
-0.0000000000000039
 70
   192
  0
VERTEX
  5
108
  8
0
 10
15.80516052246094
 20
56.5
 30
-0.000000000000003
 70
   192
  0
VERTEX
  5
109
  8
0
 10
19.61517524719238
 20
43.20000076293945
 30
-14.26001644134521
 70
   192
  0
VERTEX
  5
10A
  8
0
 10
14.2555103302002
 20
43.20000076293945
 30
-19.61929893493652
 70
   192
  0
VERTEX
  5
10B
  8
0
 10
9.060097694396973
 20
56.5
 30
-12.95058822631836
 70
   192
  0
VERTEX
  5
10C
  8
0
 10
-0.0000012228676951
 20
43.20000076293945
 30
-24.24860382080078
 70
   192
  0
VERTEX
  5
10D
  8
0
 10
-0.0000000000000101
 20
50.4233512878418
 30
-21.17278480529785
 70
   192
  0
VERTEX
  5
10E
  8
0
 10
-0.000000000000009
 20
56.33937454223633
 30
-16.0
 70
   192
  0
VERTEX
  5
10F
  8
0
 10
4.459475040435791
 20
56.5
 30
-15.16298770904541
 70
   192
  0
VERTEX
  5
110
  8
0
 10
12.80332183837891
 20
56.5
 30
-9.267041206359863
 70
   192
  0
VERTEX
  5
111
  8
0
 10
-11.8520336151123
 20
50.53281021118164
 30
-17.46121406555176
 70
   192
  0
VERTEX
  5
112
  8
0
 10
-7.490180015563965
 20
43.20000076293945
 30
-23.06572532653809
 70
   192
  0
VERTEX
  5
113
  8
0
 10
-4.834558486938477
 20
50.53281021118164
 30
-20.54243850708008
 70
   192
  0
VERTEX
  5
114
  8
0
 10
-4.509917736053467
 20
56.33937454223633
 30
-15.35124206542969
 70
   192
  0
VERTEX
  5
115
  8
0
 10
-14.25636100769043
 20
43.20000076293945
 30
-19.61847114562988
 70
   192
  0
VERTEX
  5
116
  8
0
 10
-17.46121406555176
 20
50.53281021118164
 30
-11.8520336151123
 70
   192
  0
VERTEX
  5
117
  8
0
 10
-19.62075805664062
 20
43.20000076293945
 30
-14.25159454345703
 70
   192
  0
VERTEX
  5
118
  8
0
 10
-23.06464385986328
 20
43.20000076293945
 30
-7.495129585266113
 70
   192
  0
VERTEX
  5
119
  8
0
 10
-21.10366630554199
 20
50.53281021118164
 30
0.0000000000000025
 70
   192
  0
VERTEX
  5
11A
  8
0
 10
-24.24740219116211
 20
43.20000076293945
 30
-0.0000024337855393
 70
   192
  0
VERTEX
  5
11B
  8
0
 10
-15.80516052246094
 20
56.5
 30
-0.0000000000000003
 70
   192
  0
VERTEX
  5
11C
  8
0
 10
-20.54243850708008
 20
50.53281021118164
 30
-4.834558486938477
 70
   192
  0
VERTEX
  5
11D
  8
0
 10
-15.09334087371826
 20
56.5
 30
-4.689793586730957
 70
   192
  0
VERTEX
  5
11E
  8
0
 10
-12.80332183837891
 20
56.5
 30
-9.267041206359863
 70
   192
  0
VERTEX
  5
11F
  8
0
 10
-9.060097694396973
 20
56.5
 30
-12.95058822631836
 70
   192
  0
VERTEX
  5
120
  8
0
 10
-4.834558486938477
 20
50.53281021118164
 30
20.54243850708008
 70
   192
  0
VERTEX
  5
121
  8
0
 10
-4.832865715026855
 20
56.5
 30
14.80234336853027
 70
   192
  0
VERTEX
  5
122
  8
0
 10
-0.0000000000000064
 20
56.5
 30
15.80516052246094
 70
   192
  0
VERTEX
  5
123
  8
0
 10
-20.54243850708008
 20
50.53281021118164
 30
4.834558486938477
 70
   192
  0
VERTEX
  5
124
  8
0
 10
-23.06266403198242
 20
43.20000076293945
 30
7.498843193054199
 70
   192
  0
VERTEX
  5
125
  8
0
 10
-11.8520336151123
 20
50.53281021118164
 30
17.46121406555176
 70
   192
  0
VERTEX
  5
126
  8
0
 10
-19.61480522155762
 20
43.20000076293945
 30
14.26208877563477
 70
   192
  0
VERTEX
  5
127
  8
0
 10
-17.46121406555176
 20
50.53281021118164
 30
11.8520336151123
 70
   192
  0
VERTEX
  5
128
  8
0
 10
-9.26210880279541
 20
56.5
 30
12.77232074737549
 70
   192
  0
VERTEX
  5
129
  8
0
 10
-7.476763725280762
 20
43.20000076293945
 30
23.07024002075195
 70
   192
  0
VERTEX
  5
12A
  8
0
 10
-14.23359680175781
 20
43.20000076293945
 30
19.6326732635498
 70
   192
  0
VERTEX
  5
12B
  8
0
 10
-0.0000000000000077
 20
50.53281021118164
 30
21.10366630554199
 70
   192
  0
VERTEX
  5
12C
  8
0
 10
-0.0000013761034552
 20
43.20000076293945
 30
24.2485523223877
 70
   192
  0
VERTEX
  5
12D
  8
0
 10
-12.77545356750488
 20
56.5
 30
9.314913749694824
 70
   192
  0
VERTEX
  5
12E
  8
0
 10
-14.85582256317139
 20
56.5
 30
4.869620800018311
 70
   192
  0
VERTEX
  5
12F
  8
0
 10
-25.53775596618652
 20
42.70436477661133
 30
3.660642147064209
 70
   192
  0
VERTEX
  5
130
  8
0
 10
-24.75808525085449
 20
42.70436477661133
 30
7.257735252380371
 70
   192
  0
VERTEX
  5
131
  8
0
 10
-25.11493301391602
 20
19.89999961853027
 30
6.719525337219238
 70
   192
  0
VERTEX
  5
132
  8
0
 10
-23.47795486450195
 20
42.70436477661133
 30
10.71738147735596
 70
   192
  0
VERTEX
  5
133
  8
0
 10
-24.73841285705566
 20
42.70436477661133
 30
-7.287118434906006
 70
   192
  0
VERTEX
  5
134
  8
0
 10
-25.53262138366699
 20
42.70436477661133
 30
-3.685254096984863
 70
   192
  0
VERTEX
  5
135
  8
0
 10
-25.09827041625977
 20
19.89999961853027
 30
-6.747259616851807
 70
   192
  0
VERTEX
  5
136
  8
0
 10
-22.529541015625
 20
19.89999961853027
 30
12.99710083007812
 70
   192
  0
VERTEX
  5
137
  8
0
 10
-25.80099868774414
 20
42.70436477661133
 30
0.0000000000000063
 70
   192
  0
VERTEX
  5
138
  8
0
 10
-26.0
 20
19.89999961853027
 30
-0.0000000000000009
 70
   192
  0
VERTEX
  5
139
  8
0
 10
-23.44428825378418
 20
42.70436477661133
 30
-10.72969532012939
 70
   192
  0
VERTEX
  5
13A
  8
0
 10
-22.48756790161133
 20
19.89999961853027
 30
-13.00916767120361
 70
   192
  0
VERTEX
  5
13B
  8
0
 10
-16.86492538452148
 20
42.70436477661133
 30
-19.49960136413574
 70
   192
  0
VERTEX
  5
13C
  8
0
 10
-19.46829032897949
 20
42.70436477661133
 30
-16.89926910400391
 70
   192
  0
VERTEX
  5
13D
  8
0
 10
-18.36191558837891
 20
19.89999961853027
 30
-18.37907218933105
 70
   192
  0
VERTEX
  5
13E
  8
0
 10
-21.67905044555664
 20
42.70436477661133
 30
-13.95111751556396
 70
   192
  0
VERTEX
  5
13F
  8
0
 10
-12.97174739837646
 20
19.89999961853027
 30
-22.51195335388184
 70
   192
  0
VERTEX
  5
140
  8
0
 10
-13.92638301849365
 20
42.70436477661133
 30
-21.69861030578613
 70
   192
  0
VERTEX
  5
141
  8
0
 10
-3.67328143119812
 20
42.70436477661133
 30
-25.52863502502441
 70
   192
  0
VERTEX
  5
142
  8
0
 10
-7.245994091033936
 20
42.70436477661133
 30
-24.74676704406738
 70
   192
  0
VERTEX
  5
143
  8
0
 10
-6.708874702453613
 20
19.89999961853027
 30
-25.10460662841797
 70
   192
  0
VERTEX
  5
144
  8
0
 10
-10.69791603088379
 20
42.70436477661133
 30
-23.46085357666016
 70
   192
  0
VERTEX
  5
145
  8
0
 10
-0.0000000000000101
 20
19.89999961853027
 30
-26.0
 70
   192
  0
VERTEX
  5
146
  8
0
 10
-0.0000000000000101
 20
42.70436477661133
 30
-25.80099868774414
 70
   192
  0
VERTEX
  5
147
  8
0
 10
-19.51278114318848
 20
42.70436477661133
 30
16.89978790283203
 70
   192
  0
VERTEX
  5
148
  8
0
 10
-21.7154483795166
 20
42.70436477661133
 30
13.95456314086914
 70
   192
  0
VERTEX
  5
149
  8
0
 10
-18.3892936706543
 20
19.89999961853027
 30
18.39950370788574
 70
   192
  0
VERTEX
  5
14A
  8
0
 10
-16.90658569335938
 20
42.70436477661133
 30
19.50703048706055
 70
   192
  0
VERTEX
  5
14B
  8
0
 10
-13.95211219787598
 20
42.70436477661133
 30
21.7182502746582
 70
   192
  0
VERTEX
  5
14C
  8
0
 10
-13.00833797454834
 20
19.89999961853027
 30
22.5262393951416
 70
   192
  0
VERTEX
  5
14D
  8
0
 10
-6.740159034729004
 20
19.89999961853027
 30
25.12479209899902
 70
   192
  0
VERTEX
  5
14E
  8
0
 10
-10.72547054290771
 20
42.70436477661133
 30
23.47965431213379
 70
   192
  0
VERTEX
  5
14F
  8
0
 10
-7.280182361602783
 20
42.70436477661133
 30
24.76630592346191
 70
   192
  0
VERTEX
  5
150
  8
0
 10
-3.67938232421875
 20
42.70436477661133
 30
25.54915428161621
 70
   192
  0
VERTEX
  5
151
  8
0
 10
-0.0000000000000069
 20
19.89999961853027
 30
26.0
 70
   192
  0
VERTEX
  5
152
  8
0
 10
-0.0000000000000069
 20
42.70436477661133
 30
25.80099868774414
 70
   192
  0
VERTEX
  5
153
  8
0
 10
-25.04404067993164
 20
43.20000076293945
 30
3.590440273284912
 70
   192
  0
VERTEX
  5
154
  8
0
 10
-24.27913284301758
 20
43.20000076293945
 30
7.116164207458496
 70
   192
  0
VERTEX
  5
155
  8
0
 10
-25.30101776123047
 20
43.20000076293945
 30
0.0000000000000422
 70
   192
  0
VERTEX
  5
156
  8
0
 10
-16.57452392578125
 20
43.20000076293945
 30
19.11614227294922
 70
   192
  0
VERTEX
  5
157
  8
0
 10
-13.69049549102783
 20
43.20000076293945
 30
21.2755298614502
 70
   192
  0
VERTEX
  5
158
  8
0
 10
-23.0203857421875
 20
43.20000076293945
 30
10.49709892272949
 70
   192
  0
VERTEX
  5
159
  8
0
 10
-21.29236602783203
 20
43.20000076293945
 30
13.66369724273682
 70
   192
  0
VERTEX
  5
15A
  8
0
 10
-19.12807655334473
 20
43.20000076293945
 30
16.55873489379883
 70
   192
  0
VERTEX
  5
15B
  8
0
 10
-10.52091121673584
 20
43.20000076293945
 30
23.01052093505859
 70
   192
  0
VERTEX
  5
15C
  8
0
 10
-7.140982627868652
 20
43.20000076293945
 30
24.27141761779785
 70
   192
  0
VERTEX
  5
15D
  8
0
 10
-3.61145806312561
 20
43.20000076293945
 30
25.04087829589844
 70
   192
  0
VERTEX
  5
15E
  8
0
 10
-0.00000000000001
 20
43.20000076293945
 30
25.30101776123047
 70
   192
  0
VERTEX
  5
15F
  8
0
 10
-25.04087829589844
 20
43.20000076293945
 30
-3.61145806312561
 70
   192
  0
VERTEX
  5
160
  8
0
 10
-24.27141761779785
 20
43.20000076293945
 30
-7.140982627868652
 70
   192
  0
VERTEX
  5
161
  8
0
 10
-23.01052093505859
 20
43.20000076293945
 30
-10.52091121673584
 70
   192
  0
VERTEX
  5
162
  8
0
 10
-21.2755298614502
 20
43.20000076293945
 30
-13.69049549102783
 70
   192
  0
VERTEX
  5
163
  8
0
 10
-19.11614227294922
 20
43.20000076293945
 30
-16.57452392578125
 70
   192
  0
VERTEX
  5
164
  8
0
 10
-16.55873489379883
 20
43.20000076293945
 30
-19.12807655334473
 70
   192
  0
VERTEX
  5
165
  8
0
 10
-13.66369724273682
 20
43.20000076293945
 30
-21.29236602783203
 70
   192
  0
VERTEX
  5
166
  8
0
 10
-10.49520301818848
 20
43.20000076293945
 30
-23.02067947387695
 70
   192
  0
VERTEX
  5
167
  8
0
 10
-7.12248420715332
 20
43.20000076293945
 30
-24.27815055847168
 70
   192
  0
VERTEX
  5
168
  8
0
 10
-3.607029914855957
 20
43.20000076293945
 30
-25.04145812988281
 70
   192
  0
VERTEX
  5
169
  8
0
 10
-0.0000000000000069
 20
43.20000076293945
 30
-25.30101776123047
 70
   192
  0
VERTEX
  5
16A
  8
0
 10
6.688570976257324
 20
42.70436477661133
 30
24.93249130249023
 70
   192
  0
VERTEX
  5
16B
  8
0
 10
3.612117528915405
 20
43.20000076293945
 30
25.04060554504395
 70
   192
  0
VERTEX
  5
16C
  8
0
 10
7.12248420715332
 20
43.20000076293945
 30
24.27815055847168
 70
   192
  0
VERTEX
  5
16D
  8
0
 10
10.49520301818848
 20
43.20000076293945
 30
23.02067947387695
 70
   192
  0
VERTEX
  5
16E
  8
0
 10
13.66369724273682
 20
43.20000076293945
 30
21.29236602783203
 70
   192
  0
VERTEX
  5
16F
  8
0
 10
12.90877437591553
 20
42.70436477661133
 30
22.35382843017578
 70
   192
  0
VERTEX
  5
170
  8
0
 10
3.376652717590332
 20
42.70436477661133
 30
25.59008598327637
 70
   192
  0
VERTEX
  5
171
  8
0
 10
19.11614227294922
 20
43.20000076293945
 30
16.57452392578125
 70
   192
  0
VERTEX
  5
172
  8
0
 10
21.2755298614502
 20
43.20000076293945
 30
13.69049549102783
 70
   192
  0
VERTEX
  5
173
  8
0
 10
20.48239898681641
 20
42.70436477661133
 30
15.71134185791016
 70
   192
  0
VERTEX
  5
174
  8
0
 10
15.71746253967285
 20
42.70436477661133
 30
20.47614097595215
 70
   192
  0
VERTEX
  5
175
  8
0
 10
16.55873489379883
 20
43.20000076293945
 30
19.12807655334473
 70
   192
  0
VERTEX
  5
176
  8
0
 10
18.24854469299316
 20
42.70436477661133
 30
18.25867652893066
 70
   192
  0
VERTEX
  5
177
  8
0
 10
25.57991218566895
 20
42.70436477661133
 30
3.355739831924438
 70
   192
  0
VERTEX
  5
178
  8
0
 10
24.92270660400391
 20
42.70436477661133
 30
6.668095111846924
 70
   192
  0
VERTEX
  5
179
  8
0
 10
25.04087829589844
 20
43.20000076293945
 30
3.61145806312561
 70
   192
  0
VERTEX
  5
17A
  8
0
 10
24.27141761779785
 20
43.20000076293945
 30
7.140982627868652
 70
   192
  0
VERTEX
  5
17B
  8
0
 10
23.84243202209473
 20
42.70436477661133
 30
9.87697982788086
 70
   192
  0
VERTEX
  5
17C
  8
0
 10
23.01052093505859
 20
43.20000076293945
 30
10.52091121673584
 70
   192
  0
VERTEX
  5
17D
  8
0
 10
25.04404067993164
 20
43.20000076293945
 30
-3.590440273284912
 70
   192
  0
VERTEX
  5
17E
  8
0
 10
24.90617179870605
 20
42.70436477661133
 30
-6.695617198944092
 70
   192
  0
VERTEX
  5
17F
  8
0
 10
25.57474517822266
 20
42.70436477661133
 30
-3.382205247879028
 70
   192
  0
VERTEX
  5
180
  8
0
 10
25.80099868774414
 20
42.70436477661133
 30
-0.0000000000000036
 70
   192
  0
VERTEX
  5
181
  8
0
 10
25.30101776123047
 20
43.20000076293945
 30
0.0000000000000058
 70
   192
  0
VERTEX
  5
182
  8
0
 10
23.0203857421875
 20
43.20000076293945
 30
-10.49709892272949
 70
   192
  0
VERTEX
  5
183
  8
0
 10
21.29236602783203
 20
43.20000076293945
 30
-13.66369724273682
 70
   192
  0
VERTEX
  5
184
  8
0
 10
22.31545257568359
 20
42.70436477661133
 30
-12.90959739685059
 70
   192
  0
VERTEX
  5
185
  8
0
 10
23.81811141967773
 20
42.70436477661133
 30
-9.878935813903809
 70
   192
  0
VERTEX
  5
186
  8
0
 10
24.27913284301758
 20
43.20000076293945
 30
-7.116164207458496
 70
   192
  0
VERTEX
  5
187
  8
0
 10
19.12807655334473
 20
43.20000076293945
 30
-16.55873489379883
 70
   192
  0
VERTEX
  5
188
  8
0
 10
16.57452392578125
 20
43.20000076293945
 30
-19.11614227294922
 70
   192
  0
VERTEX
  5
189
  8
0
 10
18.22137641906738
 20
42.70436477661133
 30
-18.23840141296387
 70
   192
  0
VERTEX
  5
18A
  8
0
 10
20.43679428100586
 20
42.70436477661133
 30
-15.71271419525146
 70
   192
  0
VERTEX
  5
18B
  8
0
 10
13.69049549102783
 20
43.20000076293945
 30
-21.2755298614502
 70
   192
  0
VERTEX
  5
18C
  8
0
 10
15.67890930175781
 20
42.70436477661133
 30
-20.46732902526855
 70
   192
  0
VERTEX
  5
18D
  8
0
 10
12.87246322631836
 20
42.70436477661133
 30
-22.33964920043945
 70
   192
  0
VERTEX
  5
18E
  8
0
 10
10.52091121673584
 20
43.20000076293945
 30
-23.01052093505859
 70
   192
  0
VERTEX
  5
18F
  8
0
 10
7.140982627868652
 20
43.20000076293945
 30
-24.27141761779785
 70
   192
  0
VERTEX
  5
190
  8
0
 10
9.859530448913574
 20
42.70436477661133
 30
-23.82600212097168
 70
   192
  0
VERTEX
  5
191
  8
0
 10
3.61145806312561
 20
43.20000076293945
 30
-25.04087829589844
 70
   192
  0
VERTEX
  5
192
  8
0
 10
6.657526016235352
 20
42.70436477661133
 30
-24.91246032714844
 70
   192
  0
VERTEX
  5
193
  8
0
 10
3.371016025543213
 20
42.70436477661133
 30
-25.57079124450684
 70
   192
  0
VERTEX
  5
194
  8
0
 10
22.35710334777832
 20
42.70436477661133
 30
12.89762210845947
 70
   192
  0
VERTEX
  5
195
  8
0
 10
9.873516082763672
 20
42.70436477661133
 30
23.85188484191895
 70
   192
  0
VERTEX
  5
196
  8
0
 10
6.740159034729004
 20
19.89999961853027
 30
-25.12479209899902
 70
   192
  0
VERTEX
  5
197
  8
0
 10
13.00833797454834
 20
19.89999961853027
 30
-22.5262393951416
 70
   192
  0
VERTEX
  5
198
  8
0
 10
18.3892936706543
 20
19.89999961853027
 30
-18.39950370788574
 70
   192
  0
VERTEX
  5
199
  8
0
 10
22.529541015625
 20
19.89999961853027
 30
-12.99710083007812
 70
   192
  0
VERTEX
  5
19A
  8
0
 10
25.11493301391602
 20
19.89999961853027
 30
-6.719525337219238
 70
   192
  0
VERTEX
  5
19B
  8
0
 10
25.09827041625977
 20
19.89999961853027
 30
6.747259616851807
 70
   192
  0
VERTEX
  5
19C
  8
0
 10
26.0
 20
19.89999961853027
 30
0.0000000000000098
 70
   192
  0
VERTEX
  5
19D
  8
0
 10
22.48756790161133
 20
19.89999961853027
 30
13.00916767120361
 70
   192
  0
VERTEX
  5
19E
  8
0
 10
18.36191558837891
 20
19.89999961853027
 30
18.37907218933105
 70
   192
  0
VERTEX
  5
19F
  8
0
 10
12.97174739837646
 20
19.89999961853027
 30
22.51195335388184
 70
   192
  0
VERTEX
  5
1A0
  8
0
 10
6.708874702453613
 20
19.89999961853027
 30
25.10460662841797
 70
   192
  0
VERTEX
  5
1A1
  8
0
 10
19.63096618652344
 20
43.20000076293945
 30
14.23713874816895
 70
   192
  0
VERTEX
  5
1A2
  8
0
 10
7.518250942230225
 20
43.20000076293945
 30
23.05617523193359
 70
   192
  0
VERTEX
  5
1A3
  8
0
 10
14.26704216003418
 20
43.20000076293945
 30
19.61069869995117
 70
   192
  0
VERTEX
  5
1A4
  8
0
 10
23.0682258605957
 20
43.20000076293945
 30
7.485603809356689
 70
   192
  0
VERTEX
  5
1A5
  8
0
 10
17.46121406555176
 20
50.53281021118164
 30
11.8520336151123
 70
   192
  0
VERTEX
  5
1A6
  8
0
 10
4.834558486938477
 20
50.53281021118164
 30
20.54243850708008
 70
   192
  0
VERTEX
  5
1A7
  8
0
 10
20.54243850708008
 20
50.53281021118164
 30
4.834558486938477
 70
   192
  0
VERTEX
  5
1A8
  8
0
 10
14.80234336853027
 20
56.5
 30
4.832865715026855
 70
   192
  0
VERTEX
  5
1A9
  8
0
 10
11.8520336151123
 20
50.53281021118164
 30
17.46121406555176
 70
   192
  0
VERTEX
  5
1AA
  8
0
 10
12.77232074737549
 20
56.5
 30
9.26210880279541
 70
   192
  0
VERTEX
  5
1AB
  8
0
 10
9.314913749694824
 20
56.5
 30
12.77545356750488
 70
   192
  0
VERTEX
  5
1AC
  8
0
 10
4.869620800018311
 20
56.5
 30
14.85582256317139
 70
   192
  0
VERTEX
  5
1AD
  8
0
 62
     9
 10
0.0
 20
0.0
 30
0.0
 70
   128
 71
     3
 72
     2
 73
     1
  0
VERTEX
  5
1AE
  8
0
 62
     9
 10
0.0
 20
0.0
 30
0.0
 70
   128
 71
     6
 72
     5
 73
     4
  0
VERTEX
  5
1AF
  8
0
 62
     9
 10
0.0
 20
0.0
 30
0.0
 70
   128
 71
     5
 72
     7
 73
     4
  0
VERTEX
  5
1B0
  8
0
 62
     9
 10
0.0
 20
0.0
 30
0.0
 70
   128
 71
    10
 72
     9
 73
     8
  0
VERTEX
  5
1B1
  8
0
 62
     9
 10
0.0
 20
0.0
 30
0.0
 70
   128
 71
     7
 72
     5
 73
     9
  0
VERTEX
  5
1B2
  8
0
 62
     9
 10
0.0
 20
0.0
 30
0.0
 70
   128
 71
     2
 72
     6
 73
    11
  0
VERTEX
  5
1B3
  8
0
 62
     9
 10
0.0
 20
0.0
 30
0.0
 70
   128
 71
    12
 72
     2
 73
    11
  0
VERTEX
  5
1B4
  8
0
 62
     9
 10
0.0
 20
0.0
 30
0.0
 70
   128
 71
     2
 72
    13
 73
     6
  0
VERTEX
  5
1B5
  8
0
 62
     9
 10
0.0
 20
0.0
 30
0.0
 70
   128
 71
    15
 72
     1
 73
    14
  0
VERTEX
  5
1B6
  8
0
 62
     9
 10
0.0
 20
0.0
 30
0.0
 70
   128
 71
     2
 72
    12
 73
     1
  0
VERTEX
  5
1B7
  8
0
 62
     9
 10
0.0
 20
0.0
 30
0.0
 70
   128
 71
    16
 72
     3
 73
    15
  0
VERTEX
  5
1B8
  8
0
 62
     9
 10
0.0
 20
0.0
 30
0.0
 70
   128
 71
    16
 72
    17
 73
     3
  0
VERTEX
  5
1B9
  8
0
 62
     9
 10
0.0
 20
0.0
 30
0.0
 70
   128
 71
    13
 72
     2
 73
    17
  0
VERTEX
  5
1BA
  8
0
 62
     9
 10
0.0
 20
0.0
 30
0.0
 70
   128
 71
    15
 72
     3
 73
     1
  0
VERTEX
  5
1BB
  8
0
 62
     9
 10
0.0
 20
0.0
 30
0.0
 70
   128
 71
     2
 72
     3
 73
    17
  0
VERTEX
  5
1BC
  8
0
 62
     9
 10
0.0
 20
0.0
 30
0.0
 70
   128
 71
    18
 72
     6
 73
    13
  0
VERTEX
  5
1BD
  8
0
 62
     9
 10
0.0
 20
0.0
 30
0.0
 70
   128
 71
     6
 72
    18
 73
     8
  0
VERTEX
  5
1BE
  8
0
 62
     9
 10
0.0
 20
0.0
 30
0.0
 70
   128
 71
    11
 72
     6
 73
     4
  0
VERTEX
  5
1BF
  8
0
 62
     9
 10
0.0
 20
0.0
 30
0.0
 70
   128
 71
     8
 72
     5
 73
     6
  0
VERTEX
  5
1C0
  8
0
 62
     9
 10
0.0
 20
0.0
 30
0.0
 70
   128
 71
     9
 72
     5
 73
     8
  0
VERTEX
  5
1C1
  8
0
 62
     9
 10
0.0
 20
0.0
 30
0.0
 70
   128
 71
    21
 72
    20
 73
    19
  0
VERTEX
  5
1C2
  8
0
 62
     9
 10
0.0
 20
0.0
 30
0.0
 70
   128
 71
    16
 72
    15
 73
    22
  0
VERTEX
  5
1C3
  8
0
 62
     9
 10
0.0
 20
0.0
 30
0.0
 70
   128
 71
    25
 72
    24
 73
    23
  0
VERTEX
  5
1C4
  8
0
 62
     9
 10
0.0
 20
0.0
 30
0.0
 70
   128
 71
    21
 72
    14
 73
    20
  0
VERTEX
  5
1C5
  8
0
 62
     9
 10
0.0
 20
0.0
 30
0.0
 70
   128
 71
    25
 72
    26
 73
    24
  0
VERTEX
  5
1C6
  8
0
 62
     9
 10
0.0
 20
0.0
 30
0.0
 70
   128
 71
    19
 72
    23
 73
    24
  0
VERTEX
  5
1C7
  8
0
 62
     9
 10
0.0
 20
0.0
 30
0.0
 70
   128
 71
    28
 72
    27
 73
    26
  0
VERTEX
  5
1C8
  8
0
 62
     9
 10
0.0
 20
0.0
 30
0.0
 70
   128
 71
    30
 72
    27
 73
    29
  0
VERTEX
  5
1C9
  8
0
 62
     9
 10
0.0
 20
0.0
 30
0.0
 70
   128
 71
    29
 72
    31
 73
    30
  0
VERTEX
  5
1CA
  8
0
 62
     9
 10
0.0
 20
0.0
 30
0.0
 70
   128
 71
    19
 72
    24
 73
    32
  0
VERTEX
  5
1CB
  8
0
 62
     9
 10
0.0
 20
0.0
 30
0.0
 70
   128
 71
    24
 72
    26
 73
    30
  0
VERTEX
  5
1CC
  8
0
 62
     9
 10
0.0
 20
0.0
 30
0.0
 70
   128
 71
    14
 72
    21
 73
    15
  0
VERTEX
  5
1CD
  8
0
 62
     9
 10
0.0
 20
0.0
 30
0.0
 70
   128
 71
    32
 72
    24
 73
    31
  0
VERTEX
  5
1CE
  8
0
 62
     9
 10
0.0
 20
0.0
 30
0.0
 70
   128
 71
    27
 72
    30
 73
    26
  0
VERTEX
  5
1CF
  8
0
 62
     9
 10
0.0
 20
0.0
 30
0.0
 70
   128
 71
    24
 72
    30
 73
    31
  0
VERTEX
  5
1D0
  8
0
 62
     9
 10
0.0
 20
0.0
 30
0.0
 70
   128
 71
    33
 72
    19
 73
    32
  0
VERTEX
  5
1D1
  8
0
 62
     9
 10
0.0
 20
0.0
 30
0.0
 70
   128
 71
    19
 72
    33
 73
    22
  0
VERTEX
  5
1D2
  8
0
 62
     9
 10
0.0
 20
0.0
 30
0.0
 70
   128
 71
    23
 72
    19
 73
    20
  0
VERTEX
  5
1D3
  8
0
 62
     9
 10
0.0
 20
0.0
 30
0.0
 70
   128
 71
    22
 72
    21
 73
    19
  0
VERTEX
  5
1D4
  8
0
 62
     9
 10
0.0
 20
0.0
 30
0.0
 70
   128
 71
    15
 72
    21
 73
    22
  0
VERTEX
  5
1D5
  8
0
 62
     9
 10
0.0
 20
0.0
 30
0.0
 70
   128
 71
    36
 72
    35
 73
    34
  0
VERTEX
  5
1D6
  8
0
 62
     9
 10
0.0
 20
0.0
 30
0.0
 70
   128
 71
    38
 72
    37
 73
    28
  0
VERTEX
  5
1D7
  8
0
 62
     9
 10
0.0
 20
0.0
 30
0.0
 70
   128
 71
    41
 72
    40
 73
    39
  0
VERTEX
  5
1D8
  8
0
 62
     9
 10
0.0
 20
0.0
 30
0.0
 70
   128
 71
    41
 72
    37
 73
    38
  0
VERTEX
  5
1D9
  8
0
 62
     9
 10
0.0
 20
0.0
 30
0.0
 70
   128
 71
    27
 72
    28
 73
    37
  0
VERTEX
  5
1DA
  8
0
 62
     9
 10
0.0
 20
0.0
 30
0.0
 70
   128
 71
    37
 72
    29
 73
    27
  0
VERTEX
  5
1DB
  8
0
 62
     9
 10
0.0
 20
0.0
 30
0.0
 70
   128
 71
    41
 72
    39
 73
    42
  0
VERTEX
  5
1DC
  8
0
 62
     9
 10
0.0
 20
0.0
 30
0.0
 70
   128
 71
    39
 72
    44
 73
    43
  0
VERTEX
  5
1DD
  8
0
 62
     9
 10
0.0
 20
0.0
 30
0.0
 70
   128
 71
    40
 72
    44
 73
    39
  0
VERTEX
  5
1DE
  8
0
 62
     9
 10
0.0
 20
0.0
 30
0.0
 70
   128
 71
    45
 72
    36
 73
    34
  0
VERTEX
  5
1DF
  8
0
 62
     9
 10
0.0
 20
0.0
 30
0.0
 70
   128
 71
    39
 72
    43
 73
    34
  0
VERTEX
  5
1E0
  8
0
 62
     9
 10
0.0
 20
0.0
 30
0.0
 70
   128
 71
    46
 72
    45
 73
    43
  0
VERTEX
  5
1E1
  8
0
 62
     9
 10
0.0
 20
0.0
 30
0.0
 70
   128
 71
    42
 72
    39
 73
    35
  0
VERTEX
  5
1E2
  8
0
 62
     9
 10
0.0
 20
0.0
 30
0.0
 70
   128
 71
    45
 72
    34
 73
    43
  0
VERTEX
  5
1E3
  8
0
 62
     9
 10
0.0
 20
0.0
 30
0.0
 70
   128
 71
    39
 72
    34
 73
    35
  0
VERTEX
  5
1E4
  8
0
 62
     9
 10
0.0
 20
0.0
 30
0.0
 70
   128
 71
    47
 72
    41
 73
    42
  0
VERTEX
  5
1E5
  8
0
 62
     9
 10
0.0
 20
0.0
 30
0.0
 70
   128
 71
    41
 72
    47
 73
    48
  0
VERTEX
  5
1E6
  8
0
 62
     9
 10
0.0
 20
0.0
 30
0.0
 70
   128
 71
    40
 72
    41
 73
    38
  0
VERTEX
  5
1E7
  8
0
 62
     9
 10
0.0
 20
0.0
 30
0.0
 70
   128
 71
    48
 72
    37
 73
    41
  0
VERTEX
  5
1E8
  8
0
 62
     9
 10
0.0
 20
0.0
 30
0.0
 70
   128
 71
    37
 72
    48
 73
    29
  0
VERTEX
  5
1E9
  8
0
 62
     9
 10
0.0
 20
0.0
 30
0.0
 70
   128
 71
    51
 72
    50
 73
    49
  0
VERTEX
  5
1EA
  8
0
 62
     9
 10
0.0
 20
0.0
 30
0.0
 70
   128
 71
    52
 72
    50
 73
    51
  0
VERTEX
  5
1EB
  8
0
 62
     9
 10
0.0
 20
0.0
 30
0.0
 70
   128
 71
    55
 72
    54
 73
    53
  0
VERTEX
  5
1EC
  8
0
 62
     9
 10
0.0
 20
0.0
 30
0.0
 70
   128
 71
    52
 72
    51
 73
    56
  0
VERTEX
  5
1ED
  8
0
 62
     9
 10
0.0
 20
0.0
 30
0.0
 70
   128
 71
    54
 72
    58
 73
    57
  0
VERTEX
  5
1EE
  8
0
 62
     9
 10
0.0
 20
0.0
 30
0.0
 70
   128
 71
    55
 72
    58
 73
    54
  0
VERTEX
  5
1EF
  8
0
 62
     9
 10
0.0
 20
0.0
 30
0.0
 70
   128
 71
    53
 72
    59
 73
    55
  0
VERTEX
  5
1F0
  8
0
 62
     9
 10
0.0
 20
0.0
 30
0.0
 70
   128
 71
    57
 72
    58
 73
    49
  0
VERTEX
  5
1F1
  8
0
 62
     9
 10
0.0
 20
0.0
 30
0.0
 70
   128
 71
    58
 72
    51
 73
    49
  0
VERTEX
  5
1F2
  8
0
 62
     9
 10
0.0
 20
0.0
 30
0.0
 70
   128
 71
    60
 72
    55
 73
    59
  0
VERTEX
  5
1F3
  8
0
 62
     9
 10
0.0
 20
0.0
 30
0.0
 70
   128
 71
    63
 72
    62
 73
    61
  0
VERTEX
  5
1F4
  8
0
 62
     9
 10
0.0
 20
0.0
 30
0.0
 70
   128
 71
    62
 72
    60
 73
    64
  0
VERTEX
  5
1F5
  8
0
 62
     9
 10
0.0
 20
0.0
 30
0.0
 70
   128
 71
    60
 72
    62
 73
    63
  0
VERTEX
  5
1F6
  8
0
 62
     9
 10
0.0
 20
0.0
 30
0.0
 70
   128
 71
    61
 72
    66
 73
    65
  0
VERTEX
  5
1F7
  8
0
 62
     9
 10
0.0
 20
0.0
 30
0.0
 70
   128
 71
    69
 72
    68
 73
    67
  0
VERTEX
  5
1F8
  8
0
 62
     9
 10
0.0
 20
0.0
 30
0.0
 70
   128
 71
    70
 72
    69
 73
    65
  0
VERTEX
  5
1F9
  8
0
 62
     9
 10
0.0
 20
0.0
 30
0.0
 70
   128
 71
    65
 72
    66
 73
    70
  0
VERTEX
  5
1FA
  8
0
 62
     9
 10
0.0
 20
0.0
 30
0.0
 70
   128
 71
    63
 72
    61
 73
    65
  0
VERTEX
  5
1FB
  8
0
 62
     9
 10
0.0
 20
0.0
 30
0.0
 70
   128
 71
    68
 72
    69
 73
    70
  0
VERTEX
  5
1FC
  8
0
 62
     9
 10
0.0
 20
0.0
 30
0.0
 70
   128
 71
    69
 72
    67
 73
    71
  0
VERTEX
  5
1FD
  8
0
 62
     9
 10
0.0
 20
0.0
 30
0.0
 70
   128
 71
    72
 72
    71
 73
    67
  0
VERTEX
  5
1FE
  8
0
 62
     9
 10
0.0
 20
0.0
 30
0.0
 70
   128
 71
    64
 72
    60
 73
    59
  0
VERTEX
  5
1FF
  8
0
 62
     9
 10
0.0
 20
0.0
 30
0.0
 70
   128
 71
    74
 72
    56
 73
    73
  0
VERTEX
  5
200
  8
0
 62
     9
 10
0.0
 20
0.0
 30
0.0
 70
   128
 71
    74
 72
    52
 73
    56
  0
VERTEX
  5
201
  8
0
 62
     9
 10
0.0
 20
0.0
 30
0.0
 70
   128
 71
    76
 72
    73
 73
    75
  0
VERTEX
  5
202
  8
0
 62
     9
 10
0.0
 20
0.0
 30
0.0
 70
   128
 71
    56
 72
    75
 73
    73
  0
VERTEX
  5
203
  8
0
 62
     9
 10
0.0
 20
0.0
 30
0.0
 70
   128
 71
    78
 72
    77
 73
    76
  0
VERTEX
  5
204
  8
0
 62
     9
 10
0.0
 20
0.0
 30
0.0
 70
   128
 71
    76
 72
    75
 73
    78
  0
VERTEX
  5
205
  8
0
 62
     9
 10
0.0
 20
0.0
 30
0.0
 70
   128
 71
    80
 72
    78
 73
    79
  0
VERTEX
  5
206
  8
0
 62
     9
 10
0.0
 20
0.0
 30
0.0
 70
   128
 71
    78
 72
    80
 73
    77
  0
VERTEX
  5
207
  8
0
 62
     9
 10
0.0
 20
0.0
 30
0.0
 70
   128
 71
    79
 72
    82
 73
    81
  0
VERTEX
  5
208
  8
0
 62
     9
 10
0.0
 20
0.0
 30
0.0
 70
   128
 71
    80
 72
    79
 73
    81
  0
VERTEX
  5
209
  8
0
 62
     9
 10
0.0
 20
0.0
 30
0.0
 70
   128
 71
    83
 72
    82
 73
    79
  0
VERTEX
  5
20A
  8
0
 62
     9
 10
0.0
 20
0.0
 30
0.0
 70
   128
 71
    83
 72
    84
 73
    82
  0
VERTEX
  5
20B
  8
0
 62
     9
 10
0.0
 20
0.0
 30
0.0
 70
   128
 71
    50
 72
    86
 73
    85
  0
VERTEX
  5
20C
  8
0
 62
     9
 10
0.0
 20
0.0
 30
0.0
 70
   128
 71
    52
 72
    86
 73
    50
  0
VERTEX
  5
20D
  8
0
 62
     9
 10
0.0
 20
0.0
 30
0.0
 70
   128
 71
    49
 72
    85
 73
    87
  0
VERTEX
  5
20E
  8
0
 62
     9
 10
0.0
 20
0.0
 30
0.0
 70
   128
 71
    85
 72
    49
 73
    50
  0
VERTEX
  5
20F
  8
0
 62
     9
 10
0.0
 20
0.0
 30
0.0
 70
   128
 71
    89
 72
    88
 73
    77
  0
VERTEX
  5
210
  8
0
 62
     9
 10
0.0
 20
0.0
 30
0.0
 70
   128
 71
    91
 72
    90
 73
    74
  0
VERTEX
  5
211
  8
0
 62
     9
 10
0.0
 20
0.0
 30
0.0
 70
   128
 71
    74
 72
    90
 73
    52
  0
VERTEX
  5
212
  8
0
 62
     9
 10
0.0
 20
0.0
 30
0.0
 70
   128
 71
    88
 72
    76
 73
    77
  0
VERTEX
  5
213
  8
0
 62
     9
 10
0.0
 20
0.0
 30
0.0
 70
   128
 71
    73
 72
    76
 73
    92
  0
VERTEX
  5
214
  8
0
 62
     9
 10
0.0
 20
0.0
 30
0.0
 70
   128
 71
    88
 72
    92
 73
    76
  0
VERTEX
  5
215
  8
0
 62
     9
 10
0.0
 20
0.0
 30
0.0
 70
   128
 71
    73
 72
    92
 73
    91
  0
VERTEX
  5
216
  8
0
 62
     9
 10
0.0
 20
0.0
 30
0.0
 70
   128
 71
    86
 72
    52
 73
    90
  0
VERTEX
  5
217
  8
0
 62
     9
 10
0.0
 20
0.0
 30
0.0
 70
   128
 71
    91
 72
    74
 73
    73
  0
VERTEX
  5
218
  8
0
 62
     9
 10
0.0
 20
0.0
 30
0.0
 70
   128
 71
    80
 72
    89
 73
    77
  0
VERTEX
  5
219
  8
0
 62
     9
 10
0.0
 20
0.0
 30
0.0
 70
   128
 71
    93
 72
    89
 73
    80
  0
VERTEX
  5
21A
  8
0
 62
     9
 10
0.0
 20
0.0
 30
0.0
 70
   128
 71
    49
 72
    87
 73
    57
  0
VERTEX
  5
21B
  8
0
 62
     9
 10
0.0
 20
0.0
 30
0.0
 70
   128
 71
    81
 72
    82
 73
    94
  0
VERTEX
  5
21C
  8
0
 62
     9
 10
0.0
 20
0.0
 30
0.0
 70
   128
 71
    81
 72
    94
 73
    93
  0
VERTEX
  5
21D
  8
0
 62
     9
 10
0.0
 20
0.0
 30
0.0
 70
   128
 71
    81
 72
    93
 73
    80
  0
VERTEX
  5
21E
  8
0
 62
     9
 10
0.0
 20
0.0
 30
0.0
 70
   128
 71
    82
 72
    95
 73
    94
  0
VERTEX
  5
21F
  8
0
 62
     9
 10
0.0
 20
0.0
 30
0.0
 70
   128
 71
    95
 72
    82
 73
    84
  0
VERTEX
  5
220
  8
0
 62
     9
 10
0.0
 20
0.0
 30
0.0
 70
   128
 71
    96
 72
    95
 73
    84
  0
VERTEX
  5
221
  8
0
 62
     9
 10
0.0
 20
0.0
 30
0.0
 70
   128
 71
    57
 72
    87
 73
    97
  0
VERTEX
  5
222
  8
0
 62
     9
 10
0.0
 20
0.0
 30
0.0
 70
   128
 71
    97
 72
    98
 73
    54
  0
VERTEX
  5
223
  8
0
 62
     9
 10
0.0
 20
0.0
 30
0.0
 70
   128
 71
    54
 72
    57
 73
    97
  0
VERTEX
  5
224
  8
0
 62
     9
 10
0.0
 20
0.0
 30
0.0
 70
   128
 71
    53
 72
    98
 73
    99
  0
VERTEX
  5
225
  8
0
 62
     9
 10
0.0
 20
0.0
 30
0.0
 70
   128
 71
    98
 72
    53
 73
    54
  0
VERTEX
  5
226
  8
0
 62
     9
 10
0.0
 20
0.0
 30
0.0
 70
   128
 71
   100
 72
    59
 73
    99
  0
VERTEX
  5
227
  8
0
 62
     9
 10
0.0
 20
0.0
 30
0.0
 70
   128
 71
    53
 72
    99
 73
    59
  0
VERTEX
  5
228
  8
0
 62
     9
 10
0.0
 20
0.0
 30
0.0
 70
   128
 71
   100
 72
   101
 73
    64
  0
VERTEX
  5
229
  8
0
 62
     9
 10
0.0
 20
0.0
 30
0.0
 70
   128
 71
    64
 72
    59
 73
   100
  0
VERTEX
  5
22A
  8
0
 62
     9
 10
0.0
 20
0.0
 30
0.0
 70
   128
 71
    62
 72
   101
 73
   102
  0
VERTEX
  5
22B
  8
0
 62
     9
 10
0.0
 20
0.0
 30
0.0
 70
   128
 71
   101
 72
    62
 73
    64
  0
VERTEX
  5
22C
  8
0
 62
     9
 10
0.0
 20
0.0
 30
0.0
 70
   128
 71
   103
 72
    61
 73
   102
  0
VERTEX
  5
22D
  8
0
 62
     9
 10
0.0
 20
0.0
 30
0.0
 70
   128
 71
    62
 72
   102
 73
    61
  0
VERTEX
  5
22E
  8
0
 62
     9
 10
0.0
 20
0.0
 30
0.0
 70
   128
 71
   103
 72
   104
 73
    66
  0
VERTEX
  5
22F
  8
0
 62
     9
 10
0.0
 20
0.0
 30
0.0
 70
   128
 71
    66
 72
    61
 73
   103
  0
VERTEX
  5
230
  8
0
 62
     9
 10
0.0
 20
0.0
 30
0.0
 70
   128
 71
    70
 72
   104
 73
   105
  0
VERTEX
  5
231
  8
0
 62
     9
 10
0.0
 20
0.0
 30
0.0
 70
   128
 71
   104
 72
    70
 73
    66
  0
VERTEX
  5
232
  8
0
 62
     9
 10
0.0
 20
0.0
 30
0.0
 70
   128
 71
   106
 72
    68
 73
   105
  0
VERTEX
  5
233
  8
0
 62
     9
 10
0.0
 20
0.0
 30
0.0
 70
   128
 71
    70
 72
   105
 73
    68
  0
VERTEX
  5
234
  8
0
 62
     9
 10
0.0
 20
0.0
 30
0.0
 70
   128
 71
   106
 72
   107
 73
    67
  0
VERTEX
  5
235
  8
0
 62
     9
 10
0.0
 20
0.0
 30
0.0
 70
   128
 71
    67
 72
    68
 73
   106
  0
VERTEX
  5
236
  8
0
 62
     9
 10
0.0
 20
0.0
 30
0.0
 70
   128
 71
   107
 72
    72
 73
    67
  0
VERTEX
  5
237
  8
0
 62
     9
 10
0.0
 20
0.0
 30
0.0
 70
   128
 71
   110
 72
   109
 73
   108
  0
VERTEX
  5
238
  8
0
 62
     9
 10
0.0
 20
0.0
 30
0.0
 70
   128
 71
   113
 72
   112
 73
   111
  0
VERTEX
  5
239
  8
0
 62
     9
 10
0.0
 20
0.0
 30
0.0
 70
   128
 71
    84
 72
   114
 73
    96
  0
VERTEX
  5
23A
  8
0
 62
     9
 10
0.0
 20
0.0
 30
0.0
 70
   128
 71
   117
 72
   116
 73
   115
  0
VERTEX
  5
23B
  8
0
 62
     9
 10
0.0
 20
0.0
 30
0.0
 70
   128
 71
   120
 72
   119
 73
   118
  0
VERTEX
  5
23C
  8
0
 62
     9
 10
0.0
 20
0.0
 30
0.0
 70
   128
 71
   123
 72
   122
 73
   121
  0
VERTEX
  5
23D
  8
0
 62
     9
 10
0.0
 20
0.0
 30
0.0
 70
   128
 71
   126
 72
   125
 73
   124
  0
VERTEX
  5
23E
  8
0
 62
     9
 10
0.0
 20
0.0
 30
0.0
 70
   128
 71
   129
 72
   128
 73
   127
  0
VERTEX
  5
23F
  8
0
 62
     9
 10
0.0
 20
0.0
 30
0.0
 70
   128
 71
   129
 72
   131
 73
   130
  0
VERTEX
  5
240
  8
0
 62
     9
 10
0.0
 20
0.0
 30
0.0
 70
   128
 71
   134
 72
   133
 73
   132
  0
VERTEX
  5
241
  8
0
 62
     9
 10
0.0
 20
0.0
 30
0.0
 70
   128
 71
   132
 72
   136
 73
   135
  0
VERTEX
  5
242
  8
0
 62
     9
 10
0.0
 20
0.0
 30
0.0
 70
   128
 71
   139
 72
   138
 73
   137
  0
VERTEX
  5
243
  8
0
 62
     9
 10
0.0
 20
0.0
 30
0.0
 70
   128
 71
   137
 72
   133
 73
   140
  0
VERTEX
  5
244
  8
0
 62
     9
 10
0.0
 20
0.0
 30
0.0
 70
   128
 71
   138
 72
   142
 73
   141
  0
VERTEX
  5
245
  8
0
 62
     9
 10
0.0
 20
0.0
 30
0.0
 70
   128
 71
   142
 72
   138
 73
   139
  0
VERTEX
  5
246
  8
0
 62
     9
 10
0.0
 20
0.0
 30
0.0
 70
   128
 71
   144
 72
   141
 73
   143
  0
VERTEX
  5
247
  8
0
 62
     9
 10
0.0
 20
0.0
 30
0.0
 70
   128
 71
   142
 72
   143
 73
   141
  0
VERTEX
  5
248
  8
0
 62
     9
 10
0.0
 20
0.0
 30
0.0
 70
   128
 71
   146
 72
   145
 73
   144
  0
VERTEX
  5
249
  8
0
 62
     9
 10
0.0
 20
0.0
 30
0.0
 70
   128
 71
   144
 72
   143
 73
   146
  0
VERTEX
  5
24A
  8
0
 62
     9
 10
0.0
 20
0.0
 30
0.0
 70
   128
 71
   145
 72
   148
 73
   147
  0
VERTEX
  5
24B
  8
0
 62
     9
 10
0.0
 20
0.0
 30
0.0
 70
   128
 71
   148
 72
   145
 73
   146
  0
VERTEX
  5
24C
  8
0
 62
     9
 10
0.0
 20
0.0
 30
0.0
 70
   128
 71
   107
 72
   147
 73
   149
  0
VERTEX
  5
24D
  8
0
 62
     9
 10
0.0
 20
0.0
 30
0.0
 70
   128
 71
   148
 72
   149
 73
   147
  0
VERTEX
  5
24E
  8
0
 62
     9
 10
0.0
 20
0.0
 30
0.0
 70
   128
 71
   107
 72
   149
 73
    72
  0
VERTEX
  5
24F
  8
0
 62
     9
 10
0.0
 20
0.0
 30
0.0
 70
   128
 71
   137
 72
   140
 73
   139
  0
VERTEX
  5
250
  8
0
 62
     9
 10
0.0
 20
0.0
 30
0.0
 70
   128
 71
   134
 72
   140
 73
   133
  0
VERTEX
  5
251
  8
0
 62
     9
 10
0.0
 20
0.0
 30
0.0
 70
   128
 71
   129
 72
   127
 73
   131
  0
VERTEX
  5
252
  8
0
 62
     9
 10
0.0
 20
0.0
 30
0.0
 70
   128
 71
   132
 72
   135
 73
   134
  0
VERTEX
  5
253
  8
0
 62
     9
 10
0.0
 20
0.0
 30
0.0
 70
   128
 71
   135
 72
   136
 73
   128
  0
VERTEX
  5
254
  8
0
 62
     9
 10
0.0
 20
0.0
 30
0.0
 70
   128
 71
   128
 72
   136
 73
   127
  0
VERTEX
  5
255
  8
0
 62
     9
 10
0.0
 20
0.0
 30
0.0
 70
   128
 71
   112
 72
   113
 73
   118
  0
VERTEX
  5
256
  8
0
 62
     9
 10
0.0
 20
0.0
 30
0.0
 70
   128
 71
   131
 72
   121
 73
   130
  0
VERTEX
  5
257
  8
0
 62
     9
 10
0.0
 20
0.0
 30
0.0
 70
   128
 71
   124
 72
   122
 73
   123
  0
VERTEX
  5
258
  8
0
 62
     9
 10
0.0
 20
0.0
 30
0.0
 70
   128
 71
   123
 72
   121
 73
   131
  0
VERTEX
  5
259
  8
0
 62
     9
 10
0.0
 20
0.0
 30
0.0
 70
   128
 71
   124
 72
   125
 73
   122
  0
VERTEX
  5
25A
  8
0
 62
     9
 10
0.0
 20
0.0
 30
0.0
 70
   128
 71
   150
 72
   126
 73
   116
  0
VERTEX
  5
25B
  8
0
 62
     9
 10
0.0
 20
0.0
 30
0.0
 70
   128
 71
   126
 72
   150
 73
   125
  0
VERTEX
  5
25C
  8
0
 62
     9
 10
0.0
 20
0.0
 30
0.0
 70
   128
 71
   150
 72
   116
 73
   117
  0
VERTEX
  5
25D
  8
0
 62
     9
 10
0.0
 20
0.0
 30
0.0
 70
   128
 71
   119
 72
   120
 73
   115
  0
VERTEX
  5
25E
  8
0
 62
     9
 10
0.0
 20
0.0
 30
0.0
 70
   128
 71
   117
 72
   115
 73
   120
  0
VERTEX
  5
25F
  8
0
 62
     9
 10
0.0
 20
0.0
 30
0.0
 70
   128
 71
   119
 72
   112
 73
   118
  0
VERTEX
  5
260
  8
0
 62
     9
 10
0.0
 20
0.0
 30
0.0
 70
   128
 71
   113
 72
   111
 73
   151
  0
VERTEX
  5
261
  8
0
 62
     9
 10
0.0
 20
0.0
 30
0.0
 70
   128
 71
   110
 72
   151
 73
   111
  0
VERTEX
  5
262
  8
0
 62
     9
 10
0.0
 20
0.0
 30
0.0
 70
   128
 71
   109
 72
   114
 73
   108
  0
VERTEX
  5
263
  8
0
 62
     9
 10
0.0
 20
0.0
 30
0.0
 70
   128
 71
   110
 72
   108
 73
   151
  0
VERTEX
  5
264
  8
0
 62
     9
 10
0.0
 20
0.0
 30
0.0
 70
   128
 71
   114
 72
   109
 73
    96
  0
VERTEX
  5
265
  8
0
 62
     9
 10
0.0
 20
0.0
 30
0.0
 70
   128
 71
    71
 72
    72
 73
   149
  0
VERTEX
  5
266
  8
0
 62
     9
 10
0.0
 20
0.0
 30
0.0
 70
   128
 71
   148
 72
   152
 73
   149
  0
VERTEX
  5
267
  8
0
 62
     9
 10
0.0
 20
0.0
 30
0.0
 70
   128
 71
   142
 72
   154
 73
   153
  0
VERTEX
  5
268
  8
0
 62
     9
 10
0.0
 20
0.0
 30
0.0
 70
   128
 71
   153
 72
   152
 73
   146
  0
VERTEX
  5
269
  8
0
 62
     9
 10
0.0
 20
0.0
 30
0.0
 70
   128
 71
   134
 72
   155
 73
   140
  0
VERTEX
  5
26A
  8
0
 62
     9
 10
0.0
 20
0.0
 30
0.0
 70
   128
 71
   154
 72
   139
 73
   140
  0
VERTEX
  5
26B
  8
0
 62
     9
 10
0.0
 20
0.0
 30
0.0
 70
   128
 71
   156
 72
   128
 73
   129
  0
VERTEX
  5
26C
  8
0
 62
     9
 10
0.0
 20
0.0
 30
0.0
 70
   128
 71
   155
 72
   135
 73
   156
  0
VERTEX
  5
26D
  8
0
 62
     9
 10
0.0
 20
0.0
 30
0.0
 70
   128
 71
   158
 72
   121
 73
   157
  0
VERTEX
  5
26E
  8
0
 62
     9
 10
0.0
 20
0.0
 30
0.0
 70
   128
 71
   129
 72
   130
 73
   158
  0
VERTEX
  5
26F
  8
0
 62
     9
 10
0.0
 20
0.0
 30
0.0
 70
   128
 71
   157
 72
   125
 73
   159
  0
VERTEX
  5
270
  8
0
 62
     9
 10
0.0
 20
0.0
 30
0.0
 70
   128
 71
   125
 72
   157
 73
   122
  0
VERTEX
  5
271
  8
0
 62
     9
 10
0.0
 20
0.0
 30
0.0
 70
   128
 71
   159
 72
   117
 73
   160
  0
VERTEX
  5
272
  8
0
 62
     9
 10
0.0
 20
0.0
 30
0.0
 70
   128
 71
   117
 72
   159
 73
   150
  0
VERTEX
  5
273
  8
0
 62
     9
 10
0.0
 20
0.0
 30
0.0
 70
   128
 71
   160
 72
   120
 73
   118
  0
VERTEX
  5
274
  8
0
 62
     9
 10
0.0
 20
0.0
 30
0.0
 70
   128
 71
   117
 72
   120
 73
   160
  0
VERTEX
  5
275
  8
0
 62
     9
 10
0.0
 20
0.0
 30
0.0
 70
   128
 71
   113
 72
   161
 73
   118
  0
VERTEX
  5
276
  8
0
 62
     9
 10
0.0
 20
0.0
 30
0.0
 70
   128
 71
   160
 72
   118
 73
   161
  0
VERTEX
  5
277
  8
0
 62
     9
 10
0.0
 20
0.0
 30
0.0
 70
   128
 71
   151
 72
   162
 73
   161
  0
VERTEX
  5
278
  8
0
 62
     9
 10
0.0
 20
0.0
 30
0.0
 70
   128
 71
   161
 72
   113
 73
   151
  0
VERTEX
  5
279
  8
0
 62
     9
 10
0.0
 20
0.0
 30
0.0
 70
   128
 71
   108
 72
   114
 73
   162
  0
VERTEX
  5
27A
  8
0
 62
     9
 10
0.0
 20
0.0
 30
0.0
 70
   128
 71
   108
 72
   162
 73
   151
  0
VERTEX
  5
27B
  8
0
 62
     9
 10
0.0
 20
0.0
 30
0.0
 70
   128
 71
    83
 72
   114
 73
    84
  0
VERTEX
  5
27C
  8
0
 62
     9
 10
0.0
 20
0.0
 30
0.0
 70
   128
 71
   114
 72
    83
 73
   162
  0
VERTEX
  5
27D
  8
0
 62
     9
 10
0.0
 20
0.0
 30
0.0
 70
   128
 71
   155
 72
   154
 73
   140
  0
VERTEX
  5
27E
  8
0
 62
     9
 10
0.0
 20
0.0
 30
0.0
 70
   128
 71
   121
 72
   122
 73
   157
  0
VERTEX
  5
27F
  8
0
 62
     9
 10
0.0
 20
0.0
 30
0.0
 70
   128
 71
   159
 72
   125
 73
   150
  0
VERTEX
  5
280
  8
0
 62
     9
 10
0.0
 20
0.0
 30
0.0
 70
   128
 71
   130
 72
   121
 73
   158
  0
VERTEX
  5
281
  8
0
 62
     9
 10
0.0
 20
0.0
 30
0.0
 70
   128
 71
   128
 72
   156
 73
   135
  0
VERTEX
  5
282
  8
0
 62
     9
 10
0.0
 20
0.0
 30
0.0
 70
   128
 71
   158
 72
   156
 73
   129
  0
VERTEX
  5
283
  8
0
 62
     9
 10
0.0
 20
0.0
 30
0.0
 70
   128
 71
   155
 72
   134
 73
   135
  0
VERTEX
  5
284
  8
0
 62
     9
 10
0.0
 20
0.0
 30
0.0
 70
   128
 71
   139
 72
   154
 73
   142
  0
VERTEX
  5
285
  8
0
 62
     9
 10
0.0
 20
0.0
 30
0.0
 70
   128
 71
    71
 72
   149
 73
   152
  0
VERTEX
  5
286
  8
0
 62
     9
 10
0.0
 20
0.0
 30
0.0
 70
   128
 71
   142
 72
   153
 73
   143
  0
VERTEX
  5
287
  8
0
 62
     9
 10
0.0
 20
0.0
 30
0.0
 70
   128
 71
   148
 72
   146
 73
   152
  0
VERTEX
  5
288
  8
0
 62
     9
 10
0.0
 20
0.0
 30
0.0
 70
   128
 71
   153
 72
   146
 73
   143
  0
VERTEX
  5
289
  8
0
 62
     9
 10
0.0
 20
0.0
 30
0.0
 70
   128
 71
    93
 72
    94
 73
    43
  0
VERTEX
  5
28A
  8
0
 62
     9
 10
0.0
 20
0.0
 30
0.0
 70
   128
 71
   126
 72
   163
 73
   116
  0
VERTEX
  5
28B
  8
0
 62
     9
 10
0.0
 20
0.0
 30
0.0
 70
   128
 71
   165
 72
   164
 73
   111
  0
VERTEX
  5
28C
  8
0
 62
     9
 10
0.0
 20
0.0
 30
0.0
 70
   128
 71
   166
 72
   126
 73
   124
  0
VERTEX
  5
28D
  8
0
 62
     9
 10
0.0
 20
0.0
 30
0.0
 70
   128
 71
   163
 72
   115
 73
   116
  0
VERTEX
  5
28E
  8
0
 62
     9
 10
0.0
 20
0.0
 30
0.0
 70
   128
 71
   115
 72
   165
 73
   119
  0
VERTEX
  5
28F
  8
0
 62
     9
 10
0.0
 20
0.0
 30
0.0
 70
   128
 71
   166
 72
   124
 73
   123
  0
VERTEX
  5
290
  8
0
 62
     9
 10
0.0
 20
0.0
 30
0.0
 70
   128
 71
   166
 72
   123
 73
     7
  0
VERTEX
  5
291
  8
0
 62
     9
 10
0.0
 20
0.0
 30
0.0
 70
   128
 71
   119
 72
   165
 73
   112
  0
VERTEX
  5
292
  8
0
 62
     9
 10
0.0
 20
0.0
 30
0.0
 70
   128
 71
   110
 72
   111
 73
   164
  0
VERTEX
  5
293
  8
0
 62
     9
 10
0.0
 20
0.0
 30
0.0
 70
   128
 71
   123
 72
   131
 73
     7
  0
VERTEX
  5
294
  8
0
 62
     9
 10
0.0
 20
0.0
 30
0.0
 70
   128
 71
   133
 72
   137
 73
    11
  0
VERTEX
  5
295
  8
0
 62
     9
 10
0.0
 20
0.0
 30
0.0
 70
   128
 71
   127
 72
   136
 73
     4
  0
VERTEX
  5
296
  8
0
 62
     9
 10
0.0
 20
0.0
 30
0.0
 70
   128
 71
   145
 72
     1
 73
   144
  0
VERTEX
  5
297
  8
0
 62
     9
 10
0.0
 20
0.0
 30
0.0
 70
   128
 71
    89
 72
    93
 73
    44
  0
VERTEX
  5
298
  8
0
 62
     9
 10
0.0
 20
0.0
 30
0.0
 70
   128
 71
   107
 72
    14
 73
   147
  0
VERTEX
  5
299
  8
0
 62
     9
 10
0.0
 20
0.0
 30
0.0
 70
   128
 71
   104
 72
    20
 73
   105
  0
VERTEX
  5
29A
  8
0
 62
     9
 10
0.0
 20
0.0
 30
0.0
 70
   128
 71
    14
 72
   107
 73
   106
  0
VERTEX
  5
29B
  8
0
 62
     9
 10
0.0
 20
0.0
 30
0.0
 70
   128
 71
    26
 72
    98
 73
    97
  0
VERTEX
  5
29C
  8
0
 62
     9
 10
0.0
 20
0.0
 30
0.0
 70
   128
 71
    87
 72
    28
 73
    97
  0
VERTEX
  5
29D
  8
0
 62
     9
 10
0.0
 20
0.0
 30
0.0
 70
   128
 71
   100
 72
    25
 73
   101
  0
VERTEX
  5
29E
  8
0
 62
     9
 10
0.0
 20
0.0
 30
0.0
 70
   128
 71
    25
 72
   100
 73
    99
  0
VERTEX
  5
29F
  8
0
 62
     9
 10
0.0
 20
0.0
 30
0.0
 70
   128
 71
    20
 72
   104
 73
    23
  0
VERTEX
  5
2A0
  8
0
 62
     9
 10
0.0
 20
0.0
 30
0.0
 70
   128
 71
   101
 72
    23
 73
   102
  0
VERTEX
  5
2A1
  8
0
 62
     9
 10
0.0
 20
0.0
 30
0.0
 70
   128
 71
    99
 72
    98
 73
    26
  0
VERTEX
  5
2A2
  8
0
 62
     9
 10
0.0
 20
0.0
 30
0.0
 70
   128
 71
    28
 72
    87
 73
    85
  0
VERTEX
  5
2A3
  8
0
 62
     9
 10
0.0
 20
0.0
 30
0.0
 70
   128
 71
   103
 72
   102
 73
    23
  0
VERTEX
  5
2A4
  8
0
 62
     9
 10
0.0
 20
0.0
 30
0.0
 70
   128
 71
    38
 72
    28
 73
    85
  0
VERTEX
  5
2A5
  8
0
 62
     9
 10
0.0
 20
0.0
 30
0.0
 70
   128
 71
    90
 72
    38
 73
    86
  0
VERTEX
  5
2A6
  8
0
 62
     9
 10
0.0
 20
0.0
 30
0.0
 70
   128
 71
   106
 72
    20
 73
    14
  0
VERTEX
  5
2A7
  8
0
 62
     9
 10
0.0
 20
0.0
 30
0.0
 70
   128
 71
     1
 72
   145
 73
   147
  0
VERTEX
  5
2A8
  8
0
 62
     9
 10
0.0
 20
0.0
 30
0.0
 70
   128
 71
    90
 72
    40
 73
    38
  0
VERTEX
  5
2A9
  8
0
 62
     9
 10
0.0
 20
0.0
 30
0.0
 70
   128
 71
    40
 72
    92
 73
    88
  0
VERTEX
  5
2AA
  8
0
 62
     9
 10
0.0
 20
0.0
 30
0.0
 70
   128
 71
    92
 72
    40
 73
    91
  0
VERTEX
  5
2AB
  8
0
 62
     9
 10
0.0
 20
0.0
 30
0.0
 70
   128
 71
    44
 72
    88
 73
    89
  0
VERTEX
  5
2AC
  8
0
 62
     9
 10
0.0
 20
0.0
 30
0.0
 70
   128
 71
   141
 72
   144
 73
    12
  0
VERTEX
  5
2AD
  8
0
 62
     9
 10
0.0
 20
0.0
 30
0.0
 70
   128
 71
   137
 72
   138
 73
    11
  0
VERTEX
  5
2AE
  8
0
 62
     9
 10
0.0
 20
0.0
 30
0.0
 70
   128
 71
   141
 72
    12
 73
   138
  0
VERTEX
  5
2AF
  8
0
 62
     9
 10
0.0
 20
0.0
 30
0.0
 70
   128
 71
    46
 72
    43
 73
    95
  0
VERTEX
  5
2B0
  8
0
 62
     9
 10
0.0
 20
0.0
 30
0.0
 70
   128
 71
    95
 72
    43
 73
    94
  0
VERTEX
  5
2B1
  8
0
 62
     9
 10
0.0
 20
0.0
 30
0.0
 70
   128
 71
    46
 72
    96
 73
   109
  0
VERTEX
  5
2B2
  8
0
 62
     9
 10
0.0
 20
0.0
 30
0.0
 70
   128
 71
   132
 72
    11
 73
     4
  0
VERTEX
  5
2B3
  8
0
 62
     9
 10
0.0
 20
0.0
 30
0.0
 70
   128
 71
   109
 72
   164
 73
    46
  0
VERTEX
  5
2B4
  8
0
 62
     9
 10
0.0
 20
0.0
 30
0.0
 70
   128
 71
   127
 72
     7
 73
   131
  0
VERTEX
  5
2B5
  8
0
 62
     9
 10
0.0
 20
0.0
 30
0.0
 70
   128
 71
     4
 72
   136
 73
   132
  0
VERTEX
  5
2B6
  8
0
 62
     9
 10
0.0
 20
0.0
 30
0.0
 70
   128
 71
   166
 72
   163
 73
   126
  0
VERTEX
  5
2B7
  8
0
 62
     9
 10
0.0
 20
0.0
 30
0.0
 70
   128
 71
   163
 72
   165
 73
   115
  0
VERTEX
  5
2B8
  8
0
 62
     9
 10
0.0
 20
0.0
 30
0.0
 70
   128
 71
   112
 72
   165
 73
   111
  0
VERTEX
  5
2B9
  8
0
 62
     9
 10
0.0
 20
0.0
 30
0.0
 70
   128
 71
   110
 72
   164
 73
   109
  0
VERTEX
  5
2BA
  8
0
 62
     9
 10
0.0
 20
0.0
 30
0.0
 70
   128
 71
    46
 72
    95
 73
    96
  0
VERTEX
  5
2BB
  8
0
 62
     9
 10
0.0
 20
0.0
 30
0.0
 70
   128
 71
    43
 72
    44
 73
    93
  0
VERTEX
  5
2BC
  8
0
 62
     9
 10
0.0
 20
0.0
 30
0.0
 70
   128
 71
    44
 72
    40
 73
    88
  0
VERTEX
  5
2BD
  8
0
 62
     9
 10
0.0
 20
0.0
 30
0.0
 70
   128
 71
    91
 72
    40
 73
    90
  0
VERTEX
  5
2BE
  8
0
 62
     9
 10
0.0
 20
0.0
 30
0.0
 70
   128
 71
    86
 72
    38
 73
    85
  0
VERTEX
  5
2BF
  8
0
 62
     9
 10
0.0
 20
0.0
 30
0.0
 70
   128
 71
    28
 72
    26
 73
    97
  0
VERTEX
  5
2C0
  8
0
 62
     9
 10
0.0
 20
0.0
 30
0.0
 70
   128
 71
    26
 72
    25
 73
    99
  0
VERTEX
  5
2C1
  8
0
 62
     9
 10
0.0
 20
0.0
 30
0.0
 70
   128
 71
    25
 72
    23
 73
   101
  0
VERTEX
  5
2C2
  8
0
 62
     9
 10
0.0
 20
0.0
 30
0.0
 70
   128
 71
   103
 72
    23
 73
   104
  0
VERTEX
  5
2C3
  8
0
 62
     9
 10
0.0
 20
0.0
 30
0.0
 70
   128
 71
   105
 72
    20
 73
   106
  0
VERTEX
  5
2C4
  8
0
 62
     9
 10
0.0
 20
0.0
 30
0.0
 70
   128
 71
    14
 72
     1
 73
   147
  0
VERTEX
  5
2C5
  8
0
 62
     9
 10
0.0
 20
0.0
 30
0.0
 70
   128
 71
     1
 72
    12
 73
   144
  0
VERTEX
  5
2C6
  8
0
 62
     9
 10
0.0
 20
0.0
 30
0.0
 70
   128
 71
    12
 72
    11
 73
   138
  0
VERTEX
  5
2C7
  8
0
 62
     9
 10
0.0
 20
0.0
 30
0.0
 70
   128
 71
   133
 72
    11
 73
   132
  0
VERTEX
  5
2C8
  8
0
 62
     9
 10
0.0
 20
0.0
 30
0.0
 70
   128
 71
     4
 72
     7
 73
   127
  0
VERTEX
  5
2C9
  8
0
 62
     9
 10
0.0
 20
0.0
 30
0.0
 70
   128
 71
   165
 72
   163
 73
   167
  0
VERTEX
  5
2CA
  8
0
 62
     9
 10
0.0
 20
0.0
 30
0.0
 70
   128
 71
   168
 72
    45
 73
    46
  0
VERTEX
  5
2CB
  8
0
 62
     9
 10
0.0
 20
0.0
 30
0.0
 70
   128
 71
   170
 72
   167
 73
   169
  0
VERTEX
  5
2CC
  8
0
 62
     9
 10
0.0
 20
0.0
 30
0.0
 70
   128
 71
   170
 72
   169
 73
    10
  0
VERTEX
  5
2CD
  8
0
 62
     9
 10
0.0
 20
0.0
 30
0.0
 70
   128
 71
   168
 72
    36
 73
    45
  0
VERTEX
  5
2CE
  8
0
 62
     9
 10
0.0
 20
0.0
 30
0.0
 70
   128
 71
   171
 72
   168
 73
   164
  0
VERTEX
  5
2CF
  8
0
 62
     9
 10
0.0
 20
0.0
 30
0.0
 70
   128
 71
   168
 72
    46
 73
   164
  0
VERTEX
  5
2D0
  8
0
 62
     9
 10
0.0
 20
0.0
 30
0.0
 70
   128
 71
   170
 72
   172
 73
   167
  0
VERTEX
  5
2D1
  8
0
 62
     9
 10
0.0
 20
0.0
 30
0.0
 70
   128
 71
   172
 72
   171
 73
   167
  0
VERTEX
  5
2D2
  8
0
 62
     9
 10
0.0
 20
0.0
 30
0.0
 70
   128
 71
   167
 72
   171
 73
   165
  0
VERTEX
  5
2D3
  8
0
 62
     9
 10
0.0
 20
0.0
 30
0.0
 70
   128
 71
   166
 72
   169
 73
   167
  0
VERTEX
  5
2D4
  8
0
 62
     9
 10
0.0
 20
0.0
 30
0.0
 70
   128
 71
   166
 72
     7
 73
     9
  0
VERTEX
  5
2D5
  8
0
 62
     9
 10
0.0
 20
0.0
 30
0.0
 70
   128
 71
     9
 72
   169
 73
   166
  0
VERTEX
  5
2D6
  8
0
 62
     9
 10
0.0
 20
0.0
 30
0.0
 70
   128
 71
   169
 72
     9
 73
    10
  0
VERTEX
  5
2D7
  8
0
 62
     9
 10
0.0
 20
0.0
 30
0.0
 70
   128
 71
   173
 72
   171
 73
   172
  0
VERTEX
  5
2D8
  8
0
 62
     9
 10
0.0
 20
0.0
 30
0.0
 70
   128
 71
   167
 72
   163
 73
   166
  0
VERTEX
  5
2D9
  8
0
 62
     9
 10
0.0
 20
0.0
 30
0.0
 70
   128
 71
   171
 72
   173
 73
   174
  0
VERTEX
  5
2DA
  8
0
 62
     9
 10
0.0
 20
0.0
 30
0.0
 70
   128
 71
   165
 72
   171
 73
   164
  0
VERTEX
  5
2DB
  8
0
 62
     9
 10
0.0
 20
0.0
 30
0.0
 70
   128
 71
   174
 72
   168
 73
   171
  0
VERTEX
  5
2DC
  8
0
 62
     9
 10
0.0
 20
0.0
 30
0.0
 70
   128
 71
   168
 72
   174
 73
    36
  0
SEQEND
  5
2DD
  8
0
 62
     9
  0
ENDBLK
  5
2E0
  8
0
  0
BLOCK
  8
0
  2
41
 70
     0
 10
0.0
 20
0.0
 30
0.0
  3
41
  1

  0
POLYLINE
  5
2E2
  8
0
 66
     1
 10
0.0
 20
0.0
 30
0.0
 70
    64
 71
   366
 72
   728
  0
VERTEX
  5
2E3
  8
0
 10
-0.0000000000007561
 20
44.25177764892578
 30
25.89495277404785
 70
   192
  0
VERTEX
  5
2E4
  8
0
 10
0.2291311472654343
 20
62.15116500854492
 30
26.67545700073242
 70
   192
  0
VERTEX
  5
2E5
  8
0
 10
-0.2277667075395584
 20
53.20148468017578
 30
26.28471183776855
 70
   192
  0
VERTEX
  5
2E6
  8
0
 10
-0.2264025658369064
 20
44.25180053710938
 30
25.89397430419922
 70
   192
  0
VERTEX
  5
2E7
  8
0
 10
-0.0000000000000417
 20
79.31912994384766
 30
0.8601863980293274
 70
   192
  0
VERTEX
  5
2E8
  8
0
 10
0.0000000000267569
 20
79.18293762207031
 30
-7.592967510223389
 70
   192
  0
VERTEX
  5
2E9
  8
0
 10
-1.932609677314758
 20
79.1772232055664
 30
-7.365231990814209
 70
   192
  0
VERTEX
  5
2EA
  8
0
 10
-4.741280555725098
 20
79.14498138427734
 30
-6.134064197540283
 70
   192
  0
VERTEX
  5
2EB
  8
0
 10
-9.457079887390137
 20
78.2557601928711
 30
-13.10947513580322
 70
   192
  0
VERTEX
  5
2EC
  8
0
 10
-3.854832887649536
 20
78.32006072998047
 30
-15.56519317626953
 70
   192
  0
VERTEX
  5
2ED
  8
0
 10
-25.10681533813477
 20
76.1171646118164
 30
0.776340126991272
 70
   192
  0
VERTEX
  5
2EE
  8
0
 10
-16.84060478210449
 20
77.8913345336914
 30
0.8227983713150024
 70
   192
  0
VERTEX
  5
2EF
  8
0
 10
-24.85134887695312
 20
76.21066284179688
 30
-2.794054269790649
 70
   192
  0
VERTEX
  5
2F0
  8
0
 10
-16.39626312255859
 20
77.99203491210938
 30
-3.038169622421265
 70
   192
  0
VERTEX
  5
2F1
  8
0
 10
-8.220220565795898
 20
79.01276397705078
 30
-1.084843397140503
 70
   192
  0
VERTEX
  5
2F2
  8
0
 10
-6.985833168029785
 20
79.08625793457031
 30
-3.891519546508789
 70
   192
  0
VERTEX
  5
2F3
  8
0
 10
-13.93412208557129
 20
78.13862609863281
 30
-8.63643741607666
 70
   192
  0
VERTEX
  5
2F4
  8
0
 10
-24.08942222595215
 20
76.30230712890625
 30
-6.293900012969971
 70
   192
  0
VERTEX
  5
2F5
  8
0
 10
-22.83804130554199
 20
76.39015197753906
 30
-9.648571014404297
 70
   192
  0
VERTEX
  5
2F6
  8
0
 10
-13.57432556152344
 20
76.67007446289062
 30
-20.33845329284668
 70
   192
  0
VERTEX
  5
2F7
  8
0
 10
-10.43099117279053
 20
76.71501159667969
 30
-22.05448532104492
 70
   192
  0
VERTEX
  5
2F8
  8
0
 10
-18.97516632080078
 20
76.54754638671875
 30
-15.65929317474365
 70
   192
  0
VERTEX
  5
2F9
  8
0
 10
-21.12158584594727
 20
76.47246551513672
 30
-12.79199123382568
 70
   192
  0
VERTEX
  5
2FA
  8
0
 10
-3.574479579925537
 20
76.7677230834961
 30
-24.06748199462891
 70
   192
  0
VERTEX
  5
2FB
  8
0
 10
-7.073665142059326
 20
76.747802734375
 30
-23.30660629272461
 70
   192
  0
VERTEX
  5
2FC
  8
0
 10
-0.0000000000000217
 20
76.77438354492188
 30
-24.32187271118164
 70
   192
  0
VERTEX
  5
2FD
  8
0
 10
0.0000000000266722
 20
78.33142852783203
 30
-16.01657485961914
 70
   192
  0
VERTEX
  5
2FE
  8
0
 10
-8.44210147857666
 20
78.96212768554688
 30
0.8508380055427551
 70
   192
  0
VERTEX
  5
2FF
  8
0
 10
-16.4425163269043
 20
76.61386108398438
 30
-18.19164276123047
 70
   192
  0
VERTEX
  5
300
  8
0
 10
8.446353912353516
 20
78.96186065673828
 30
0.8508310317993164
 70
   192
  0
VERTEX
  5
301
  8
0
 10
8.21888542175293
 20
79.01266479492188
 30
-1.081110715866089
 70
   192
  0
VERTEX
  5
302
  8
0
 10
6.987295627593994
 20
79.08618927001953
 30
-3.888818979263306
 70
   192
  0
VERTEX
  5
303
  8
0
 10
13.93703842163086
 20
78.13848876953125
 30
-8.631051063537598
 70
   192
  0
VERTEX
  5
304
  8
0
 10
16.39359855651855
 20
77.99183654785156
 30
-3.030724048614502
 70
   192
  0
VERTEX
  5
305
  8
0
 10
3.570763111114502
 20
76.7676773071289
 30
-24.06560134887695
 70
   192
  0
VERTEX
  5
306
  8
0
 10
3.86228084564209
 20
78.32013702392578
 30
-15.56785678863525
 70
   192
  0
VERTEX
  5
307
  8
0
 10
1.936343789100647
 20
79.17726135253906
 30
-7.366567134857178
 70
   192
  0
VERTEX
  5
308
  8
0
 10
4.743981838226318
 20
79.14494323730469
 30
-6.132602691650391
 70
   192
  0
VERTEX
  5
309
  8
0
 10
9.462468147277832
 20
78.25568389892578
 30
-13.10655975341797
 70
   192
  0
VERTEX
  5
30A
  8
0
 10
7.071341991424561
 20
76.74773406982422
 30
-23.30421829223633
 70
   192
  0
VERTEX
  5
30B
  8
0
 10
10.42679977416992
 20
76.71498107910156
 30
-22.05342483520508
 70
   192
  0
VERTEX
  5
30C
  8
0
 10
21.11994171142578
 20
76.47251892089844
 30
-12.79406261444092
 70
   192
  0
VERTEX
  5
30D
  8
0
 10
22.83698081970215
 20
76.3902359008789
 30
-9.65185546875
 70
   192
  0
VERTEX
  5
30E
  8
0
 10
16.43887519836426
 20
76.61387634277344
 30
-18.19228744506836
 70
   192
  0
VERTEX
  5
30F
  8
0
 10
13.57090854644775
 20
76.67005920410156
 30
-20.33770751953125
 70
   192
  0
VERTEX
  5
310
  8
0
 10
24.85109519958496
 20
76.21073913574219
 30
-2.797171115875244
 70
   192
  0
VERTEX
  5
311
  8
0
 10
24.08976364135742
 20
76.3023452758789
 30
-6.295438289642334
 70
   192
  0
VERTEX
  5
312
  8
0
 10
25.10681533813477
 20
76.1171646118164
 30
0.776340126991272
 70
   192
  0
VERTEX
  5
313
  8
0
 10
16.84478759765625
 20
77.89053344726562
 30
0.8227773308753967
 70
   192
  0
VERTEX
  5
314
  8
0
 10
18.97207069396973
 20
76.54759216308594
 30
-15.66091823577881
 70
   192
  0
VERTEX
  5
315
  8
0
 10
3.884924411773682
 20
77.43721771240234
 30
17.33218955993652
 70
   192
  0
VERTEX
  5
316
  8
0
 10
4.169141292572021
 20
75.45931243896484
 30
25.55750465393066
 70
   192
  0
VERTEX
  5
317
  8
0
 10
8.047890663146973
 20
75.48595428466797
 30
24.56178283691406
 70
   192
  0
VERTEX
  5
318
  8
0
 10
1.947774767875671
 20
78.73997497558594
 30
9.128254890441895
 70
   192
  0
VERTEX
  5
319
  8
0
 10
9.52564811706543
 20
77.50201416015625
 30
14.85786914825439
 70
   192
  0
VERTEX
  5
31A
  8
0
 10
0.0000000000098567
 20
78.7394027709961
 30
9.306497573852539
 70
   192
  0
VERTEX
  5
31B
  8
0
 10
4.775850772857666
 20
78.7724609375
 30
7.887711048126221
 70
   192
  0
VERTEX
  5
31C
  8
0
 10
7.038049697875977
 20
78.83162689208984
 30
5.628330230712891
 70
   192
  0
VERTEX
  5
31D
  8
0
 10
14.03770637512207
 20
77.6200180053711
 30
10.35143184661865
 70
   192
  0
VERTEX
  5
31E
  8
0
 10
18.04507446289062
 20
75.65860748291016
 30
18.23313903808594
 70
   192
  0
VERTEX
  5
31F
  8
0
 10
20.56425285339355
 20
75.74022674560547
 30
15.17063808441162
 70
   192
  0
VERTEX
  5
320
  8
0
 10
16.51722717285156
 20
77.76775360107422
 30
4.709701061248779
 70
   192
  0
VERTEX
  5
321
  8
0
 10
8.281200408935547
 20
78.90569305419922
 30
2.799749374389648
 70
   192
  0
VERTEX
  5
322
  8
0
 10
24.81548690795898
 20
76.01730346679688
 30
4.589851856231689
 70
   192
  0
VERTEX
  5
323
  8
0
 10
11.70468807220459
 20
75.5276107788086
 30
23.01116943359375
 70
   192
  0
VERTEX
  5
324
  8
0
 10
15.05557727813721
 20
75.58617401123047
 30
20.86344146728516
 70
   192
  0
VERTEX
  5
325
  8
0
 10
0.0000000000098294
 20
77.44481658935547
 30
17.68587875366211
 70
   192
  0
VERTEX
  5
326
  8
0
 10
-0.2215085029602051
 20
75.44976806640625
 30
25.91109657287598
 70
   192
  0
VERTEX
  5
327
  8
0
 10
22.52289581298828
 20
75.82675170898438
 30
11.86688709259033
 70
   192
  0
VERTEX
  5
328
  8
0
 10
23.94734001159668
 20
75.91973114013672
 30
8.316054344177246
 70
   192
  0
VERTEX
  5
329
  8
0
 10
2.648616075515747
 20
63.38693618774414
 30
27.06451034545898
 70
   192
  0
VERTEX
  5
32A
  8
0
 10
3.630136251449585
 20
64.19286346435547
 30
26.95691299438477
 70
   192
  0
VERTEX
  5
32B
  8
0
 10
3.532190561294556
 20
62.42151260375977
 30
90.89286041259766
 70
   192
  0
VERTEX
  5
32C
  8
0
 10
4.999886512756348
 20
67.66905975341797
 30
26.8210334777832
 70
   192
  0
VERTEX
  5
32D
  8
0
 10
5.0
 20
65.95387268066406
 30
91.04115295410156
 70
   192
  0
VERTEX
  5
32E
  8
0
 10
4.845645427703857
 20
66.40277862548828
 30
26.8058910369873
 70
   192
  0
VERTEX
  5
32F
  8
0
 10
2.495200395584106
 20
61.62724685668945
 30
90.85960388183594
 70
   192
  0
VERTEX
  5
330
  8
0
 10
1.49432373046875
 20
62.85400390625
 30
27.1491756439209
 70
   192
  0
VERTEX
  5
331
  8
0
 10
1.290655612945557
 20
61.12892532348633
 30
90.83883666992188
 70
   192
  0
VERTEX
  5
332
  8
0
 10
-0.2330837994813919
 20
62.63010406494141
 30
27.18765258789062
 70
   192
  0
VERTEX
  5
333
  8
0
 10
0.0000000000000318
 20
60.9576530456543
 30
90.83174896240234
 70
   192
  0
VERTEX
  5
334
  8
0
 10
4.325774192810059
 20
63.45378875732422
 30
90.93618774414062
 70
   192
  0
VERTEX
  5
335
  8
0
 10
4.377532482147217
 20
65.21833801269531
 30
26.86021041870117
 70
   192
  0
VERTEX
  5
336
  8
0
 10
4.8265700340271
 20
64.6575927734375
 30
90.98675537109375
 70
   192
  0
VERTEX
  5
337
  8
0
 10
4.355437278747559
 20
70.0942153930664
 30
26.72632789611816
 70
   192
  0
VERTEX
  5
338
  8
0
 10
4.333424091339111
 20
68.45339965820312
 30
91.0671615600586
 70
   192
  0
VERTEX
  5
339
  8
0
 10
4.829150676727295
 20
67.24632263183594
 30
91.05462646484375
 70
   192
  0
VERTEX
  5
33A
  8
0
 10
4.832466125488281
 20
68.92157745361328
 30
26.73721885681152
 70
   192
  0
VERTEX
  5
33B
  8
0
 10
1.451016545295715
 20
72.40324401855469
 30
26.89318084716797
 70
   192
  0
VERTEX
  5
33C
  8
0
 10
2.50199031829834
 20
70.28550720214844
 30
91.08629608154297
 70
   192
  0
VERTEX
  5
33D
  8
0
 10
2.610517740249634
 20
71.90119934082031
 30
26.83572006225586
 70
   192
  0
VERTEX
  5
33E
  8
0
 10
3.536593198776245
 20
69.49175262451172
 30
91.07795715332031
 70
   192
  0
VERTEX
  5
33F
  8
0
 10
3.600235462188721
 20
71.1071548461914
 30
26.76868438720703
 70
   192
  0
VERTEX
  5
340
  8
0
 10
0.2096100300550461
 20
72.63201904296875
 30
26.92229270935059
 70
   192
  0
VERTEX
  5
341
  8
0
 10
0.0000000000000378
 20
70.9542236328125
 30
91.09351348876953
 70
   192
  0
VERTEX
  5
342
  8
0
 10
1.296380281448364
 20
70.78495788574219
 30
91.09164428710938
 70
   192
  0
VERTEX
  5
343
  8
0
 10
-19.5195484161377
 20
76.0708236694336
 30
-15.60950756072998
 70
   192
  0
VERTEX
  5
344
  8
0
 10
-19.43705940246582
 20
58.22723007202148
 30
-16.65247535705566
 70
   192
  0
VERTEX
  5
345
  8
0
 10
-21.52811813354492
 20
56.4187126159668
 30
-14.00420188903809
 70
   192
  0
VERTEX
  5
346
  8
0
 10
-23.23099327087402
 20
54.5319938659668
 30
-11.14068508148193
 70
   192
  0
VERTEX
  5
347
  8
0
 10
-21.68742942810059
 20
75.99224090576172
 30
-12.60858535766602
 70
   192
  0
VERTEX
  5
348
  8
0
 10
-16.93949317932129
 20
76.14035034179688
 30
-18.26453399658203
 70
   192
  0
VERTEX
  5
349
  8
0
 10
-16.96728515625
 20
59.91251373291016
 30
-19.04102325439453
 70
   192
  0
VERTEX
  5
34A
  8
0
 10
-14.00186538696289
 20
76.19934844970703
 30
-20.51762771606445
 70
   192
  0
VERTEX
  5
34B
  8
0
 10
-10.96416568756104
 20
62.70775985717773
 30
-22.84512519836426
 70
   192
  0
VERTEX
  5
34C
  8
0
 10
-14.1350212097168
 20
61.42592239379883
 30
-21.12424468994141
 70
   192
  0
VERTEX
  5
34D
  8
0
 10
-10.76885318756104
 20
76.24658203125
 30
-22.32139587402344
 70
   192
  0
VERTEX
  5
34E
  8
0
 10
-7.30901050567627
 20
76.28105926513672
 30
-23.63812255859375
 70
   192
  0
VERTEX
  5
34F
  8
0
 10
-7.500439167022705
 20
63.68967056274414
 30
-24.13832473754883
 70
   192
  0
VERTEX
  5
350
  8
0
 10
-3.811873912811279
 20
64.31021881103516
 30
-24.94405937194824
 70
   192
  0
VERTEX
  5
351
  8
0
 10
-3.692487001419067
 20
76.30199432373047
 30
-24.43761444091797
 70
   192
  0
VERTEX
  5
352
  8
0
 10
-0.0000000000019188
 20
76.30908966064453
 30
-24.70857429504395
 70
   192
  0
VERTEX
  5
353
  8
0
 10
-0.0000000000019268
 20
64.5268325805664
 30
-25.22299957275391
 70
   192
  0
VERTEX
  5
354
  8
0
 10
-23.39710807800293
 20
75.9062728881836
 30
-9.325552940368652
 70
   192
  0
VERTEX
  5
355
  8
0
 10
-24.5347957611084
 20
52.60515975952148
 30
-8.1011323928833
 70
   192
  0
VERTEX
  5
356
  8
0
 10
-25.42680168151855
 20
50.6700325012207
 30
-4.920988082885742
 70
   192
  0
VERTEX
  5
357
  8
0
 10
-24.61273574829102
 20
75.81472778320312
 30
-5.829764842987061
 70
   192
  0
VERTEX
  5
358
  8
0
 10
-25.89650344848633
 20
48.75565719604492
 30
-1.637962937355042
 70
   192
  0
VERTEX
  5
359
  8
0
 10
-25.30887603759766
 20
75.71954345703125
 30
-2.194650888442993
 70
   192
  0
VERTEX
  5
35A
  8
0
 10
-25.47077751159668
 20
75.62271118164062
 30
1.503048658370972
 70
   192
  0
VERTEX
  5
35B
  8
0
 10
-25.92747497558594
 20
46.89093399047852
 30
1.704825282096863
 70
   192
  0
VERTEX
  5
35C
  8
0
 10
-25.50816535949707
 20
45.10143280029297
 30
5.061538696289062
 70
   192
  0
VERTEX
  5
35D
  8
0
 10
-25.09489631652832
 20
75.52629089355469
 30
5.185279369354248
 70
   192
  0
VERTEX
  5
35E
  8
0
 10
-25.2150764465332
 20
44.76308059692383
 30
6.369047164916992
 70
   192
  0
VERTEX
  5
35F
  8
0
 10
-25.3758430480957
 20
44.85772323608398
 30
5.696004867553711
 70
   192
  0
VERTEX
  5
360
  8
0
 10
-24.1881160736084
 20
75.43231964111328
 30
8.773907661437988
 70
   192
  0
VERTEX
  5
361
  8
0
 10
-23.64971923828125
 20
44.64704513549805
 30
10.8002758026123
 70
   192
  0
VERTEX
  5
362
  8
0
 10
-22.73417091369629
 20
75.34320068359375
 30
12.17714309692383
 70
   192
  0
VERTEX
  5
363
  8
0
 10
-21.31225204467773
 20
44.54027557373047
 30
14.87758445739746
 70
   192
  0
VERTEX
  5
364
  8
0
 10
-21.14496040344238
 20
56.23933410644531
 30
15.06675720214844
 70
   192
  0
VERTEX
  5
365
  8
0
 10
-20.97767066955566
 20
67.93839263916016
 30
15.2559289932251
 70
   192
  0
VERTEX
  5
366
  8
0
 10
-20.87298202514648
 20
75.25948333740234
 30
15.37431049346924
 70
   192
  0
VERTEX
  5
367
  8
0
 10
-20.92532539367676
 20
71.59893798828125
 30
15.31511974334717
 70
   192
  0
VERTEX
  5
368
  8
0
 10
-24.71636962890625
 20
44.98842239379883
 30
5.304348945617676
 70
   192
  0
VERTEX
  5
369
  8
0
 10
-24.72837257385254
 20
45.10143280029297
 30
5.061538696289062
 70
   192
  0
VERTEX
  5
36A
  8
0
 10
24.64925765991211
 20
44.98842239379883
 30
5.304348945617676
 70
   192
  0
VERTEX
  5
36B
  8
0
 10
25.3758430480957
 20
44.85772323608398
 30
5.696004867553711
 70
   192
  0
VERTEX
  5
36C
  8
0
 10
25.50816535949707
 20
45.10143280029297
 30
5.061538696289062
 70
   192
  0
VERTEX
  5
36D
  8
0
 10
24.69664192199707
 20
45.10143280029297
 30
5.061538696289062
 70
   192
  0
VERTEX
  5
36E
  8
0
 10
-14.19845390319824
 20
44.36333465576172
 30
21.63473892211914
 70
   192
  0
VERTEX
  5
36F
  8
0
 10
-16.20598030090332
 20
44.4007453918457
 30
20.20607757568359
 70
   192
  0
VERTEX
  5
370
  8
0
 10
21.31225204467773
 20
44.54027557373047
 30
14.87758445739746
 70
   192
  0
VERTEX
  5
371
  8
0
 10
16.21032905578613
 20
44.40076446533203
 30
20.20533752441406
 70
   192
  0
VERTEX
  5
372
  8
0
 10
23.56164932250977
 20
44.64207077026367
 30
10.99026012420654
 70
   192
  0
VERTEX
  5
373
  8
0
 10
19.7934513092041
 20
44.48933029174805
 30
16.82318687438965
 70
   192
  0
VERTEX
  5
374
  8
0
 10
18.08821105957031
 20
44.44282913208008
 30
18.5989818572998
 70
   192
  0
VERTEX
  5
375
  8
0
 10
25.2150764465332
 20
44.76308059692383
 30
6.369047164916992
 70
   192
  0
VERTEX
  5
376
  8
0
 10
14.20014953613281
 20
44.36336517333984
 30
21.63351058959961
 70
   192
  0
VERTEX
  5
377
  8
0
 10
9.841076850891113
 20
44.30328369140625
 30
23.92790412902832
 70
   192
  0
VERTEX
  5
378
  8
0
 10
12.07248878479004
 20
44.33077239990234
 30
22.87825965881348
 70
   192
  0
VERTEX
  5
379
  8
0
 10
7.517371654510498
 20
44.2812385559082
 30
24.76986694335938
 70
   192
  0
VERTEX
  5
37A
  8
0
 10
2.690937757492065
 20
44.25545501708984
 30
25.75440788269043
 70
   192
  0
VERTEX
  5
37B
  8
0
 10
5.12888765335083
 20
44.26521682739258
 30
25.38166999816895
 70
   192
  0
VERTEX
  5
37C
  8
0
 10
0.2264015525579453
 20
44.25180435180664
 30
25.89393043518066
 70
   192
  0
VERTEX
  5
37D
  8
0
 10
-9.837961196899414
 20
44.30320358276367
 30
23.93105506896973
 70
   192
  0
VERTEX
  5
37E
  8
0
 10
-2.691685438156128
 20
44.25545883178711
 30
25.75439643859863
 70
   192
  0
VERTEX
  5
37F
  8
0
 10
-5.12705659866333
 20
44.26523590087891
 30
25.38088417053223
 70
   192
  0
VERTEX
  5
380
  8
0
 10
-7.514410495758057
 20
44.28117370605469
 30
24.7723274230957
 70
   192
  0
VERTEX
  5
381
  8
0
 10
-12.06925010681152
 20
44.3306884765625
 30
22.88142776489258
 70
   192
  0
VERTEX
  5
382
  8
0
 10
-18.08248519897461
 20
44.44283294677734
 30
18.59878158569336
 70
   192
  0
VERTEX
  5
383
  8
0
 10
-19.79245948791504
 20
44.48931884765625
 30
16.82363891601562
 70
   192
  0
VERTEX
  5
384
  8
0
 10
25.92750549316406
 20
46.89128494262695
 30
1.704183459281921
 70
   192
  0
VERTEX
  5
385
  8
0
 10
-24.7332649230957
 20
45.19899368286133
 30
4.87450647354126
 70
   192
  0
VERTEX
  5
386
  8
0
 10
24.73327255249023
 20
45.19920349121094
 30
4.874103546142578
 70
   192
  0
VERTEX
  5
387
  8
0
 10
25.89213752746582
 20
48.75696182250977
 30
-1.63899827003479
 70
   192
  0
VERTEX
  5
388
  8
0
 10
25.42745018005371
 20
50.67012023925781
 30
-4.921156883239746
 70
   192
  0
VERTEX
  5
389
  8
0
 10
21.53082847595215
 20
56.41926956176758
 30
-14.00495910644531
 70
   192
  0
VERTEX
  5
38A
  8
0
 10
23.21476936340332
 20
54.53145599365234
 30
-11.13430309295654
 70
   192
  0
VERTEX
  5
38B
  8
0
 10
24.52986145019531
 20
52.60650634765625
 30
-8.101386070251465
 70
   192
  0
VERTEX
  5
38C
  8
0
 10
14.13679218292236
 20
61.42728424072266
 30
-21.12553596496582
 70
   192
  0
VERTEX
  5
38D
  8
0
 10
16.94661331176758
 20
59.90407180786133
 30
-19.02382469177246
 70
   192
  0
VERTEX
  5
38E
  8
0
 10
19.43594360351562
 20
58.2263069152832
 30
-16.64996147155762
 70
   192
  0
VERTEX
  5
38F
  8
0
 10
3.811021089553833
 20
64.31137084960938
 30
-24.9456787109375
 70
   192
  0
VERTEX
  5
390
  8
0
 10
7.50004768371582
 20
63.69013595581055
 30
-24.1386775970459
 70
   192
  0
VERTEX
  5
391
  8
0
 10
10.96529006958008
 20
62.70661926269531
 30
-22.84400367736816
 70
   192
  0
VERTEX
  5
392
  8
0
 10
3.687397241592407
 20
76.30097961425781
 30
-24.39882850646973
 70
   192
  0
VERTEX
  5
393
  8
0
 10
10.77081775665283
 20
76.24658203125
 30
-22.32159233093262
 70
   192
  0
VERTEX
  5
394
  8
0
 10
7.31006908416748
 20
76.28104400634766
 30
-23.63740730285645
 70
   192
  0
VERTEX
  5
395
  8
0
 10
21.68765830993652
 20
75.99223327636719
 30
-12.60824966430664
 70
   192
  0
VERTEX
  5
396
  8
0
 10
19.52034950256348
 20
76.07080078125
 30
-15.60879421234131
 70
   192
  0
VERTEX
  5
397
  8
0
 10
14.00375461578369
 20
76.1993408203125
 30
-20.51734924316406
 70
   192
  0
VERTEX
  5
398
  8
0
 10
25.30861663818359
 20
75.7195053100586
 30
-2.19310474395752
 70
   192
  0
VERTEX
  5
399
  8
0
 10
25.46992301940918
 20
75.62267303466797
 30
1.504755735397339
 70
   192
  0
VERTEX
  5
39A
  8
0
 10
24.61286163330078
 20
75.81470489501953
 30
-5.828699588775635
 70
   192
  0
VERTEX
  5
39B
  8
0
 10
25.0936107635498
 20
75.52625274658203
 30
5.186775684356689
 70
   192
  0
VERTEX
  5
39C
  8
0
 10
24.18809509277344
 20
75.43228912353516
 30
8.775184631347656
 70
   192
  0
VERTEX
  5
39D
  8
0
 10
22.76887130737305
 20
75.34272766113281
 30
12.19522190093994
 70
   192
  0
VERTEX
  5
39E
  8
0
 10
21.14496040344238
 20
56.23933410644531
 30
15.06675720214844
 70
   192
  0
VERTEX
  5
39F
  8
0
 10
20.92532539367676
 20
71.59893798828125
 30
15.31511974334717
 70
   192
  0
VERTEX
  5
3A0
  8
0
 10
20.97767066955566
 20
67.93839263916016
 30
15.2559289932251
 70
   192
  0
VERTEX
  5
3A1
  8
0
 10
20.87298202514648
 20
75.25948333740234
 30
15.37431049346924
 70
   192
  0
VERTEX
  5
3A2
  8
0
 10
23.39725112915039
 20
75.90625762939453
 30
-9.325172424316406
 70
   192
  0
VERTEX
  5
3A3
  8
0
 10
16.94090843200684
 20
76.14032745361328
 30
-18.26385879516602
 70
   192
  0
VERTEX
  5
3A4
  8
0
 10
24.21603393554688
 20
75.74458312988281
 30
8.335537910461426
 70
   192
  0
VERTEX
  5
3A5
  8
0
 10
22.70102691650391
 20
75.64608001708984
 30
12.09728908538818
 70
   192
  0
VERTEX
  5
3A6
  8
0
 10
25.1546688079834
 20
75.85563659667969
 30
4.0946946144104
 70
   192
  0
VERTEX
  5
3A7
  8
0
 10
20.78520393371582
 20
75.5616683959961
 30
15.32073974609375
 70
   192
  0
VERTEX
  5
3A8
  8
0
 10
24.65542984008789
 20
76.0993881225586
 30
-5.213786602020264
 70
   192
  0
VERTEX
  5
3A9
  8
0
 10
20.57655334472656
 20
76.3313217163086
 30
-14.07103443145752
 70
   192
  0
VERTEX
  5
3AA
  8
0
 10
23.04997253417969
 20
76.22032928466797
 30
-9.8325777053833
 70
   192
  0
VERTEX
  5
3AB
  8
0
 10
17.37720680236816
 20
76.42667388916016
 30
-17.71248817443848
 70
   192
  0
VERTEX
  5
3AC
  8
0
 10
13.67506885528564
 20
76.502197265625
 30
-20.59658050537109
 70
   192
  0
VERTEX
  5
3AD
  8
0
 10
5.701773166656494
 20
76.58989715576172
 30
-23.9455509185791
 70
   192
  0
VERTEX
  5
3AE
  8
0
 10
9.710941314697266
 20
76.55638122558594
 30
-22.66586875915527
 70
   192
  0
VERTEX
  5
3AF
  8
0
 10
-5.700465202331543
 20
76.58987426757812
 30
-23.94480133056641
 70
   192
  0
VERTEX
  5
3B0
  8
0
 10
-1.854054808616638
 20
76.60508728027344
 30
-24.52567481994629
 70
   192
  0
VERTEX
  5
3B1
  8
0
 10
-13.66651821136475
 20
76.502197265625
 30
-20.5964469909668
 70
   192
  0
VERTEX
  5
3B2
  8
0
 10
-17.37240791320801
 20
76.42675018310547
 30
-17.71527862548828
 70
   192
  0
VERTEX
  5
3B3
  8
0
 10
-20.56720924377441
 20
76.33157348632812
 30
-14.08079719543457
 70
   192
  0
VERTEX
  5
3B4
  8
0
 10
-23.04657745361328
 20
76.22050476074219
 30
-9.839096069335938
 70
   192
  0
VERTEX
  5
3B5
  8
0
 10
-25.34428596496582
 20
75.97589111328125
 30
-0.4976726472377777
 70
   192
  0
VERTEX
  5
3B6
  8
0
 10
-24.6561336517334
 20
76.09960174560547
 30
-5.222165107727051
 70
   192
  0
VERTEX
  5
3B7
  8
0
 10
-25.15669250488281
 20
75.85570526123047
 30
4.091899871826172
 70
   192
  0
VERTEX
  5
3B8
  8
0
 10
-24.81540298461914
 20
76.0174560546875
 30
4.584025859832764
 70
   192
  0
VERTEX
  5
3B9
  8
0
 10
-23.94720268249512
 20
75.91974639892578
 30
8.31548023223877
 70
   192
  0
VERTEX
  5
3BA
  8
0
 10
-24.22319602966309
 20
75.74467468261719
 30
8.332169532775879
 70
   192
  0
VERTEX
  5
3BB
  8
0
 10
-22.7089786529541
 20
75.64612579345703
 30
12.09563541412354
 70
   192
  0
VERTEX
  5
3BC
  8
0
 10
-22.52337837219238
 20
75.8268051147461
 30
11.8646879196167
 70
   192
  0
VERTEX
  5
3BD
  8
0
 10
-20.56413269042969
 20
75.74022674560547
 30
15.17055511474609
 70
   192
  0
VERTEX
  5
3BE
  8
0
 10
-20.78520584106445
 20
75.5616683959961
 30
15.32073974609375
 70
   192
  0
VERTEX
  5
3BF
  8
0
 10
-9.700958251953125
 20
76.55631256103516
 30
-22.6630687713623
 70
   192
  0
VERTEX
  5
3C0
  8
0
 10
1.839760541915894
 20
76.60518646240234
 30
-24.52942657470703
 70
   192
  0
VERTEX
  5
3C1
  8
0
 10
25.3399486541748
 20
75.9755859375
 30
-0.4861229658126831
 70
   192
  0
VERTEX
  5
3C2
  8
0
 10
-0.2367247641086578
 20
62.49560165405273
 30
26.83387565612793
 70
   192
  0
VERTEX
  5
3C3
  8
0
 10
-2.09506893157959
 20
62.95003509521484
 30
26.77255439758301
 70
   192
  0
VERTEX
  5
3C4
  8
0
 10
-4.732411861419678
 20
65.77454376220703
 30
26.54091644287109
 70
   192
  0
VERTEX
  5
3C5
  8
0
 10
-3.685868978500366
 20
64.10118103027344
 30
26.6458625793457
 70
   192
  0
VERTEX
  5
3C6
  8
0
 10
-3.639735221862793
 20
64.20707702636719
 30
26.95488548278809
 70
   192
  0
VERTEX
  5
3C7
  8
0
 10
-2.089881658554077
 20
63.08874893188477
 30
27.11036109924316
 70
   192
  0
VERTEX
  5
3C8
  8
0
 10
-5.393498420715332
 20
67.66098022460938
 30
26.33171844482422
 70
   192
  0
VERTEX
  5
3C9
  8
0
 10
-5.007708549499512
 20
65.60842895507812
 30
26.33090972900391
 70
   192
  0
VERTEX
  5
3CA
  8
0
 10
-2.215773105621338
 20
62.63237762451172
 30
26.60394477844238
 70
   192
  0
VERTEX
  5
3CB
  8
0
 10
-3.890078067779541
 20
63.83908081054688
 30
26.45654487609863
 70
   192
  0
VERTEX
  5
3CC
  8
0
 10
-4.999887466430664
 20
67.66905975341797
 30
26.8210334777832
 70
   192
  0
VERTEX
  5
3CD
  8
0
 10
-5.110421180725098
 20
67.6628646850586
 30
26.50703239440918
 70
   192
  0
VERTEX
  5
3CE
  8
0
 10
-4.650993824005127
 20
65.80050659179688
 30
26.82394981384277
 70
   192
  0
VERTEX
  5
3CF
  8
0
 10
4.160847663879395
 20
67.66206359863281
 30
91.55607604980469
 70
   192
  0
VERTEX
  5
3D0
  8
0
 10
3.185216426849365
 20
69.12867736816406
 30
91.56887817382812
 70
   192
  0
VERTEX
  5
3D1
  8
0
 10
1.726846575737
 20
70.1045150756836
 30
91.577392578125
 70
   192
  0
VERTEX
  5
3D2
  8
0
 10
4.499935150146484
 20
65.9407958984375
 30
91.54105377197266
 70
   192
  0
VERTEX
  5
3D3
  8
0
 10
0.0000000491345631
 20
70.45003509521484
 30
91.58040618896484
 70
   192
  0
VERTEX
  5
3D4
  8
0
 10
-1.720468282699585
 20
70.10710144042969
 30
91.5774154663086
 70
   192
  0
VERTEX
  5
3D5
  8
0
 10
-3.185218334197998
 20
69.12867736816406
 30
91.56887817382812
 70
   192
  0
VERTEX
  5
3D6
  8
0
 10
-4.158311367034912
 20
67.66840362548828
 30
91.5561294555664
 70
   192
  0
VERTEX
  5
3D7
  8
0
 10
-4.499935150146484
 20
65.9407958984375
 30
91.54105377197266
 70
   192
  0
VERTEX
  5
3D8
  8
0
 10
-18.30552101135254
 20
75.18397521972656
 30
18.49123191833496
 70
   192
  0
VERTEX
  5
3D9
  8
0
 10
-8.134698867797852
 20
75.30404663085938
 30
24.83211898803711
 70
   192
  0
VERTEX
  5
3DA
  8
0
 10
-8.072123527526855
 20
75.48560333251953
 30
24.57347679138184
 70
   192
  0
VERTEX
  5
3DB
  8
0
 10
-11.71859645843506
 20
75.52778625488281
 30
23.00431060791016
 70
   192
  0
VERTEX
  5
3DC
  8
0
 10
-18.23043632507324
 20
75.47913360595703
 30
18.42208480834961
 70
   192
  0
VERTEX
  5
3DD
  8
0
 10
-15.22349262237549
 20
75.40559387207031
 30
21.08845138549805
 70
   192
  0
VERTEX
  5
3DE
  8
0
 10
-18.04806709289551
 20
75.65873718261719
 30
18.23020935058594
 70
   192
  0
VERTEX
  5
3DF
  8
0
 10
-4.233346939086914
 20
75.27774047851562
 30
25.81620597839355
 70
   192
  0
VERTEX
  5
3E0
  8
0
 10
-15.28416156768799
 20
75.12874603271484
 30
21.1692066192627
 70
   192
  0
VERTEX
  5
3E1
  8
0
 10
0.2247769832611084
 20
75.0129623413086
 30
26.26857757568359
 70
   192
  0
VERTEX
  5
3E2
  8
0
 10
-0.2237127870321274
 20
75.28897857666016
 30
26.15497970581055
 70
   192
  0
VERTEX
  5
3E3
  8
0
 10
-4.190314292907715
 20
75.45967864990234
 30
25.54240417480469
 70
   192
  0
VERTEX
  5
3E4
  8
0
 10
-11.82949161529541
 20
75.34678649902344
 30
23.24339866638184
 70
   192
  0
VERTEX
  5
3E5
  8
0
 10
-15.05844306945801
 20
75.58615112304688
 30
20.86423110961914
 70
   192
  0
VERTEX
  5
3E6
  8
0
 10
-11.87559986114502
 20
75.08175659179688
 30
23.33353042602539
 70
   192
  0
VERTEX
  5
3E7
  8
0
 10
-8.164545059204102
 20
75.04499816894531
 30
24.92764472961426
 70
   192
  0
VERTEX
  5
3E8
  8
0
 10
-4.247655391693115
 20
75.02152252197266
 30
25.91550445556641
 70
   192
  0
VERTEX
  5
3E9
  8
0
 10
2.196660041809082
 20
72.61560821533203
 30
26.38449096679688
 70
   192
  0
VERTEX
  5
3EA
  8
0
 10
-0.2462218105792999
 20
73.08509063720703
 30
26.43720817565918
 70
   192
  0
VERTEX
  5
3EB
  8
0
 10
0.213531106710434
 20
72.76573944091797
 30
26.59287261962891
 70
   192
  0
VERTEX
  5
3EC
  8
0
 10
3.666130304336548
 20
71.1947021484375
 30
26.47024154663086
 70
   192
  0
VERTEX
  5
3ED
  8
0
 10
3.864808559417725
 20
71.431884765625
 30
26.2874698638916
 70
   192
  0
VERTEX
  5
3EE
  8
0
 10
2.068776845932007
 20
72.32625579833984
 30
26.54972076416016
 70
   192
  0
VERTEX
  5
3EF
  8
0
 10
5.393498420715332
 20
67.66098022460938
 30
26.33171844482422
 70
   192
  0
VERTEX
  5
3F0
  8
0
 10
4.984131813049316
 20
69.69915771484375
 30
26.24020195007324
 70
   192
  0
VERTEX
  5
3F1
  8
0
 10
4.726407527923584
 20
69.53793334960938
 30
26.4380989074707
 70
   192
  0
VERTEX
  5
3F2
  8
0
 10
5.110417366027832
 20
67.6628646850586
 30
26.50702857971191
 70
   192
  0
VERTEX
  5
3F3
  8
0
 10
4.501352787017822
 20
64.12712097167969
 30
91.3157958984375
 70
   192
  0
VERTEX
  5
3F4
  8
0
 10
4.158311367034912
 20
64.21476745605469
 30
91.4656982421875
 70
   192
  0
VERTEX
  5
3F5
  8
0
 10
0.0000000000081264
 20
61.09236907958984
 30
91.18632507324219
 70
   192
  0
VERTEX
  5
3F6
  8
0
 10
1.877832174301147
 20
61.46870803833008
 30
91.1997299194336
 70
   192
  0
VERTEX
  5
3F7
  8
0
 10
3.45750093460083
 20
62.53736114501953
 30
91.24639129638672
 70
   192
  0
VERTEX
  5
3F8
  8
0
 10
1.720468282699585
 20
61.77828979492188
 30
91.35931396484375
 70
   192
  0
VERTEX
  5
3F9
  8
0
 10
-0.0000000480080615
 20
61.43567276000977
 30
91.3443603515625
 70
   192
  0
VERTEX
  5
3FA
  8
0
 10
3.185218334197998
 20
62.75582122802734
 30
91.4020004272461
 70
   192
  0
VERTEX
  5
3FB
  8
0
 10
4.807586669921875
 20
65.9437026977539
 30
91.43527221679688
 70
   192
  0
VERTEX
  5
3FC
  8
0
 10
-16.99868965148926
 20
56.1752815246582
 30
19.91742515563965
 70
   192
  0
VERTEX
  5
3FD
  8
0
 10
-19.23369979858398
 20
56.24135208129883
 30
17.55351638793945
 70
   192
  0
VERTEX
  5
3FE
  8
0
 10
-3.737161636352539
 20
55.93783950805664
 30
26.15915298461914
 70
   192
  0
VERTEX
  5
3FF
  8
0
 10
-7.368405818939209
 20
55.98691177368164
 30
25.38173484802246
 70
   192
  0
VERTEX
  5
400
  8
0
 10
-8.535895347595215
 20
67.65796661376953
 30
25.42658805847168
 70
   192
  0
VERTEX
  5
401
  8
0
 10
-11.52620983123779
 20
67.7004165649414
 30
24.10974502563477
 70
   192
  0
VERTEX
  5
402
  8
0
 10
-14.27197170257568
 20
56.10901260375977
 30
22.07331275939941
 70
   192
  0
VERTEX
  5
403
  8
0
 10
-10.96895122528076
 20
56.04437255859375
 30
23.98427391052246
 70
   192
  0
VERTEX
  5
404
  8
0
 10
-16.79697227478027
 20
67.78031921386719
 30
20.27582931518555
 70
   192
  0
VERTEX
  5
405
  8
0
 10
-14.30199813842773
 20
67.7488021850586
 30
22.38777351379395
 70
   192
  0
VERTEX
  5
406
  8
0
 10
-18.98662757873535
 20
67.84944152832031
 30
17.8474235534668
 70
   192
  0
VERTEX
  5
407
  8
0
 10
-1.91368043422699
 20
61.33578491210938
 30
90.8474349975586
 70
   192
  0
VERTEX
  5
408
  8
0
 10
-5.0
 20
65.95389556884766
 30
91.0411605834961
 70
   192
  0
VERTEX
  5
409
  8
0
 10
-4.621562004089355
 20
64.04100799560547
 30
90.96086883544922
 70
   192
  0
VERTEX
  5
40A
  8
0
 10
-3.536593198776245
 20
62.41893768310547
 30
90.89275360107422
 70
   192
  0
VERTEX
  5
40B
  8
0
 10
-4.630853652954102
 20
69.52372741699219
 30
26.72473335266113
 70
   192
  0
VERTEX
  5
40C
  8
0
 10
-4.616420745849609
 20
67.8682632446289
 30
91.06108093261719
 70
   192
  0
VERTEX
  5
40D
  8
0
 10
-3.594223499298096
 20
71.09666442871094
 30
26.77038764953613
 70
   192
  0
VERTEX
  5
40E
  8
0
 10
-1.911232590675354
 20
70.57225799560547
 30
91.08935546875
 70
   192
  0
VERTEX
  5
40F
  8
0
 10
-2.05728816986084
 20
72.19194030761719
 30
26.86763381958008
 70
   192
  0
VERTEX
  5
410
  8
0
 10
-3.532190561294556
 20
69.48917388916016
 30
91.07793426513672
 70
   192
  0
VERTEX
  5
411
  8
0
 10
-14.04028797149658
 20
77.62023162841797
 30
10.34450149536133
 70
   192
  0
VERTEX
  5
412
  8
0
 10
-4.779214859008789
 20
78.77250671386719
 30
7.886251926422119
 70
   192
  0
VERTEX
  5
413
  8
0
 10
-1.949697852134705
 20
78.7399673461914
 30
9.128962516784668
 70
   192
  0
VERTEX
  5
414
  8
0
 10
-16.51542854309082
 20
77.76789093017578
 30
4.705776214599609
 70
   192
  0
VERTEX
  5
415
  8
0
 10
-8.280298233032227
 20
78.90575408935547
 30
2.797781467437744
 70
   192
  0
VERTEX
  5
416
  8
0
 10
-9.53235912322998
 20
77.50212097167969
 30
14.85496044158936
 70
   192
  0
VERTEX
  5
417
  8
0
 10
-3.888760089874268
 20
77.43721771240234
 30
17.33360290527344
 70
   192
  0
VERTEX
  5
418
  8
0
 10
-7.03934383392334
 20
78.83172607421875
 30
5.624855041503906
 70
   192
  0
VERTEX
  5
419
  8
0
 10
4.109445571899414
 20
75.27720642089844
 30
25.83699035644531
 70
   192
  0
VERTEX
  5
41A
  8
0
 10
4.248177051544189
 20
75.02166748046875
 30
25.91042327880859
 70
   192
  0
VERTEX
  5
41B
  8
0
 10
15.17903804779053
 20
75.4046401977539
 30
21.12184715270996
 70
   192
  0
VERTEX
  5
41C
  8
0
 10
8.164628982543945
 20
75.04511260986328
 30
24.9240608215332
 70
   192
  0
VERTEX
  5
41D
  8
0
 10
8.03609561920166
 20
75.30316925048828
 30
24.86541557312012
 70
   192
  0
VERTEX
  5
41E
  8
0
 10
18.21100425720215
 20
75.47835540771484
 30
18.44307518005371
 70
   192
  0
VERTEX
  5
41F
  8
0
 10
11.75796127319336
 20
75.34584045410156
 30
23.28075790405273
 70
   192
  0
VERTEX
  5
420
  8
0
 10
11.87397193908691
 20
75.08186340332031
 30
23.32982635498047
 70
   192
  0
VERTEX
  5
421
  8
0
 10
15.28445434570312
 20
75.1286849975586
 30
21.16759872436523
 70
   192
  0
VERTEX
  5
422
  8
0
 10
18.30545616149902
 20
75.18368530273438
 30
18.49057388305664
 70
   192
  0
VERTEX
  5
423
  8
0
 10
19.23368835449219
 20
56.24151992797852
 30
17.55352783203125
 70
   192
  0
VERTEX
  5
424
  8
0
 10
7.368398666381836
 20
55.98707962036133
 30
25.38174247741699
 70
   192
  0
VERTEX
  5
425
  8
0
 10
16.99867057800293
 20
56.17544555664062
 30
19.91744422912598
 70
   192
  0
VERTEX
  5
426
  8
0
 10
18.98648452758789
 20
67.84960174560547
 30
17.84743499755859
 70
   192
  0
VERTEX
  5
427
  8
0
 10
3.737158060073853
 20
55.93800735473633
 30
26.15916061401367
 70
   192
  0
VERTEX
  5
428
  8
0
 10
14.27195358276367
 20
56.10918045043945
 30
22.07332992553711
 70
   192
  0
VERTEX
  5
429
  8
0
 10
0.2277668118476868
 20
53.20148468017578
 30
26.28470993041992
 70
   192
  0
VERTEX
  5
42A
  8
0
 10
5.010243892669678
 20
65.6153335571289
 30
26.33062171936035
 70
   192
  0
VERTEX
  5
42B
  8
0
 10
2.24767804145813
 20
62.64723205566406
 30
26.60186958312988
 70
   192
  0
VERTEX
  5
42C
  8
0
 10
10.96893882751465
 20
56.04453659057617
 30
23.98428726196289
 70
   192
  0
VERTEX
  5
42D
  8
0
 10
16.79173851013184
 20
67.78047180175781
 30
20.2710132598877
 70
   192
  0
VERTEX
  5
42E
  8
0
 10
14.30602645874023
 20
67.74925994873047
 30
22.39184188842773
 70
   192
  0
VERTEX
  5
42F
  8
0
 10
11.52219867706299
 20
67.70024108886719
 30
24.10373115539551
 70
   192
  0
VERTEX
  5
430
  8
0
 10
8.536516189575195
 20
67.65786743164062
 30
25.42904281616211
 70
   192
  0
VERTEX
  5
431
  8
0
 10
3.910695552825928
 20
63.86126708984375
 30
26.45434951782227
 70
   192
  0
VERTEX
  5
432
  8
0
 10
-4.501352787017822
 20
67.7637710571289
 30
91.41102600097656
 70
   192
  0
VERTEX
  5
433
  8
0
 10
-1.877832174301147
 20
70.42461395263672
 30
91.43424987792969
 70
   192
  0
VERTEX
  5
434
  8
0
 10
-3.45750093460083
 20
69.35498809814453
 30
91.42491149902344
 70
   192
  0
VERTEX
  5
435
  8
0
 10
0.0000000025708169
 20
70.80113983154297
 30
91.44055938720703
 70
   192
  0
VERTEX
  5
436
  8
0
 10
-4.807586669921875
 20
65.94342041015625
 30
91.43526458740234
 70
   192
  0
VERTEX
  5
437
  8
0
 10
-4.495011806488037
 20
64.11441040039062
 30
91.31523895263672
 70
   192
  0
VERTEX
  5
438
  8
0
 10
-3.444188833236694
 20
62.52389144897461
 30
91.24579620361328
 70
   192
  0
VERTEX
  5
439
  8
0
 10
-1.865278482437134
 20
61.4621696472168
 30
91.1994400024414
 70
   192
  0
VERTEX
  5
43A
  8
0
 10
-1.726846575737
 20
61.78087615966797
 30
91.35942840576172
 70
   192
  0
VERTEX
  5
43B
  8
0
 10
-4.160847663879395
 20
64.22109985351562
 30
91.46597290039062
 70
   192
  0
VERTEX
  5
43C
  8
0
 10
-3.185216426849365
 20
62.75582504272461
 30
91.4020004272461
 70
   192
  0
VERTEX
  5
43D
  8
0
 10
4.738422393798828
 20
65.7872314453125
 30
26.53695678710938
 70
   192
  0
VERTEX
  5
43E
  8
0
 10
3.69817852973938
 20
64.114990234375
 30
26.63941955566406
 70
   192
  0
VERTEX
  5
43F
  8
0
 10
2.107160091400146
 20
62.95735168457031
 30
26.7686767578125
 70
   192
  0
VERTEX
  5
440
  8
0
 10
4.495011806488037
 20
67.7764892578125
 30
91.4111328125
 70
   192
  0
VERTEX
  5
441
  8
0
 10
3.444188833236694
 20
69.36846160888672
 30
91.4250259399414
 70
   192
  0
VERTEX
  5
442
  8
0
 10
1.865278482437134
 20
70.43115997314453
 30
91.4343032836914
 70
   192
  0
VERTEX
  5
443
  8
0
 10
-4.983651638031006
 20
69.7003402709961
 30
26.24019432067871
 70
   192
  0
VERTEX
  5
444
  8
0
 10
-4.73320484161377
 20
69.52269744873047
 30
26.4349365234375
 70
   192
  0
VERTEX
  5
445
  8
0
 10
-3.682425975799561
 20
71.17721557617188
 30
26.464111328125
 70
   192
  0
VERTEX
  5
446
  8
0
 10
-3.863081932067871
 20
71.4336929321289
 30
26.28757858276367
 70
   192
  0
VERTEX
  5
447
  8
0
 10
-2.199607610702515
 20
72.61427307128906
 30
26.38435173034668
 70
   192
  0
VERTEX
  5
448
  8
0
 10
-2.088269233703613
 20
72.31610107421875
 30
26.54558753967285
 70
   192
  0
VERTEX
  5
449
  8
0
 10
15.40106010437012
 20
71.44731140136719
 30
21.30077743530273
 70
   192
  0
VERTEX
  5
44A
  8
0
 10
18.36539268493652
 20
71.52070617675781
 30
18.49800109863281
 70
   192
  0
VERTEX
  5
44B
  8
0
 10
12.00128650665283
 20
71.38814544677734
 30
23.56018829345703
 70
   192
  0
VERTEX
  5
44C
  8
0
 10
8.262020111083984
 20
71.344970703125
 30
25.20912742614746
 70
   192
  0
VERTEX
  5
44D
  8
0
 10
-11.99197006225586
 20
71.38805389404297
 30
23.56242942810059
 70
   192
  0
VERTEX
  5
44E
  8
0
 10
-8.254244804382324
 20
71.34489440917969
 30
25.21075439453125
 70
   192
  0
VERTEX
  5
44F
  8
0
 10
-18.36818885803223
 20
71.52046203613281
 30
18.50610733032227
 70
   192
  0
VERTEX
  5
450
  8
0
 10
-15.3958215713501
 20
71.44710540771484
 30
21.30738830566406
 70
   192
  0
VERTEX
  5
451
  8
0
 62
     9
 10
0.0
 20
0.0
 30
0.0
 70
   128
 71
     3
 72
     2
 73
     1
  0
VERTEX
  5
452
  8
0
 62
     9
 10
0.0
 20
0.0
 30
0.0
 70
   128
 71
     4
 72
     3
 73
     1
  0
VERTEX
  5
453
  8
0
 62
     9
 10
0.0
 20
0.0
 30
0.0
 70
   128
 71
     7
 72
     6
 73
     5
  0
VERTEX
  5
454
  8
0
 62
     9
 10
0.0
 20
0.0
 30
0.0
 70
   128
 71
     9
 72
     7
 73
     8
  0
VERTEX
  5
455
  8
0
 62
     9
 10
0.0
 20
0.0
 30
0.0
 70
   128
 71
     9
 72
    10
 73
     7
  0
VERTEX
  5
456
  8
0
 62
     9
 10
0.0
 20
0.0
 30
0.0
 70
   128
 71
     5
 72
     8
 73
     7
  0
VERTEX
  5
457
  8
0
 62
     9
 10
0.0
 20
0.0
 30
0.0
 70
   128
 71
    13
 72
    12
 73
    11
  0
VERTEX
  5
458
  8
0
 62
     9
 10
0.0
 20
0.0
 30
0.0
 70
   128
 71
    16
 72
    15
 73
    14
  0
VERTEX
  5
459
  8
0
 62
     9
 10
0.0
 20
0.0
 30
0.0
 70
   128
 71
    17
 72
    16
 73
    14
  0
VERTEX
  5
45A
  8
0
 62
     9
 10
0.0
 20
0.0
 30
0.0
 70
   128
 71
    14
 72
    12
 73
    13
  0
VERTEX
  5
45B
  8
0
 62
     9
 10
0.0
 20
0.0
 30
0.0
 70
   128
 71
    14
 72
    13
 73
    18
  0
VERTEX
  5
45C
  8
0
 62
     9
 10
0.0
 20
0.0
 30
0.0
 70
   128
 71
    18
 72
    19
 73
    14
  0
VERTEX
  5
45D
  8
0
 62
     9
 10
0.0
 20
0.0
 30
0.0
 70
   128
 71
    21
 72
     9
 73
    20
  0
VERTEX
  5
45E
  8
0
 62
     9
 10
0.0
 20
0.0
 30
0.0
 70
   128
 71
    17
 72
    23
 73
    22
  0
VERTEX
  5
45F
  8
0
 62
     9
 10
0.0
 20
0.0
 30
0.0
 70
   128
 71
    10
 72
     9
 73
    21
  0
VERTEX
  5
460
  8
0
 62
     9
 10
0.0
 20
0.0
 30
0.0
 70
   128
 71
    25
 72
    24
 73
    10
  0
VERTEX
  5
461
  8
0
 62
     9
 10
0.0
 20
0.0
 30
0.0
 70
   128
 71
    10
 72
    21
 73
    25
  0
VERTEX
  5
462
  8
0
 62
     9
 10
0.0
 20
0.0
 30
0.0
 70
   128
 71
    27
 72
    24
 73
    26
  0
VERTEX
  5
463
  8
0
 62
     9
 10
0.0
 20
0.0
 30
0.0
 70
   128
 71
     6
 72
    10
 73
    27
  0
VERTEX
  5
464
  8
0
 62
     9
 10
0.0
 20
0.0
 30
0.0
 70
   128
 71
    17
 72
     8
 73
    16
  0
VERTEX
  5
465
  8
0
 62
     9
 10
0.0
 20
0.0
 30
0.0
 70
   128
 71
     5
 72
    16
 73
     8
  0
VERTEX
  5
466
  8
0
 62
     9
 10
0.0
 20
0.0
 30
0.0
 70
   128
 71
     9
 72
     8
 73
    17
  0
VERTEX
  5
467
  8
0
 62
     9
 10
0.0
 20
0.0
 30
0.0
 70
   128
 71
    12
 72
    15
 73
    28
  0
VERTEX
  5
468
  8
0
 62
     9
 10
0.0
 20
0.0
 30
0.0
 70
   128
 71
    15
 72
     5
 73
    28
  0
VERTEX
  5
469
  8
0
 62
     9
 10
0.0
 20
0.0
 30
0.0
 70
   128
 71
    15
 72
    16
 73
     5
  0
VERTEX
  5
46A
  8
0
 62
     9
 10
0.0
 20
0.0
 30
0.0
 70
   128
 71
     7
 72
    10
 73
     6
  0
VERTEX
  5
46B
  8
0
 62
     9
 10
0.0
 20
0.0
 30
0.0
 70
   128
 71
    24
 72
    27
 73
    10
  0
VERTEX
  5
46C
  8
0
 62
     9
 10
0.0
 20
0.0
 30
0.0
 70
   128
 71
     9
 72
    29
 73
    20
  0
VERTEX
  5
46D
  8
0
 62
     9
 10
0.0
 20
0.0
 30
0.0
 70
   128
 71
    29
 72
     9
 73
    22
  0
VERTEX
  5
46E
  8
0
 62
     9
 10
0.0
 20
0.0
 30
0.0
 70
   128
 71
     9
 72
    17
 73
    22
  0
VERTEX
  5
46F
  8
0
 62
     9
 10
0.0
 20
0.0
 30
0.0
 70
   128
 71
    23
 72
    17
 73
    19
  0
VERTEX
  5
470
  8
0
 62
     9
 10
0.0
 20
0.0
 30
0.0
 70
   128
 71
    19
 72
    17
 73
    14
  0
VERTEX
  5
471
  8
0
 62
     9
 10
0.0
 20
0.0
 30
0.0
 70
   128
 71
    14
 72
    15
 73
    12
  0
VERTEX
  5
472
  8
0
 62
     9
 10
0.0
 20
0.0
 30
0.0
 70
   128
 71
    31
 72
    30
 73
     5
  0
VERTEX
  5
473
  8
0
 62
     9
 10
0.0
 20
0.0
 30
0.0
 70
   128
 71
    33
 72
    31
 73
    32
  0
VERTEX
  5
474
  8
0
 62
     9
 10
0.0
 20
0.0
 30
0.0
 70
   128
 71
    33
 72
    34
 73
    31
  0
VERTEX
  5
475
  8
0
 62
     9
 10
0.0
 20
0.0
 30
0.0
 70
   128
 71
     5
 72
    32
 73
    31
  0
VERTEX
  5
476
  8
0
 62
     9
 10
0.0
 20
0.0
 30
0.0
 70
   128
 71
    35
 72
    27
 73
    26
  0
VERTEX
  5
477
  8
0
 62
     9
 10
0.0
 20
0.0
 30
0.0
 70
   128
 71
    38
 72
    37
 73
    36
  0
VERTEX
  5
478
  8
0
 62
     9
 10
0.0
 20
0.0
 30
0.0
 70
   128
 71
    39
 72
    38
 73
    36
  0
VERTEX
  5
479
  8
0
 62
     9
 10
0.0
 20
0.0
 30
0.0
 70
   128
 71
    36
 72
    27
 73
    35
  0
VERTEX
  5
47A
  8
0
 62
     9
 10
0.0
 20
0.0
 30
0.0
 70
   128
 71
    36
 72
    35
 73
    40
  0
VERTEX
  5
47B
  8
0
 62
     9
 10
0.0
 20
0.0
 30
0.0
 70
   128
 71
    40
 72
    41
 73
    36
  0
VERTEX
  5
47C
  8
0
 62
     9
 10
0.0
 20
0.0
 30
0.0
 70
   128
 71
    43
 72
    33
 73
    42
  0
VERTEX
  5
47D
  8
0
 62
     9
 10
0.0
 20
0.0
 30
0.0
 70
   128
 71
    39
 72
    45
 73
    44
  0
VERTEX
  5
47E
  8
0
 62
     9
 10
0.0
 20
0.0
 30
0.0
 70
   128
 71
    34
 72
    33
 73
    43
  0
VERTEX
  5
47F
  8
0
 62
     9
 10
0.0
 20
0.0
 30
0.0
 70
   128
 71
    47
 72
    46
 73
    34
  0
VERTEX
  5
480
  8
0
 62
     9
 10
0.0
 20
0.0
 30
0.0
 70
   128
 71
    34
 72
    43
 73
    47
  0
VERTEX
  5
481
  8
0
 62
     9
 10
0.0
 20
0.0
 30
0.0
 70
   128
 71
    49
 72
    46
 73
    48
  0
VERTEX
  5
482
  8
0
 62
     9
 10
0.0
 20
0.0
 30
0.0
 70
   128
 71
    30
 72
    34
 73
    49
  0
VERTEX
  5
483
  8
0
 62
     9
 10
0.0
 20
0.0
 30
0.0
 70
   128
 71
    39
 72
    32
 73
    38
  0
VERTEX
  5
484
  8
0
 62
     9
 10
0.0
 20
0.0
 30
0.0
 70
   128
 71
     5
 72
    38
 73
    32
  0
VERTEX
  5
485
  8
0
 62
     9
 10
0.0
 20
0.0
 30
0.0
 70
   128
 71
    33
 72
    32
 73
    39
  0
VERTEX
  5
486
  8
0
 62
     9
 10
0.0
 20
0.0
 30
0.0
 70
   128
 71
    27
 72
    37
 73
     6
  0
VERTEX
  5
487
  8
0
 62
     9
 10
0.0
 20
0.0
 30
0.0
 70
   128
 71
    37
 72
     5
 73
     6
  0
VERTEX
  5
488
  8
0
 62
     9
 10
0.0
 20
0.0
 30
0.0
 70
   128
 71
    37
 72
    38
 73
     5
  0
VERTEX
  5
489
  8
0
 62
     9
 10
0.0
 20
0.0
 30
0.0
 70
   128
 71
    31
 72
    34
 73
    30
  0
VERTEX
  5
48A
  8
0
 62
     9
 10
0.0
 20
0.0
 30
0.0
 70
   128
 71
    46
 72
    49
 73
    34
  0
VERTEX
  5
48B
  8
0
 62
     9
 10
0.0
 20
0.0
 30
0.0
 70
   128
 71
    33
 72
    50
 73
    42
  0
VERTEX
  5
48C
  8
0
 62
     9
 10
0.0
 20
0.0
 30
0.0
 70
   128
 71
    50
 72
    33
 73
    44
  0
VERTEX
  5
48D
  8
0
 62
     9
 10
0.0
 20
0.0
 30
0.0
 70
   128
 71
    33
 72
    39
 73
    44
  0
VERTEX
  5
48E
  8
0
 62
     9
 10
0.0
 20
0.0
 30
0.0
 70
   128
 71
    45
 72
    39
 73
    41
  0
VERTEX
  5
48F
  8
0
 62
     9
 10
0.0
 20
0.0
 30
0.0
 70
   128
 71
    41
 72
    39
 73
    36
  0
VERTEX
  5
490
  8
0
 62
     9
 10
0.0
 20
0.0
 30
0.0
 70
   128
 71
    36
 72
    37
 73
    27
  0
VERTEX
  5
491
  8
0
 62
     9
 10
0.0
 20
0.0
 30
0.0
 70
   128
 71
    53
 72
    52
 73
    51
  0
VERTEX
  5
492
  8
0
 62
     9
 10
0.0
 20
0.0
 30
0.0
 70
   128
 71
    55
 72
    51
 73
    54
  0
VERTEX
  5
493
  8
0
 62
     9
 10
0.0
 20
0.0
 30
0.0
 70
   128
 71
     5
 72
    54
 73
    56
  0
VERTEX
  5
494
  8
0
 62
     9
 10
0.0
 20
0.0
 30
0.0
 70
   128
 71
    58
 72
    57
 73
     5
  0
VERTEX
  5
495
  8
0
 62
     9
 10
0.0
 20
0.0
 30
0.0
 70
   128
 71
    57
 72
    54
 73
     5
  0
VERTEX
  5
496
  8
0
 62
     9
 10
0.0
 20
0.0
 30
0.0
 70
   128
 71
    61
 72
    60
 73
    59
  0
VERTEX
  5
497
  8
0
 62
     9
 10
0.0
 20
0.0
 30
0.0
 70
   128
 71
    63
 72
    62
 73
    58
  0
VERTEX
  5
498
  8
0
 62
     9
 10
0.0
 20
0.0
 30
0.0
 70
   128
 71
    62
 72
    63
 73
    49
  0
VERTEX
  5
499
  8
0
 62
     9
 10
0.0
 20
0.0
 30
0.0
 70
   128
 71
    49
 72
    48
 73
    64
  0
VERTEX
  5
49A
  8
0
 62
     9
 10
0.0
 20
0.0
 30
0.0
 70
   128
 71
    64
 72
    62
 73
    49
  0
VERTEX
  5
49B
  8
0
 62
     9
 10
0.0
 20
0.0
 30
0.0
 70
   128
 71
    51
 72
    55
 73
    65
  0
VERTEX
  5
49C
  8
0
 62
     9
 10
0.0
 20
0.0
 30
0.0
 70
   128
 71
     5
 72
    63
 73
    58
  0
VERTEX
  5
49D
  8
0
 62
     9
 10
0.0
 20
0.0
 30
0.0
 70
   128
 71
    53
 72
    51
 73
    65
  0
VERTEX
  5
49E
  8
0
 62
     9
 10
0.0
 20
0.0
 30
0.0
 70
   128
 71
    65
 72
    55
 73
    66
  0
VERTEX
  5
49F
  8
0
 62
     9
 10
0.0
 20
0.0
 30
0.0
 70
   128
 71
    68
 72
    67
 73
    52
  0
VERTEX
  5
4A0
  8
0
 62
     9
 10
0.0
 20
0.0
 30
0.0
 70
   128
 71
    56
 72
    51
 73
    67
  0
VERTEX
  5
4A1
  8
0
 62
     9
 10
0.0
 20
0.0
 30
0.0
 70
   128
 71
    59
 72
    60
 73
    55
  0
VERTEX
  5
4A2
  8
0
 62
     9
 10
0.0
 20
0.0
 30
0.0
 70
   128
 71
    57
 72
    58
 73
    59
  0
VERTEX
  5
4A3
  8
0
 62
     9
 10
0.0
 20
0.0
 30
0.0
 70
   128
 71
    55
 72
    57
 73
    59
  0
VERTEX
  5
4A4
  8
0
 62
     9
 10
0.0
 20
0.0
 30
0.0
 70
   128
 71
    58
 72
    62
 73
    59
  0
VERTEX
  5
4A5
  8
0
 62
     9
 10
0.0
 20
0.0
 30
0.0
 70
   128
 71
    63
 72
    30
 73
    49
  0
VERTEX
  5
4A6
  8
0
 62
     9
 10
0.0
 20
0.0
 30
0.0
 70
   128
 71
    30
 72
    63
 73
     5
  0
VERTEX
  5
4A7
  8
0
 62
     9
 10
0.0
 20
0.0
 30
0.0
 70
   128
 71
    54
 72
    51
 73
    56
  0
VERTEX
  5
4A8
  8
0
 62
     9
 10
0.0
 20
0.0
 30
0.0
 70
   128
 71
    67
 72
    51
 73
    52
  0
VERTEX
  5
4A9
  8
0
 62
     9
 10
0.0
 20
0.0
 30
0.0
 70
   128
 71
    66
 72
    55
 73
    60
  0
VERTEX
  5
4AA
  8
0
 62
     9
 10
0.0
 20
0.0
 30
0.0
 70
   128
 71
    57
 72
    55
 73
    54
  0
VERTEX
  5
4AB
  8
0
 62
     9
 10
0.0
 20
0.0
 30
0.0
 70
   128
 71
    59
 72
    69
 73
    61
  0
VERTEX
  5
4AC
  8
0
 62
     9
 10
0.0
 20
0.0
 30
0.0
 70
   128
 71
    70
 72
    69
 73
    62
  0
VERTEX
  5
4AD
  8
0
 62
     9
 10
0.0
 20
0.0
 30
0.0
 70
   128
 71
    59
 72
    62
 73
    69
  0
VERTEX
  5
4AE
  8
0
 62
     9
 10
0.0
 20
0.0
 30
0.0
 70
   128
 71
    70
 72
    62
 73
    64
  0
VERTEX
  5
4AF
  8
0
 62
     9
 10
0.0
 20
0.0
 30
0.0
 70
   128
 71
    73
 72
    72
 73
    71
  0
VERTEX
  5
4B0
  8
0
 62
     9
 10
0.0
 20
0.0
 30
0.0
 70
   128
 71
    76
 72
    75
 73
    74
  0
VERTEX
  5
4B1
  8
0
 62
     9
 10
0.0
 20
0.0
 30
0.0
 70
   128
 71
    71
 72
    78
 73
    77
  0
VERTEX
  5
4B2
  8
0
 62
     9
 10
0.0
 20
0.0
 30
0.0
 70
   128
 71
    77
 72
    73
 73
    71
  0
VERTEX
  5
4B3
  8
0
 62
     9
 10
0.0
 20
0.0
 30
0.0
 70
   128
 71
    80
 72
    79
 73
    78
  0
VERTEX
  5
4B4
  8
0
 62
     9
 10
0.0
 20
0.0
 30
0.0
 70
   128
 71
    77
 72
    78
 73
    79
  0
VERTEX
  5
4B5
  8
0
 62
     9
 10
0.0
 20
0.0
 30
0.0
 70
   128
 71
    81
 72
    79
 73
    80
  0
VERTEX
  5
4B6
  8
0
 62
     9
 10
0.0
 20
0.0
 30
0.0
 70
   128
 71
    82
 72
    72
 73
    73
  0
VERTEX
  5
4B7
  8
0
 62
     9
 10
0.0
 20
0.0
 30
0.0
 70
   128
 71
    84
 72
    83
 73
    82
  0
VERTEX
  5
4B8
  8
0
 62
     9
 10
0.0
 20
0.0
 30
0.0
 70
   128
 71
    72
 72
    82
 73
    83
  0
VERTEX
  5
4B9
  8
0
 62
     9
 10
0.0
 20
0.0
 30
0.0
 70
   128
 71
    76
 72
    84
 73
    75
  0
VERTEX
  5
4BA
  8
0
 62
     9
 10
0.0
 20
0.0
 30
0.0
 70
   128
 71
    84
 72
    76
 73
    83
  0
VERTEX
  5
4BB
  8
0
 62
     9
 10
0.0
 20
0.0
 30
0.0
 70
   128
 71
    87
 72
    86
 73
    85
  0
VERTEX
  5
4BC
  8
0
 62
     9
 10
0.0
 20
0.0
 30
0.0
 70
   128
 71
    87
 72
    88
 73
    74
  0
VERTEX
  5
4BD
  8
0
 62
     9
 10
0.0
 20
0.0
 30
0.0
 70
   128
 71
    91
 72
    90
 73
    89
  0
VERTEX
  5
4BE
  8
0
 62
     9
 10
0.0
 20
0.0
 30
0.0
 70
   128
 71
    91
 72
    93
 73
    92
  0
VERTEX
  5
4BF
  8
0
 62
     9
 10
0.0
 20
0.0
 30
0.0
 70
   128
 71
    96
 72
    95
 73
    94
  0
VERTEX
  5
4C0
  8
0
 62
     9
 10
0.0
 20
0.0
 30
0.0
 70
   128
 71
    94
 72
    89
 73
    96
  0
VERTEX
  5
4C1
  8
0
 62
     9
 10
0.0
 20
0.0
 30
0.0
 70
   128
 71
    96
 72
    89
 73
    90
  0
VERTEX
  5
4C2
  8
0
 62
     9
 10
0.0
 20
0.0
 30
0.0
 70
   128
 71
    91
 72
    92
 73
    90
  0
VERTEX
  5
4C3
  8
0
 62
     9
 10
0.0
 20
0.0
 30
0.0
 70
   128
 71
    93
 72
    86
 73
    92
  0
VERTEX
  5
4C4
  8
0
 62
     9
 10
0.0
 20
0.0
 30
0.0
 70
   128
 71
    88
 72
    87
 73
    85
  0
VERTEX
  5
4C5
  8
0
 62
     9
 10
0.0
 20
0.0
 30
0.0
 70
   128
 71
    85
 72
    86
 73
    93
  0
VERTEX
  5
4C6
  8
0
 62
     9
 10
0.0
 20
0.0
 30
0.0
 70
   128
 71
    75
 72
    87
 73
    74
  0
VERTEX
  5
4C7
  8
0
 62
     9
 10
0.0
 20
0.0
 30
0.0
 70
   128
 71
    99
 72
    98
 73
    97
  0
VERTEX
  5
4C8
  8
0
 62
     9
 10
0.0
 20
0.0
 30
0.0
 70
   128
 71
   101
 72
   100
 73
    99
  0
VERTEX
  5
4C9
  8
0
 62
     9
 10
0.0
 20
0.0
 30
0.0
 70
   128
 71
   103
 72
   102
 73
    98
  0
VERTEX
  5
4CA
  8
0
 62
     9
 10
0.0
 20
0.0
 30
0.0
 70
   128
 71
    98
 72
   102
 73
    97
  0
VERTEX
  5
4CB
  8
0
 62
     9
 10
0.0
 20
0.0
 30
0.0
 70
   128
 71
   104
 72
   102
 73
   103
  0
VERTEX
  5
4CC
  8
0
 62
     9
 10
0.0
 20
0.0
 30
0.0
 70
   128
 71
    99
 72
    97
 73
   101
  0
VERTEX
  5
4CD
  8
0
 62
     9
 10
0.0
 20
0.0
 30
0.0
 70
   128
 71
   106
 72
   105
 73
   104
  0
VERTEX
  5
4CE
  8
0
 62
     9
 10
0.0
 20
0.0
 30
0.0
 70
   128
 71
   104
 72
   105
 73
   107
  0
VERTEX
  5
4CF
  8
0
 62
     9
 10
0.0
 20
0.0
 30
0.0
 70
   128
 71
   107
 72
   109
 73
   108
  0
VERTEX
  5
4D0
  8
0
 62
     9
 10
0.0
 20
0.0
 30
0.0
 70
   128
 71
   107
 72
   105
 73
   109
  0
VERTEX
  5
4D1
  8
0
 62
     9
 10
0.0
 20
0.0
 30
0.0
 70
   128
 71
   109
 72
   110
 73
   108
  0
VERTEX
  5
4D2
  8
0
 62
     9
 10
0.0
 20
0.0
 30
0.0
 70
   128
 71
   104
 72
   103
 73
   106
  0
VERTEX
  5
4D3
  8
0
 62
     9
 10
0.0
 20
0.0
 30
0.0
 70
   128
 71
   111
 72
   108
 73
   110
  0
VERTEX
  5
4D4
  8
0
 62
     9
 10
0.0
 20
0.0
 30
0.0
 70
   128
 71
   111
 72
   113
 73
   112
  0
VERTEX
  5
4D5
  8
0
 62
     9
 10
0.0
 20
0.0
 30
0.0
 70
   128
 71
   110
 72
   113
 73
   111
  0
VERTEX
  5
4D6
  8
0
 62
     9
 10
0.0
 20
0.0
 30
0.0
 70
   128
 71
   115
 72
   100
 73
   114
  0
VERTEX
  5
4D7
  8
0
 62
     9
 10
0.0
 20
0.0
 30
0.0
 70
   128
 71
   101
 72
   114
 73
   100
  0
VERTEX
  5
4D8
  8
0
 62
     9
 10
0.0
 20
0.0
 30
0.0
 70
   128
 71
   115
 72
   117
 73
   116
  0
VERTEX
  5
4D9
  8
0
 62
     9
 10
0.0
 20
0.0
 30
0.0
 70
   128
 71
   117
 72
   115
 73
   114
  0
VERTEX
  5
4DA
  8
0
 62
     9
 10
0.0
 20
0.0
 30
0.0
 70
   128
 71
   119
 72
   118
 73
   116
  0
VERTEX
  5
4DB
  8
0
 62
     9
 10
0.0
 20
0.0
 30
0.0
 70
   128
 71
   116
 72
   117
 73
   119
  0
VERTEX
  5
4DC
  8
0
 62
     9
 10
0.0
 20
0.0
 30
0.0
 70
   128
 71
   121
 72
   118
 73
   120
  0
VERTEX
  5
4DD
  8
0
 62
     9
 10
0.0
 20
0.0
 30
0.0
 70
   128
 71
   119
 72
   120
 73
   118
  0
VERTEX
  5
4DE
  8
0
 62
     9
 10
0.0
 20
0.0
 30
0.0
 70
   128
 71
   121
 72
   123
 73
   122
  0
VERTEX
  5
4DF
  8
0
 62
     9
 10
0.0
 20
0.0
 30
0.0
 70
   128
 71
   123
 72
   121
 73
   120
  0
VERTEX
  5
4E0
  8
0
 62
     9
 10
0.0
 20
0.0
 30
0.0
 70
   128
 71
   125
 72
   123
 73
   124
  0
VERTEX
  5
4E1
  8
0
 62
     9
 10
0.0
 20
0.0
 30
0.0
 70
   128
 71
   125
 72
   122
 73
   123
  0
VERTEX
  5
4E2
  8
0
 62
     9
 10
0.0
 20
0.0
 30
0.0
 70
   128
 71
   124
 72
   123
 73
   126
  0
VERTEX
  5
4E3
  8
0
 62
     9
 10
0.0
 20
0.0
 30
0.0
 70
   128
 71
   124
 72
   126
 73
   127
  0
VERTEX
  5
4E4
  8
0
 62
     9
 10
0.0
 20
0.0
 30
0.0
 70
   128
 71
   129
 72
   127
 73
   128
  0
VERTEX
  5
4E5
  8
0
 62
     9
 10
0.0
 20
0.0
 30
0.0
 70
   128
 71
   126
 72
   128
 73
   127
  0
VERTEX
  5
4E6
  8
0
 62
     9
 10
0.0
 20
0.0
 30
0.0
 70
   128
 71
   131
 72
   130
 73
   128
  0
VERTEX
  5
4E7
  8
0
 62
     9
 10
0.0
 20
0.0
 30
0.0
 70
   128
 71
   130
 72
   129
 73
   128
  0
VERTEX
  5
4E8
  8
0
 62
     9
 10
0.0
 20
0.0
 30
0.0
 70
   128
 71
   133
 72
   128
 73
   132
  0
VERTEX
  5
4E9
  8
0
 62
     9
 10
0.0
 20
0.0
 30
0.0
 70
   128
 71
   133
 72
   131
 73
   128
  0
VERTEX
  5
4EA
  8
0
 62
     9
 10
0.0
 20
0.0
 30
0.0
 70
   128
 71
   135
 72
   122
 73
   134
  0
VERTEX
  5
4EB
  8
0
 62
     9
 10
0.0
 20
0.0
 30
0.0
 70
   128
 71
   134
 72
   136
 73
   135
  0
VERTEX
  5
4EC
  8
0
 62
     9
 10
0.0
 20
0.0
 30
0.0
 70
   128
 71
   125
 72
   134
 73
   122
  0
VERTEX
  5
4ED
  8
0
 62
     9
 10
0.0
 20
0.0
 30
0.0
 70
   128
 71
   134
 72
   125
 73
   137
  0
VERTEX
  5
4EE
  8
0
 62
     9
 10
0.0
 20
0.0
 30
0.0
 70
   128
 71
   137
 72
   138
 73
   136
  0
VERTEX
  5
4EF
  8
0
 62
     9
 10
0.0
 20
0.0
 30
0.0
 70
   128
 71
   136
 72
   139
 73
   135
  0
VERTEX
  5
4F0
  8
0
 62
     9
 10
0.0
 20
0.0
 30
0.0
 70
   128
 71
   136
 72
   134
 73
   137
  0
VERTEX
  5
4F1
  8
0
 62
     9
 10
0.0
 20
0.0
 30
0.0
 70
   128
 71
   138
 72
   139
 73
   136
  0
VERTEX
  5
4F2
  8
0
 62
     9
 10
0.0
 20
0.0
 30
0.0
 70
   128
 71
   141
 72
   140
 73
   124
  0
VERTEX
  5
4F3
  8
0
 62
     9
 10
0.0
 20
0.0
 30
0.0
 70
   128
 71
   144
 72
   143
 73
   142
  0
VERTEX
  5
4F4
  8
0
 62
     9
 10
0.0
 20
0.0
 30
0.0
 70
   128
 71
   142
 72
   146
 73
   145
  0
VERTEX
  5
4F5
  8
0
 62
     9
 10
0.0
 20
0.0
 30
0.0
 70
   128
 71
   143
 72
   146
 73
   142
  0
VERTEX
  5
4F6
  8
0
 62
     9
 10
0.0
 20
0.0
 30
0.0
 70
   128
 71
   143
 72
   144
 73
   147
  0
VERTEX
  5
4F7
  8
0
 62
     9
 10
0.0
 20
0.0
 30
0.0
 70
   128
 71
   148
 72
   147
 73
   124
  0
VERTEX
  5
4F8
  8
0
 62
     9
 10
0.0
 20
0.0
 30
0.0
 70
   128
 71
   147
 72
   148
 73
   143
  0
VERTEX
  5
4F9
  8
0
 62
     9
 10
0.0
 20
0.0
 30
0.0
 70
   128
 71
   150
 72
   124
 73
   149
  0
VERTEX
  5
4FA
  8
0
 62
     9
 10
0.0
 20
0.0
 30
0.0
 70
   128
 71
   150
 72
   148
 73
   124
  0
VERTEX
  5
4FB
  8
0
 62
     9
 10
0.0
 20
0.0
 30
0.0
 70
   128
 71
   149
 72
   152
 73
   151
  0
VERTEX
  5
4FC
  8
0
 62
     9
 10
0.0
 20
0.0
 30
0.0
 70
   128
 71
   152
 72
   153
 73
   151
  0
VERTEX
  5
4FD
  8
0
 62
     9
 10
0.0
 20
0.0
 30
0.0
 70
   128
 71
   152
 72
   155
 73
   154
  0
VERTEX
  5
4FE
  8
0
 62
     9
 10
0.0
 20
0.0
 30
0.0
 70
   128
 71
   157
 72
   156
 73
   155
  0
VERTEX
  5
4FF
  8
0
 62
     9
 10
0.0
 20
0.0
 30
0.0
 70
   128
 71
     4
 72
     1
 73
   154
  0
VERTEX
  5
500
  8
0
 62
     9
 10
0.0
 20
0.0
 30
0.0
 70
   128
 71
     4
 72
   155
 73
   156
  0
VERTEX
  5
501
  8
0
 62
     9
 10
0.0
 20
0.0
 30
0.0
 70
   128
 71
   155
 72
   158
 73
   157
  0
VERTEX
  5
502
  8
0
 62
     9
 10
0.0
 20
0.0
 30
0.0
 70
   128
 71
   152
 72
   149
 73
   155
  0
VERTEX
  5
503
  8
0
 62
     9
 10
0.0
 20
0.0
 30
0.0
 70
   128
 71
   155
 72
     4
 73
   154
  0
VERTEX
  5
504
  8
0
 62
     9
 10
0.0
 20
0.0
 30
0.0
 70
   128
 71
   159
 72
   149
 73
   124
  0
VERTEX
  5
505
  8
0
 62
     9
 10
0.0
 20
0.0
 30
0.0
 70
   128
 71
   149
 72
   159
 73
   155
  0
VERTEX
  5
506
  8
0
 62
     9
 10
0.0
 20
0.0
 30
0.0
 70
   128
 71
   160
 72
   127
 73
   129
  0
VERTEX
  5
507
  8
0
 62
     9
 10
0.0
 20
0.0
 30
0.0
 70
   128
 71
   140
 72
   159
 73
   124
  0
VERTEX
  5
508
  8
0
 62
     9
 10
0.0
 20
0.0
 30
0.0
 70
   128
 71
   160
 72
   129
 73
   161
  0
VERTEX
  5
509
  8
0
 62
     9
 10
0.0
 20
0.0
 30
0.0
 70
   128
 71
   127
 72
   141
 73
   124
  0
VERTEX
  5
50A
  8
0
 62
     9
 10
0.0
 20
0.0
 30
0.0
 70
   128
 71
   127
 72
   160
 73
   141
  0
VERTEX
  5
50B
  8
0
 62
     9
 10
0.0
 20
0.0
 30
0.0
 70
   128
 71
   124
 72
   147
 73
   125
  0
VERTEX
  5
50C
  8
0
 62
     9
 10
0.0
 20
0.0
 30
0.0
 70
   128
 71
   137
 72
   125
 73
   147
  0
VERTEX
  5
50D
  8
0
 62
     9
 10
0.0
 20
0.0
 30
0.0
 70
   128
 71
   162
 72
   118
 73
   121
  0
VERTEX
  5
50E
  8
0
 62
     9
 10
0.0
 20
0.0
 30
0.0
 70
   128
 71
   164
 72
   163
 73
   139
  0
VERTEX
  5
50F
  8
0
 62
     9
 10
0.0
 20
0.0
 30
0.0
 70
   128
 71
   118
 72
   162
 73
   165
  0
VERTEX
  5
510
  8
0
 62
     9
 10
0.0
 20
0.0
 30
0.0
 70
   128
 71
   122
 72
   135
 73
   163
  0
VERTEX
  5
511
  8
0
 62
     9
 10
0.0
 20
0.0
 30
0.0
 70
   128
 71
   139
 72
   163
 73
   135
  0
VERTEX
  5
512
  8
0
 62
     9
 10
0.0
 20
0.0
 30
0.0
 70
   128
 71
   115
 72
   116
 73
   166
  0
VERTEX
  5
513
  8
0
 62
     9
 10
0.0
 20
0.0
 30
0.0
 70
   128
 71
   164
 72
   121
 73
   163
  0
VERTEX
  5
514
  8
0
 62
     9
 10
0.0
 20
0.0
 30
0.0
 70
   128
 71
   163
 72
   121
 73
   122
  0
VERTEX
  5
515
  8
0
 62
     9
 10
0.0
 20
0.0
 30
0.0
 70
   128
 71
   167
 72
    98
 73
    99
  0
VERTEX
  5
516
  8
0
 62
     9
 10
0.0
 20
0.0
 30
0.0
 70
   128
 71
   169
 72
   168
 73
   100
  0
VERTEX
  5
517
  8
0
 62
     9
 10
0.0
 20
0.0
 30
0.0
 70
   128
 71
   106
 72
   170
 73
   105
  0
VERTEX
  5
518
  8
0
 62
     9
 10
0.0
 20
0.0
 30
0.0
 70
   128
 71
   103
 72
   172
 73
   171
  0
VERTEX
  5
519
  8
0
 62
     9
 10
0.0
 20
0.0
 30
0.0
 70
   128
 71
   110
 72
   174
 73
   173
  0
VERTEX
  5
51A
  8
0
 62
     9
 10
0.0
 20
0.0
 30
0.0
 70
   128
 71
   109
 72
   105
 73
   175
  0
VERTEX
  5
51B
  8
0
 62
     9
 10
0.0
 20
0.0
 30
0.0
 70
   128
 71
   109
 72
   174
 73
   110
  0
VERTEX
  5
51C
  8
0
 62
     9
 10
0.0
 20
0.0
 30
0.0
 70
   128
 71
   113
 72
   110
 73
   173
  0
VERTEX
  5
51D
  8
0
 62
     9
 10
0.0
 20
0.0
 30
0.0
 70
   128
 71
   170
 72
   175
 73
   105
  0
VERTEX
  5
51E
  8
0
 62
     9
 10
0.0
 20
0.0
 30
0.0
 70
   128
 71
   175
 72
   174
 73
   109
  0
VERTEX
  5
51F
  8
0
 62
     9
 10
0.0
 20
0.0
 30
0.0
 70
   128
 71
   171
 72
   106
 73
   103
  0
VERTEX
  5
520
  8
0
 62
     9
 10
0.0
 20
0.0
 30
0.0
 70
   128
 71
   170
 72
   106
 73
   171
  0
VERTEX
  5
521
  8
0
 62
     9
 10
0.0
 20
0.0
 30
0.0
 70
   128
 71
   172
 72
    98
 73
   167
  0
VERTEX
  5
522
  8
0
 62
     9
 10
0.0
 20
0.0
 30
0.0
 70
   128
 71
   103
 72
    98
 73
   172
  0
VERTEX
  5
523
  8
0
 62
     9
 10
0.0
 20
0.0
 30
0.0
 70
   128
 71
    99
 72
   100
 73
   168
  0
VERTEX
  5
524
  8
0
 62
     9
 10
0.0
 20
0.0
 30
0.0
 70
   128
 71
    99
 72
   168
 73
   167
  0
VERTEX
  5
525
  8
0
 62
     9
 10
0.0
 20
0.0
 30
0.0
 70
   128
 71
   115
 72
   166
 73
   169
  0
VERTEX
  5
526
  8
0
 62
     9
 10
0.0
 20
0.0
 30
0.0
 70
   128
 71
   115
 72
   169
 73
   100
  0
VERTEX
  5
527
  8
0
 62
     9
 10
0.0
 20
0.0
 30
0.0
 70
   128
 71
   118
 72
   165
 73
   116
  0
VERTEX
  5
528
  8
0
 62
     9
 10
0.0
 20
0.0
 30
0.0
 70
   128
 71
   165
 72
   166
 73
   116
  0
VERTEX
  5
529
  8
0
 62
     9
 10
0.0
 20
0.0
 30
0.0
 70
   128
 71
   121
 72
   164
 73
   162
  0
VERTEX
  5
52A
  8
0
 62
     9
 10
0.0
 20
0.0
 30
0.0
 70
   128
 71
   164
 72
   138
 73
   162
  0
VERTEX
  5
52B
  8
0
 62
     9
 10
0.0
 20
0.0
 30
0.0
 70
   128
 71
   139
 72
   138
 73
   164
  0
VERTEX
  5
52C
  8
0
 62
     9
 10
0.0
 20
0.0
 30
0.0
 70
   128
 71
   112
 72
   113
 73
   176
  0
VERTEX
  5
52D
  8
0
 62
     9
 10
0.0
 20
0.0
 30
0.0
 70
   128
 71
   178
 72
   174
 73
   177
  0
VERTEX
  5
52E
  8
0
 62
     9
 10
0.0
 20
0.0
 30
0.0
 70
   128
 71
   180
 72
   167
 73
   179
  0
VERTEX
  5
52F
  8
0
 62
     9
 10
0.0
 20
0.0
 30
0.0
 70
   128
 71
   181
 72
   170
 73
   171
  0
VERTEX
  5
530
  8
0
 62
     9
 10
0.0
 20
0.0
 30
0.0
 70
   128
 71
   165
 72
   183
 73
   182
  0
VERTEX
  5
531
  8
0
 62
     9
 10
0.0
 20
0.0
 30
0.0
 70
   128
 71
   184
 72
   166
 73
   182
  0
VERTEX
  5
532
  8
0
 62
     9
 10
0.0
 20
0.0
 30
0.0
 70
   128
 71
   137
 72
   185
 73
   138
  0
VERTEX
  5
533
  8
0
 62
     9
 10
0.0
 20
0.0
 30
0.0
 70
   128
 71
   183
 72
   162
 73
   185
  0
VERTEX
  5
534
  8
0
 62
     9
 10
0.0
 20
0.0
 30
0.0
 70
   128
 71
   186
 72
   147
 73
   144
  0
VERTEX
  5
535
  8
0
 62
     9
 10
0.0
 20
0.0
 30
0.0
 70
   128
 71
   147
 72
   186
 73
   185
  0
VERTEX
  5
536
  8
0
 62
     9
 10
0.0
 20
0.0
 30
0.0
 70
   128
 71
   142
 72
   188
 73
   187
  0
VERTEX
  5
537
  8
0
 62
     9
 10
0.0
 20
0.0
 30
0.0
 70
   128
 71
   142
 72
   187
 73
   144
  0
VERTEX
  5
538
  8
0
 62
     9
 10
0.0
 20
0.0
 30
0.0
 70
   128
 71
   187
 72
   190
 73
   189
  0
VERTEX
  5
539
  8
0
 62
     9
 10
0.0
 20
0.0
 30
0.0
 70
   128
 71
   188
 72
   190
 73
   187
  0
VERTEX
  5
53A
  8
0
 62
     9
 10
0.0
 20
0.0
 30
0.0
 70
   128
 71
   186
 72
   144
 73
   187
  0
VERTEX
  5
53B
  8
0
 62
     9
 10
0.0
 20
0.0
 30
0.0
 70
   128
 71
   191
 72
   187
 73
   189
  0
VERTEX
  5
53C
  8
0
 62
     9
 10
0.0
 20
0.0
 30
0.0
 70
   128
 71
   147
 72
   185
 73
   137
  0
VERTEX
  5
53D
  8
0
 62
     9
 10
0.0
 20
0.0
 30
0.0
 70
   128
 71
   138
 72
   185
 73
   162
  0
VERTEX
  5
53E
  8
0
 62
     9
 10
0.0
 20
0.0
 30
0.0
 70
   128
 71
   162
 72
   183
 73
   165
  0
VERTEX
  5
53F
  8
0
 62
     9
 10
0.0
 20
0.0
 30
0.0
 70
   128
 71
   182
 72
   166
 73
   165
  0
VERTEX
  5
540
  8
0
 62
     9
 10
0.0
 20
0.0
 30
0.0
 70
   128
 71
   184
 72
   169
 73
   166
  0
VERTEX
  5
541
  8
0
 62
     9
 10
0.0
 20
0.0
 30
0.0
 70
   128
 71
   169
 72
   184
 73
   192
  0
VERTEX
  5
542
  8
0
 62
     9
 10
0.0
 20
0.0
 30
0.0
 70
   128
 71
   192
 72
   168
 73
   169
  0
VERTEX
  5
543
  8
0
 62
     9
 10
0.0
 20
0.0
 30
0.0
 70
   128
 71
   168
 72
   179
 73
   167
  0
VERTEX
  5
544
  8
0
 62
     9
 10
0.0
 20
0.0
 30
0.0
 70
   128
 71
   179
 72
   168
 73
   192
  0
VERTEX
  5
545
  8
0
 62
     9
 10
0.0
 20
0.0
 30
0.0
 70
   128
 71
   172
 72
   167
 73
   180
  0
VERTEX
  5
546
  8
0
 62
     9
 10
0.0
 20
0.0
 30
0.0
 70
   128
 71
   193
 72
   171
 73
   172
  0
VERTEX
  5
547
  8
0
 62
     9
 10
0.0
 20
0.0
 30
0.0
 70
   128
 71
   172
 72
   180
 73
   193
  0
VERTEX
  5
548
  8
0
 62
     9
 10
0.0
 20
0.0
 30
0.0
 70
   128
 71
   170
 72
   181
 73
   175
  0
VERTEX
  5
549
  8
0
 62
     9
 10
0.0
 20
0.0
 30
0.0
 70
   128
 71
   193
 72
   181
 73
   171
  0
VERTEX
  5
54A
  8
0
 62
     9
 10
0.0
 20
0.0
 30
0.0
 70
   128
 71
   174
 72
   175
 73
   177
  0
VERTEX
  5
54B
  8
0
 62
     9
 10
0.0
 20
0.0
 30
0.0
 70
   128
 71
   181
 72
   177
 73
   175
  0
VERTEX
  5
54C
  8
0
 62
     9
 10
0.0
 20
0.0
 30
0.0
 70
   128
 71
   178
 72
   173
 73
   174
  0
VERTEX
  5
54D
  8
0
 62
     9
 10
0.0
 20
0.0
 30
0.0
 70
   128
 71
   173
 72
   176
 73
   113
  0
VERTEX
  5
54E
  8
0
 62
     9
 10
0.0
 20
0.0
 30
0.0
 70
   128
 71
   176
 72
   173
 73
   178
  0
VERTEX
  5
54F
  8
0
 62
     9
 10
0.0
 20
0.0
 30
0.0
 70
   128
 71
   195
 72
    69
 73
   194
  0
VERTEX
  5
550
  8
0
 62
     9
 10
0.0
 20
0.0
 30
0.0
 70
   128
 71
   196
 72
   194
 73
    64
  0
VERTEX
  5
551
  8
0
 62
     9
 10
0.0
 20
0.0
 30
0.0
 70
   128
 71
   194
 72
   186
 73
   195
  0
VERTEX
  5
552
  8
0
 62
     9
 10
0.0
 20
0.0
 30
0.0
 70
   128
 71
   187
 72
   191
 73
   197
  0
VERTEX
  5
553
  8
0
 62
     9
 10
0.0
 20
0.0
 30
0.0
 70
   128
 71
    47
 72
   198
 73
    46
  0
VERTEX
  5
554
  8
0
 62
     9
 10
0.0
 20
0.0
 30
0.0
 70
   128
 71
   200
 72
    42
 73
   199
  0
VERTEX
  5
555
  8
0
 62
     9
 10
0.0
 20
0.0
 30
0.0
 70
   128
 71
   200
 72
   198
 73
    47
  0
VERTEX
  5
556
  8
0
 62
     9
 10
0.0
 20
0.0
 30
0.0
 70
   128
 71
   202
 72
   201
 73
    44
  0
VERTEX
  5
557
  8
0
 62
     9
 10
0.0
 20
0.0
 30
0.0
 70
   128
 71
    50
 72
   201
 73
   199
  0
VERTEX
  5
558
  8
0
 62
     9
 10
0.0
 20
0.0
 30
0.0
 70
   128
 71
    35
 72
   203
 73
    40
  0
VERTEX
  5
559
  8
0
 62
     9
 10
0.0
 20
0.0
 30
0.0
 70
   128
 71
    41
 72
   204
 73
   202
  0
VERTEX
  5
55A
  8
0
 62
     9
 10
0.0
 20
0.0
 30
0.0
 70
   128
 71
   206
 72
    24
 73
   205
  0
VERTEX
  5
55B
  8
0
 62
     9
 10
0.0
 20
0.0
 30
0.0
 70
   128
 71
    24
 72
   206
 73
    26
  0
VERTEX
  5
55C
  8
0
 62
     9
 10
0.0
 20
0.0
 30
0.0
 70
   128
 71
   207
 72
    20
 73
    29
  0
VERTEX
  5
55D
  8
0
 62
     9
 10
0.0
 20
0.0
 30
0.0
 70
   128
 71
    21
 72
    20
 73
   207
  0
VERTEX
  5
55E
  8
0
 62
     9
 10
0.0
 20
0.0
 30
0.0
 70
   128
 71
    22
 72
   209
 73
   208
  0
VERTEX
  5
55F
  8
0
 62
     9
 10
0.0
 20
0.0
 30
0.0
 70
   128
 71
   210
 72
    19
 73
    18
  0
VERTEX
  5
560
  8
0
 62
     9
 10
0.0
 20
0.0
 30
0.0
 70
   128
 71
    23
 72
    19
 73
   210
  0
VERTEX
  5
561
  8
0
 62
     9
 10
0.0
 20
0.0
 30
0.0
 70
   128
 71
   211
 72
   120
 73
   119
  0
VERTEX
  5
562
  8
0
 62
     9
 10
0.0
 20
0.0
 30
0.0
 70
   128
 71
   212
 72
   210
 73
    18
  0
VERTEX
  5
563
  8
0
 62
     9
 10
0.0
 20
0.0
 30
0.0
 70
   128
 71
    13
 72
    11
 73
   211
  0
VERTEX
  5
564
  8
0
 62
     9
 10
0.0
 20
0.0
 30
0.0
 70
   128
 71
   211
 72
   212
 73
    13
  0
VERTEX
  5
565
  8
0
 62
     9
 10
0.0
 20
0.0
 30
0.0
 70
   128
 71
   214
 72
   213
 73
    11
  0
VERTEX
  5
566
  8
0
 62
     9
 10
0.0
 20
0.0
 30
0.0
 70
   128
 71
   211
 72
    11
 73
   213
  0
VERTEX
  5
567
  8
0
 62
     9
 10
0.0
 20
0.0
 30
0.0
 70
   128
 71
   216
 72
   214
 73
   215
  0
VERTEX
  5
568
  8
0
 62
     9
 10
0.0
 20
0.0
 30
0.0
 70
   128
 71
   214
 72
   216
 73
   213
  0
VERTEX
  5
569
  8
0
 62
     9
 10
0.0
 20
0.0
 30
0.0
 70
   128
 71
   217
 72
   216
 73
   215
  0
VERTEX
  5
56A
  8
0
 62
     9
 10
0.0
 20
0.0
 30
0.0
 70
   128
 71
   126
 72
   216
 73
   217
  0
VERTEX
  5
56B
  8
0
 62
     9
 10
0.0
 20
0.0
 30
0.0
 70
   128
 71
   217
 72
   215
 73
   218
  0
VERTEX
  5
56C
  8
0
 62
     9
 10
0.0
 20
0.0
 30
0.0
 70
   128
 71
   220
 72
   218
 73
   219
  0
VERTEX
  5
56D
  8
0
 62
     9
 10
0.0
 20
0.0
 30
0.0
 70
   128
 71
   132
 72
   217
 73
   220
  0
VERTEX
  5
56E
  8
0
 62
     9
 10
0.0
 20
0.0
 30
0.0
 70
   128
 71
   210
 72
   209
 73
    23
  0
VERTEX
  5
56F
  8
0
 62
     9
 10
0.0
 20
0.0
 30
0.0
 70
   128
 71
   117
 72
   210
 73
   212
  0
VERTEX
  5
570
  8
0
 62
     9
 10
0.0
 20
0.0
 30
0.0
 70
   128
 71
    22
 72
   208
 73
    29
  0
VERTEX
  5
571
  8
0
 62
     9
 10
0.0
 20
0.0
 30
0.0
 70
   128
 71
    23
 72
   209
 73
    22
  0
VERTEX
  5
572
  8
0
 62
     9
 10
0.0
 20
0.0
 30
0.0
 70
   128
 71
   207
 72
   208
 73
   102
  0
VERTEX
  5
573
  8
0
 62
     9
 10
0.0
 20
0.0
 30
0.0
 70
   128
 71
   208
 72
   207
 73
    29
  0
VERTEX
  5
574
  8
0
 62
     9
 10
0.0
 20
0.0
 30
0.0
 70
   128
 71
    25
 72
   221
 73
   205
  0
VERTEX
  5
575
  8
0
 62
     9
 10
0.0
 20
0.0
 30
0.0
 70
   128
 71
   207
 72
   221
 73
    21
  0
VERTEX
  5
576
  8
0
 62
     9
 10
0.0
 20
0.0
 30
0.0
 70
   128
 71
    25
 72
   205
 73
    24
  0
VERTEX
  5
577
  8
0
 62
     9
 10
0.0
 20
0.0
 30
0.0
 70
   128
 71
    21
 72
   221
 73
    25
  0
VERTEX
  5
578
  8
0
 62
     9
 10
0.0
 20
0.0
 30
0.0
 70
   128
 71
   203
 72
    35
 73
   222
  0
VERTEX
  5
579
  8
0
 62
     9
 10
0.0
 20
0.0
 30
0.0
 70
   128
 71
   222
 72
    26
 73
   206
  0
VERTEX
  5
57A
  8
0
 62
     9
 10
0.0
 20
0.0
 30
0.0
 70
   128
 71
    40
 72
   203
 73
   204
  0
VERTEX
  5
57B
  8
0
 62
     9
 10
0.0
 20
0.0
 30
0.0
 70
   128
 71
   222
 72
    35
 73
    26
  0
VERTEX
  5
57C
  8
0
 62
     9
 10
0.0
 20
0.0
 30
0.0
 70
   128
 71
    40
 72
   204
 73
    41
  0
VERTEX
  5
57D
  8
0
 62
     9
 10
0.0
 20
0.0
 30
0.0
 70
   128
 71
   202
 72
    44
 73
    45
  0
VERTEX
  5
57E
  8
0
 62
     9
 10
0.0
 20
0.0
 30
0.0
 70
   128
 71
    41
 72
   202
 73
    45
  0
VERTEX
  5
57F
  8
0
 62
     9
 10
0.0
 20
0.0
 30
0.0
 70
   128
 71
   201
 72
   202
 73
   181
  0
VERTEX
  5
580
  8
0
 62
     9
 10
0.0
 20
0.0
 30
0.0
 70
   128
 71
    50
 72
    44
 73
   201
  0
VERTEX
  5
581
  8
0
 62
     9
 10
0.0
 20
0.0
 30
0.0
 70
   128
 71
   200
 72
    43
 73
    42
  0
VERTEX
  5
582
  8
0
 62
     9
 10
0.0
 20
0.0
 30
0.0
 70
   128
 71
   199
 72
    42
 73
    50
  0
VERTEX
  5
583
  8
0
 62
     9
 10
0.0
 20
0.0
 30
0.0
 70
   128
 71
   200
 72
   192
 73
   198
  0
VERTEX
  5
584
  8
0
 62
     9
 10
0.0
 20
0.0
 30
0.0
 70
   128
 71
   200
 72
    47
 73
    43
  0
VERTEX
  5
585
  8
0
 62
     9
 10
0.0
 20
0.0
 30
0.0
 70
   128
 71
   195
 72
   197
 73
    61
  0
VERTEX
  5
586
  8
0
 62
     9
 10
0.0
 20
0.0
 30
0.0
 70
   128
 71
    48
 72
    46
 73
   223
  0
VERTEX
  5
587
  8
0
 62
     9
 10
0.0
 20
0.0
 30
0.0
 70
   128
 71
   223
 72
    46
 73
   198
  0
VERTEX
  5
588
  8
0
 62
     9
 10
0.0
 20
0.0
 30
0.0
 70
   128
 71
    69
 72
    70
 73
   194
  0
VERTEX
  5
589
  8
0
 62
     9
 10
0.0
 20
0.0
 30
0.0
 70
   128
 71
    48
 72
   223
 73
   196
  0
VERTEX
  5
58A
  8
0
 62
     9
 10
0.0
 20
0.0
 30
0.0
 70
   128
 71
    70
 72
    64
 73
   194
  0
VERTEX
  5
58B
  8
0
 62
     9
 10
0.0
 20
0.0
 30
0.0
 70
   128
 71
    48
 72
   196
 73
    64
  0
VERTEX
  5
58C
  8
0
 62
     9
 10
0.0
 20
0.0
 30
0.0
 70
   128
 71
   195
 72
   186
 73
   187
  0
VERTEX
  5
58D
  8
0
 62
     9
 10
0.0
 20
0.0
 30
0.0
 70
   128
 71
    69
 72
   195
 73
    61
  0
VERTEX
  5
58E
  8
0
 62
     9
 10
0.0
 20
0.0
 30
0.0
 70
   128
 71
   195
 72
   187
 73
   197
  0
VERTEX
  5
58F
  8
0
 62
     9
 10
0.0
 20
0.0
 30
0.0
 70
   128
 71
   194
 72
   185
 73
   186
  0
VERTEX
  5
590
  8
0
 62
     9
 10
0.0
 20
0.0
 30
0.0
 70
   128
 71
   196
 72
   185
 73
   194
  0
VERTEX
  5
591
  8
0
 62
     9
 10
0.0
 20
0.0
 30
0.0
 70
   128
 71
   196
 72
   183
 73
   185
  0
VERTEX
  5
592
  8
0
 62
     9
 10
0.0
 20
0.0
 30
0.0
 70
   128
 71
   223
 72
   182
 73
   183
  0
VERTEX
  5
593
  8
0
 62
     9
 10
0.0
 20
0.0
 30
0.0
 70
   128
 71
   196
 72
   223
 73
   183
  0
VERTEX
  5
594
  8
0
 62
     9
 10
0.0
 20
0.0
 30
0.0
 70
   128
 71
   198
 72
   184
 73
   182
  0
VERTEX
  5
595
  8
0
 62
     9
 10
0.0
 20
0.0
 30
0.0
 70
   128
 71
   223
 72
   198
 73
   182
  0
VERTEX
  5
596
  8
0
 62
     9
 10
0.0
 20
0.0
 30
0.0
 70
   128
 71
   184
 72
   198
 73
   192
  0
VERTEX
  5
597
  8
0
 62
     9
 10
0.0
 20
0.0
 30
0.0
 70
   128
 71
   200
 72
   179
 73
   192
  0
VERTEX
  5
598
  8
0
 62
     9
 10
0.0
 20
0.0
 30
0.0
 70
   128
 71
   199
 72
   180
 73
   179
  0
VERTEX
  5
599
  8
0
 62
     9
 10
0.0
 20
0.0
 30
0.0
 70
   128
 71
   200
 72
   199
 73
   179
  0
VERTEX
  5
59A
  8
0
 62
     9
 10
0.0
 20
0.0
 30
0.0
 70
   128
 71
   201
 72
   193
 73
   180
  0
VERTEX
  5
59B
  8
0
 62
     9
 10
0.0
 20
0.0
 30
0.0
 70
   128
 71
   199
 72
   201
 73
   180
  0
VERTEX
  5
59C
  8
0
 62
     9
 10
0.0
 20
0.0
 30
0.0
 70
   128
 71
   193
 72
   201
 73
   181
  0
VERTEX
  5
59D
  8
0
 62
     9
 10
0.0
 20
0.0
 30
0.0
 70
   128
 71
   202
 72
   177
 73
   181
  0
VERTEX
  5
59E
  8
0
 62
     9
 10
0.0
 20
0.0
 30
0.0
 70
   128
 71
   204
 72
   177
 73
   202
  0
VERTEX
  5
59F
  8
0
 62
     9
 10
0.0
 20
0.0
 30
0.0
 70
   128
 71
   204
 72
   178
 73
   177
  0
VERTEX
  5
5A0
  8
0
 62
     9
 10
0.0
 20
0.0
 30
0.0
 70
   128
 71
   203
 72
   176
 73
   178
  0
VERTEX
  5
5A1
  8
0
 62
     9
 10
0.0
 20
0.0
 30
0.0
 70
   128
 71
   204
 72
   203
 73
   178
  0
VERTEX
  5
5A2
  8
0
 62
     9
 10
0.0
 20
0.0
 30
0.0
 70
   128
 71
   222
 72
   112
 73
   176
  0
VERTEX
  5
5A3
  8
0
 62
     9
 10
0.0
 20
0.0
 30
0.0
 70
   128
 71
   203
 72
   222
 73
   176
  0
VERTEX
  5
5A4
  8
0
 62
     9
 10
0.0
 20
0.0
 30
0.0
 70
   128
 71
   111
 72
   112
 73
   206
  0
VERTEX
  5
5A5
  8
0
 62
     9
 10
0.0
 20
0.0
 30
0.0
 70
   128
 71
   222
 72
   206
 73
   112
  0
VERTEX
  5
5A6
  8
0
 62
     9
 10
0.0
 20
0.0
 30
0.0
 70
   128
 71
   108
 72
   111
 73
   205
  0
VERTEX
  5
5A7
  8
0
 62
     9
 10
0.0
 20
0.0
 30
0.0
 70
   128
 71
   206
 72
   205
 73
   111
  0
VERTEX
  5
5A8
  8
0
 62
     9
 10
0.0
 20
0.0
 30
0.0
 70
   128
 71
   107
 72
   108
 73
   221
  0
VERTEX
  5
5A9
  8
0
 62
     9
 10
0.0
 20
0.0
 30
0.0
 70
   128
 71
   205
 72
   221
 73
   108
  0
VERTEX
  5
5AA
  8
0
 62
     9
 10
0.0
 20
0.0
 30
0.0
 70
   128
 71
   104
 72
   107
 73
   207
  0
VERTEX
  5
5AB
  8
0
 62
     9
 10
0.0
 20
0.0
 30
0.0
 70
   128
 71
   221
 72
   207
 73
   107
  0
VERTEX
  5
5AC
  8
0
 62
     9
 10
0.0
 20
0.0
 30
0.0
 70
   128
 71
   104
 72
   207
 73
   102
  0
VERTEX
  5
5AD
  8
0
 62
     9
 10
0.0
 20
0.0
 30
0.0
 70
   128
 71
   208
 72
    97
 73
   102
  0
VERTEX
  5
5AE
  8
0
 62
     9
 10
0.0
 20
0.0
 30
0.0
 70
   128
 71
    97
 72
   209
 73
   101
  0
VERTEX
  5
5AF
  8
0
 62
     9
 10
0.0
 20
0.0
 30
0.0
 70
   128
 71
   208
 72
   209
 73
    97
  0
VERTEX
  5
5B0
  8
0
 62
     9
 10
0.0
 20
0.0
 30
0.0
 70
   128
 71
   210
 72
   114
 73
   101
  0
VERTEX
  5
5B1
  8
0
 62
     9
 10
0.0
 20
0.0
 30
0.0
 70
   128
 71
   209
 72
   210
 73
   101
  0
VERTEX
  5
5B2
  8
0
 62
     9
 10
0.0
 20
0.0
 30
0.0
 70
   128
 71
   117
 72
   114
 73
   210
  0
VERTEX
  5
5B3
  8
0
 62
     9
 10
0.0
 20
0.0
 30
0.0
 70
   128
 71
   117
 72
   212
 73
   119
  0
VERTEX
  5
5B4
  8
0
 62
     9
 10
0.0
 20
0.0
 30
0.0
 70
   128
 71
   212
 72
    18
 73
    13
  0
VERTEX
  5
5B5
  8
0
 62
     9
 10
0.0
 20
0.0
 30
0.0
 70
   128
 71
   212
 72
   211
 73
   119
  0
VERTEX
  5
5B6
  8
0
 62
     9
 10
0.0
 20
0.0
 30
0.0
 70
   128
 71
   213
 72
   123
 73
   120
  0
VERTEX
  5
5B7
  8
0
 62
     9
 10
0.0
 20
0.0
 30
0.0
 70
   128
 71
   211
 72
   213
 73
   120
  0
VERTEX
  5
5B8
  8
0
 62
     9
 10
0.0
 20
0.0
 30
0.0
 70
   128
 71
   216
 72
   126
 73
   123
  0
VERTEX
  5
5B9
  8
0
 62
     9
 10
0.0
 20
0.0
 30
0.0
 70
   128
 71
   213
 72
   216
 73
   123
  0
VERTEX
  5
5BA
  8
0
 62
     9
 10
0.0
 20
0.0
 30
0.0
 70
   128
 71
   128
 72
   126
 73
   217
  0
VERTEX
  5
5BB
  8
0
 62
     9
 10
0.0
 20
0.0
 30
0.0
 70
   128
 71
   128
 72
   217
 73
   132
  0
VERTEX
  5
5BC
  8
0
 62
     9
 10
0.0
 20
0.0
 30
0.0
 70
   128
 71
   217
 72
   218
 73
   220
  0
VERTEX
  5
5BD
  8
0
 62
     9
 10
0.0
 20
0.0
 30
0.0
 70
   128
 71
   225
 72
    80
 73
   224
  0
VERTEX
  5
5BE
  8
0
 62
     9
 10
0.0
 20
0.0
 30
0.0
 70
   128
 71
   228
 72
   227
 73
   226
  0
VERTEX
  5
5BF
  8
0
 62
     9
 10
0.0
 20
0.0
 30
0.0
 70
   128
 71
   227
 72
   229
 73
   225
  0
VERTEX
  5
5C0
  8
0
 62
     9
 10
0.0
 20
0.0
 30
0.0
 70
   128
 71
   226
 72
   231
 73
   230
  0
VERTEX
  5
5C1
  8
0
 62
     9
 10
0.0
 20
0.0
 30
0.0
 70
   128
 71
   225
 72
   229
 73
    80
  0
VERTEX
  5
5C2
  8
0
 62
     9
 10
0.0
 20
0.0
 30
0.0
 70
   128
 71
   224
 72
     2
 73
   232
  0
VERTEX
  5
5C3
  8
0
 62
     9
 10
0.0
 20
0.0
 30
0.0
 70
   128
 71
   232
 72
   233
 73
   225
  0
VERTEX
  5
5C4
  8
0
 62
     9
 10
0.0
 20
0.0
 30
0.0
 70
   128
 71
   225
 72
   233
 73
   227
  0
VERTEX
  5
5C5
  8
0
 62
     9
 10
0.0
 20
0.0
 30
0.0
 70
   128
 71
   231
 72
   226
 73
   227
  0
VERTEX
  5
5C6
  8
0
 62
     9
 10
0.0
 20
0.0
 30
0.0
 70
   128
 71
   236
 72
   235
 73
   234
  0
VERTEX
  5
5C7
  8
0
 62
     9
 10
0.0
 20
0.0
 30
0.0
 70
   128
 71
   227
 72
   228
 73
   229
  0
VERTEX
  5
5C8
  8
0
 62
     9
 10
0.0
 20
0.0
 30
0.0
 70
   128
 71
   225
 72
   224
 73
   232
  0
VERTEX
  5
5C9
  8
0
 62
     9
 10
0.0
 20
0.0
 30
0.0
 70
   128
 71
   236
 72
   228
 73
   226
  0
VERTEX
  5
5CA
  8
0
 62
     9
 10
0.0
 20
0.0
 30
0.0
 70
   128
 71
   227
 72
   233
 73
   231
  0
VERTEX
  5
5CB
  8
0
 62
     9
 10
0.0
 20
0.0
 30
0.0
 70
   128
 71
   226
 72
   235
 73
   236
  0
VERTEX
  5
5CC
  8
0
 62
     9
 10
0.0
 20
0.0
 30
0.0
 70
   128
 71
   235
 72
   226
 73
   230
  0
VERTEX
  5
5CD
  8
0
 62
     9
 10
0.0
 20
0.0
 30
0.0
 70
   128
 71
   239
 72
   238
 73
   237
  0
VERTEX
  5
5CE
  8
0
 62
     9
 10
0.0
 20
0.0
 30
0.0
 70
   128
 71
   239
 72
   237
 73
   240
  0
VERTEX
  5
5CF
  8
0
 62
     9
 10
0.0
 20
0.0
 30
0.0
 70
   128
 71
   240
 72
   241
 73
   239
  0
VERTEX
  5
5D0
  8
0
 62
     9
 10
0.0
 20
0.0
 30
0.0
 70
   128
 71
   243
 72
   242
 73
   240
  0
VERTEX
  5
5D1
  8
0
 62
     9
 10
0.0
 20
0.0
 30
0.0
 70
   128
 71
   240
 72
   242
 73
   241
  0
VERTEX
  5
5D2
  8
0
 62
     9
 10
0.0
 20
0.0
 30
0.0
 70
   128
 71
   245
 72
   244
 73
   240
  0
VERTEX
  5
5D3
  8
0
 62
     9
 10
0.0
 20
0.0
 30
0.0
 70
   128
 71
   240
 72
   244
 73
   243
  0
VERTEX
  5
5D4
  8
0
 62
     9
 10
0.0
 20
0.0
 30
0.0
 70
   128
 71
   132
 72
   220
 73
   246
  0
VERTEX
  5
5D5
  8
0
 62
     9
 10
0.0
 20
0.0
 30
0.0
 70
   128
 71
   249
 72
   248
 73
   247
  0
VERTEX
  5
5D6
  8
0
 62
     9
 10
0.0
 20
0.0
 30
0.0
 70
   128
 71
   252
 72
   251
 73
   250
  0
VERTEX
  5
5D7
  8
0
 62
     9
 10
0.0
 20
0.0
 30
0.0
 70
   128
 71
   247
 72
   248
 73
   253
  0
VERTEX
  5
5D8
  8
0
 62
     9
 10
0.0
 20
0.0
 30
0.0
 70
   128
 71
   254
 72
   250
 73
   251
  0
VERTEX
  5
5D9
  8
0
 62
     9
 10
0.0
 20
0.0
 30
0.0
 70
   128
 71
   253
 72
   256
 73
   255
  0
VERTEX
  5
5DA
  8
0
 62
     9
 10
0.0
 20
0.0
 30
0.0
 70
   128
 71
   256
 72
   257
 73
    68
  0
VERTEX
  5
5DB
  8
0
 62
     9
 10
0.0
 20
0.0
 30
0.0
 70
   128
 71
   257
 72
   253
 73
   248
  0
VERTEX
  5
5DC
  8
0
 62
     9
 10
0.0
 20
0.0
 30
0.0
 70
   128
 71
   257
 72
   256
 73
   253
  0
VERTEX
  5
5DD
  8
0
 62
     9
 10
0.0
 20
0.0
 30
0.0
 70
   128
 71
   259
 72
   258
 73
   251
  0
VERTEX
  5
5DE
  8
0
 62
     9
 10
0.0
 20
0.0
 30
0.0
 70
   128
 71
   249
 72
   247
 73
   258
  0
VERTEX
  5
5DF
  8
0
 62
     9
 10
0.0
 20
0.0
 30
0.0
 70
   128
 71
   246
 72
   250
 73
   254
  0
VERTEX
  5
5E0
  8
0
 62
     9
 10
0.0
 20
0.0
 30
0.0
 70
   128
 71
   259
 72
   249
 73
   258
  0
VERTEX
  5
5E1
  8
0
 62
     9
 10
0.0
 20
0.0
 30
0.0
 70
   128
 71
   219
 72
   250
 73
   220
  0
VERTEX
  5
5E2
  8
0
 62
     9
 10
0.0
 20
0.0
 30
0.0
 70
   128
 71
   252
 72
   250
 73
   219
  0
VERTEX
  5
5E3
  8
0
 62
     9
 10
0.0
 20
0.0
 30
0.0
 70
   128
 71
   250
 72
   246
 73
   220
  0
VERTEX
  5
5E4
  8
0
 62
     9
 10
0.0
 20
0.0
 30
0.0
 70
   128
 71
   254
 72
   251
 73
   260
  0
VERTEX
  5
5E5
  8
0
 62
     9
 10
0.0
 20
0.0
 30
0.0
 70
   128
 71
   259
 72
   251
 73
   252
  0
VERTEX
  5
5E6
  8
0
 62
     9
 10
0.0
 20
0.0
 30
0.0
 70
   128
 71
   258
 72
   260
 73
   251
  0
VERTEX
  5
5E7
  8
0
 62
     9
 10
0.0
 20
0.0
 30
0.0
 70
   128
 71
   260
 72
   258
 73
   261
  0
VERTEX
  5
5E8
  8
0
 62
     9
 10
0.0
 20
0.0
 30
0.0
 70
   128
 71
   247
 72
   261
 73
   258
  0
VERTEX
  5
5E9
  8
0
 62
     9
 10
0.0
 20
0.0
 30
0.0
 70
   128
 71
   261
 72
   247
 73
   262
  0
VERTEX
  5
5EA
  8
0
 62
     9
 10
0.0
 20
0.0
 30
0.0
 70
   128
 71
   253
 72
   262
 73
   247
  0
VERTEX
  5
5EB
  8
0
 62
     9
 10
0.0
 20
0.0
 30
0.0
 70
   128
 71
   255
 72
   262
 73
   253
  0
VERTEX
  5
5EC
  8
0
 62
     9
 10
0.0
 20
0.0
 30
0.0
 70
   128
 71
   265
 72
   264
 73
   263
  0
VERTEX
  5
5ED
  8
0
 62
     9
 10
0.0
 20
0.0
 30
0.0
 70
   128
 71
   268
 72
   267
 73
   266
  0
VERTEX
  5
5EE
  8
0
 62
     9
 10
0.0
 20
0.0
 30
0.0
 70
   128
 71
   268
 72
   263
 73
   267
  0
VERTEX
  5
5EF
  8
0
 62
     9
 10
0.0
 20
0.0
 30
0.0
 70
   128
 71
   271
 72
   270
 73
   269
  0
VERTEX
  5
5F0
  8
0
 62
     9
 10
0.0
 20
0.0
 30
0.0
 70
   128
 71
   265
 72
    89
 73
    94
  0
VERTEX
  5
5F1
  8
0
 62
     9
 10
0.0
 20
0.0
 30
0.0
 70
   128
 71
   265
 72
   268
 73
    89
  0
VERTEX
  5
5F2
  8
0
 62
     9
 10
0.0
 20
0.0
 30
0.0
 70
   128
 71
   268
 72
    91
 73
    89
  0
VERTEX
  5
5F3
  8
0
 62
     9
 10
0.0
 20
0.0
 30
0.0
 70
   128
 71
   268
 72
   266
 73
    91
  0
VERTEX
  5
5F4
  8
0
 62
     9
 10
0.0
 20
0.0
 30
0.0
 70
   128
 71
   266
 72
   267
 73
   270
  0
VERTEX
  5
5F5
  8
0
 62
     9
 10
0.0
 20
0.0
 30
0.0
 70
   128
 71
    88
 72
   271
 73
   272
  0
VERTEX
  5
5F6
  8
0
 62
     9
 10
0.0
 20
0.0
 30
0.0
 70
   128
 71
   270
 72
   271
 73
   266
  0
VERTEX
  5
5F7
  8
0
 62
     9
 10
0.0
 20
0.0
 30
0.0
 70
   128
 71
    88
 72
   272
 73
    74
  0
VERTEX
  5
5F8
  8
0
 62
     9
 10
0.0
 20
0.0
 30
0.0
 70
   128
 71
   266
 72
    93
 73
    91
  0
VERTEX
  5
5F9
  8
0
 62
     9
 10
0.0
 20
0.0
 30
0.0
 70
   128
 71
   263
 72
   268
 73
   265
  0
VERTEX
  5
5FA
  8
0
 62
     9
 10
0.0
 20
0.0
 30
0.0
 70
   128
 71
   266
 72
    85
 73
    93
  0
VERTEX
  5
5FB
  8
0
 62
     9
 10
0.0
 20
0.0
 30
0.0
 70
   128
 71
   271
 72
    85
 73
   266
  0
VERTEX
  5
5FC
  8
0
 62
     9
 10
0.0
 20
0.0
 30
0.0
 70
   128
 71
    85
 72
   271
 73
    88
  0
VERTEX
  5
5FD
  8
0
 62
     9
 10
0.0
 20
0.0
 30
0.0
 70
   128
 71
   272
 72
   271
 73
   269
  0
VERTEX
  5
5FE
  8
0
 62
     9
 10
0.0
 20
0.0
 30
0.0
 70
   128
 71
   274
 72
   240
 73
   273
  0
VERTEX
  5
5FF
  8
0
 62
     9
 10
0.0
 20
0.0
 30
0.0
 70
   128
 71
    79
 72
    81
 73
   275
  0
VERTEX
  5
600
  8
0
 62
     9
 10
0.0
 20
0.0
 30
0.0
 70
   128
 71
    77
 72
    79
 73
   276
  0
VERTEX
  5
601
  8
0
 62
     9
 10
0.0
 20
0.0
 30
0.0
 70
   128
 71
   277
 72
    73
 73
    77
  0
VERTEX
  5
602
  8
0
 62
     9
 10
0.0
 20
0.0
 30
0.0
 70
   128
 71
    79
 72
   275
 73
   276
  0
VERTEX
  5
603
  8
0
 62
     9
 10
0.0
 20
0.0
 30
0.0
 70
   128
 71
   275
 72
   279
 73
   278
  0
VERTEX
  5
604
  8
0
 62
     9
 10
0.0
 20
0.0
 30
0.0
 70
   128
 71
   274
 72
   273
 73
   277
  0
VERTEX
  5
605
  8
0
 62
     9
 10
0.0
 20
0.0
 30
0.0
 70
   128
 71
    77
 72
   276
 73
   277
  0
VERTEX
  5
606
  8
0
 62
     9
 10
0.0
 20
0.0
 30
0.0
 70
   128
 71
   280
 72
   274
 73
   277
  0
VERTEX
  5
607
  8
0
 62
     9
 10
0.0
 20
0.0
 30
0.0
 70
   128
 71
    82
 72
   277
 73
   273
  0
VERTEX
  5
608
  8
0
 62
     9
 10
0.0
 20
0.0
 30
0.0
 70
   128
 71
    84
 72
   281
 73
    75
  0
VERTEX
  5
609
  8
0
 62
     9
 10
0.0
 20
0.0
 30
0.0
 70
   128
 71
   281
 72
    84
 73
   273
  0
VERTEX
  5
60A
  8
0
 62
     9
 10
0.0
 20
0.0
 30
0.0
 70
   128
 71
    82
 72
   273
 73
    84
  0
VERTEX
  5
60B
  8
0
 62
     9
 10
0.0
 20
0.0
 30
0.0
 70
   128
 71
   281
 72
   273
 73
   240
  0
VERTEX
  5
60C
  8
0
 62
     9
 10
0.0
 20
0.0
 30
0.0
 70
   128
 71
   276
 72
   278
 73
   280
  0
VERTEX
  5
60D
  8
0
 62
     9
 10
0.0
 20
0.0
 30
0.0
 70
   128
 71
    73
 72
   277
 73
    82
  0
VERTEX
  5
60E
  8
0
 62
     9
 10
0.0
 20
0.0
 30
0.0
 70
   128
 71
   277
 72
   276
 73
   280
  0
VERTEX
  5
60F
  8
0
 62
     9
 10
0.0
 20
0.0
 30
0.0
 70
   128
 71
   278
 72
   276
 73
   275
  0
VERTEX
  5
610
  8
0
 62
     9
 10
0.0
 20
0.0
 30
0.0
 70
   128
 71
   160
 72
   283
 73
   282
  0
VERTEX
  5
611
  8
0
 62
     9
 10
0.0
 20
0.0
 30
0.0
 70
   128
 71
   233
 72
   284
 73
   231
  0
VERTEX
  5
612
  8
0
 62
     9
 10
0.0
 20
0.0
 30
0.0
 70
   128
 71
   232
 72
     2
 73
     3
  0
VERTEX
  5
613
  8
0
 62
     9
 10
0.0
 20
0.0
 30
0.0
 70
   128
 71
   158
 72
   155
 73
   285
  0
VERTEX
  5
614
  8
0
 62
     9
 10
0.0
 20
0.0
 30
0.0
 70
   128
 71
   231
 72
   284
 73
   285
  0
VERTEX
  5
615
  8
0
 62
     9
 10
0.0
 20
0.0
 30
0.0
 70
   128
 71
   230
 72
   285
 73
   286
  0
VERTEX
  5
616
  8
0
 62
     9
 10
0.0
 20
0.0
 30
0.0
 70
   128
 71
   289
 72
   288
 73
   287
  0
VERTEX
  5
617
  8
0
 62
     9
 10
0.0
 20
0.0
 30
0.0
 70
   128
 71
   129
 72
   130
 73
   161
  0
VERTEX
  5
618
  8
0
 62
     9
 10
0.0
 20
0.0
 30
0.0
 70
   128
 71
   282
 72
   288
 73
   141
  0
VERTEX
  5
619
  8
0
 62
     9
 10
0.0
 20
0.0
 30
0.0
 70
   128
 71
   131
 72
   283
 73
   130
  0
VERTEX
  5
61A
  8
0
 62
     9
 10
0.0
 20
0.0
 30
0.0
 70
   128
 71
   161
 72
   130
 73
   283
  0
VERTEX
  5
61B
  8
0
 62
     9
 10
0.0
 20
0.0
 30
0.0
 70
   128
 71
   161
 72
   283
 73
   160
  0
VERTEX
  5
61C
  8
0
 62
     9
 10
0.0
 20
0.0
 30
0.0
 70
   128
 71
   290
 72
   282
 73
   283
  0
VERTEX
  5
61D
  8
0
 62
     9
 10
0.0
 20
0.0
 30
0.0
 70
   128
 71
   282
 72
   291
 73
   288
  0
VERTEX
  5
61E
  8
0
 62
     9
 10
0.0
 20
0.0
 30
0.0
 70
   128
 71
   140
 72
   141
 73
   288
  0
VERTEX
  5
61F
  8
0
 62
     9
 10
0.0
 20
0.0
 30
0.0
 70
   128
 71
   230
 72
   231
 73
   285
  0
VERTEX
  5
620
  8
0
 62
     9
 10
0.0
 20
0.0
 30
0.0
 70
   128
 71
   288
 72
   289
 73
   140
  0
VERTEX
  5
621
  8
0
 62
     9
 10
0.0
 20
0.0
 30
0.0
 70
   128
 71
   286
 72
   285
 73
   289
  0
VERTEX
  5
622
  8
0
 62
     9
 10
0.0
 20
0.0
 30
0.0
 70
   128
 71
   232
 72
   284
 73
   233
  0
VERTEX
  5
623
  8
0
 62
     9
 10
0.0
 20
0.0
 30
0.0
 70
   128
 71
   284
 72
   157
 73
   285
  0
VERTEX
  5
624
  8
0
 62
     9
 10
0.0
 20
0.0
 30
0.0
 70
   128
 71
   156
 72
     3
 73
     4
  0
VERTEX
  5
625
  8
0
 62
     9
 10
0.0
 20
0.0
 30
0.0
 70
   128
 71
   232
 72
     3
 73
   284
  0
VERTEX
  5
626
  8
0
 62
     9
 10
0.0
 20
0.0
 30
0.0
 70
   128
 71
   283
 72
   292
 73
   290
  0
VERTEX
  5
627
  8
0
 62
     9
 10
0.0
 20
0.0
 30
0.0
 70
   128
 71
   131
 72
   292
 73
   283
  0
VERTEX
  5
628
  8
0
 62
     9
 10
0.0
 20
0.0
 30
0.0
 70
   128
 71
   160
 72
   282
 73
   141
  0
VERTEX
  5
629
  8
0
 62
     9
 10
0.0
 20
0.0
 30
0.0
 70
   128
 71
   282
 72
   290
 73
   291
  0
VERTEX
  5
62A
  8
0
 62
     9
 10
0.0
 20
0.0
 30
0.0
 70
   128
 71
   159
 72
   140
 73
   289
  0
VERTEX
  5
62B
  8
0
 62
     9
 10
0.0
 20
0.0
 30
0.0
 70
   128
 71
   288
 72
   291
 73
   287
  0
VERTEX
  5
62C
  8
0
 62
     9
 10
0.0
 20
0.0
 30
0.0
 70
   128
 71
   159
 72
   289
 73
   155
  0
VERTEX
  5
62D
  8
0
 62
     9
 10
0.0
 20
0.0
 30
0.0
 70
   128
 71
   289
 72
   287
 73
   286
  0
VERTEX
  5
62E
  8
0
 62
     9
 10
0.0
 20
0.0
 30
0.0
 70
   128
 71
   289
 72
   285
 73
   155
  0
VERTEX
  5
62F
  8
0
 62
     9
 10
0.0
 20
0.0
 30
0.0
 70
   128
 71
   158
 72
   285
 73
   157
  0
VERTEX
  5
630
  8
0
 62
     9
 10
0.0
 20
0.0
 30
0.0
 70
   128
 71
   284
 72
   156
 73
   157
  0
VERTEX
  5
631
  8
0
 62
     9
 10
0.0
 20
0.0
 30
0.0
 70
   128
 71
     3
 72
   156
 73
   284
  0
VERTEX
  5
632
  8
0
 62
     9
 10
0.0
 20
0.0
 30
0.0
 70
   128
 71
    81
 72
    80
 73
   293
  0
VERTEX
  5
633
  8
0
 62
     9
 10
0.0
 20
0.0
 30
0.0
 70
   128
 71
   295
 72
   236
 73
   294
  0
VERTEX
  5
634
  8
0
 62
     9
 10
0.0
 20
0.0
 30
0.0
 70
   128
 71
   296
 72
   228
 73
   295
  0
VERTEX
  5
635
  8
0
 62
     9
 10
0.0
 20
0.0
 30
0.0
 70
   128
 71
   299
 72
   298
 73
   297
  0
VERTEX
  5
636
  8
0
 62
     9
 10
0.0
 20
0.0
 30
0.0
 70
   128
 71
   302
 72
   301
 73
   300
  0
VERTEX
  5
637
  8
0
 62
     9
 10
0.0
 20
0.0
 30
0.0
 70
   128
 71
   301
 72
   302
 73
   299
  0
VERTEX
  5
638
  8
0
 62
     9
 10
0.0
 20
0.0
 30
0.0
 70
   128
 71
    94
 72
    95
 73
   300
  0
VERTEX
  5
639
  8
0
 62
     9
 10
0.0
 20
0.0
 30
0.0
 70
   128
 71
   300
 72
   301
 73
    94
  0
VERTEX
  5
63A
  8
0
 62
     9
 10
0.0
 20
0.0
 30
0.0
 70
   128
 71
   299
 72
   302
 73
   298
  0
VERTEX
  5
63B
  8
0
 62
     9
 10
0.0
 20
0.0
 30
0.0
 70
   128
 71
   298
 72
   294
 73
   234
  0
VERTEX
  5
63C
  8
0
 62
     9
 10
0.0
 20
0.0
 30
0.0
 70
   128
 71
   298
 72
   234
 73
   297
  0
VERTEX
  5
63D
  8
0
 62
     9
 10
0.0
 20
0.0
 30
0.0
 70
   128
 71
   236
 72
   295
 73
   228
  0
VERTEX
  5
63E
  8
0
 62
     9
 10
0.0
 20
0.0
 30
0.0
 70
   128
 71
   294
 72
   236
 73
   234
  0
VERTEX
  5
63F
  8
0
 62
     9
 10
0.0
 20
0.0
 30
0.0
 70
   128
 71
   229
 72
   296
 73
   293
  0
VERTEX
  5
640
  8
0
 62
     9
 10
0.0
 20
0.0
 30
0.0
 70
   128
 71
   296
 72
   229
 73
   228
  0
VERTEX
  5
641
  8
0
 62
     9
 10
0.0
 20
0.0
 30
0.0
 70
   128
 71
   229
 72
   293
 73
    80
  0
VERTEX
  5
642
  8
0
 62
     9
 10
0.0
 20
0.0
 30
0.0
 70
   128
 71
   303
 72
   219
 73
   218
  0
VERTEX
  5
643
  8
0
 62
     9
 10
0.0
 20
0.0
 30
0.0
 70
   128
 71
   305
 72
   304
 73
     5
  0
VERTEX
  5
644
  8
0
 62
     9
 10
0.0
 20
0.0
 30
0.0
 70
   128
 71
   306
 72
   215
 73
   214
  0
VERTEX
  5
645
  8
0
 62
     9
 10
0.0
 20
0.0
 30
0.0
 70
   128
 71
   215
 72
   306
 73
   218
  0
VERTEX
  5
646
  8
0
 62
     9
 10
0.0
 20
0.0
 30
0.0
 70
   128
 71
   214
 72
    11
 73
    12
  0
VERTEX
  5
647
  8
0
 62
     9
 10
0.0
 20
0.0
 30
0.0
 70
   128
 71
   306
 72
   303
 73
   218
  0
VERTEX
  5
648
  8
0
 62
     9
 10
0.0
 20
0.0
 30
0.0
 70
   128
 71
   303
 72
   306
 73
   307
  0
VERTEX
  5
649
  8
0
 62
     9
 10
0.0
 20
0.0
 30
0.0
 70
   128
 71
   259
 72
   252
 73
   308
  0
VERTEX
  5
64A
  8
0
 62
     9
 10
0.0
 20
0.0
 30
0.0
 70
   128
 71
   309
 72
   304
 73
   305
  0
VERTEX
  5
64B
  8
0
 62
     9
 10
0.0
 20
0.0
 30
0.0
 70
   128
 71
   304
 72
   310
 73
     5
  0
VERTEX
  5
64C
  8
0
 62
     9
 10
0.0
 20
0.0
 30
0.0
 70
   128
 71
    67
 72
    68
 73
   257
  0
VERTEX
  5
64D
  8
0
 62
     9
 10
0.0
 20
0.0
 30
0.0
 70
   128
 71
   257
 72
   309
 73
    67
  0
VERTEX
  5
64E
  8
0
 62
     9
 10
0.0
 20
0.0
 30
0.0
 70
   128
 71
   307
 72
    28
 73
     5
  0
VERTEX
  5
64F
  8
0
 62
     9
 10
0.0
 20
0.0
 30
0.0
 70
   128
 71
   305
 72
    67
 73
   309
  0
VERTEX
  5
650
  8
0
 62
     9
 10
0.0
 20
0.0
 30
0.0
 70
   128
 71
   310
 72
   307
 73
     5
  0
VERTEX
  5
651
  8
0
 62
     9
 10
0.0
 20
0.0
 30
0.0
 70
   128
 71
    28
 72
   306
 73
    12
  0
VERTEX
  5
652
  8
0
 62
     9
 10
0.0
 20
0.0
 30
0.0
 70
   128
 71
   308
 72
   252
 73
   303
  0
VERTEX
  5
653
  8
0
 62
     9
 10
0.0
 20
0.0
 30
0.0
 70
   128
 71
   310
 72
   304
 73
   308
  0
VERTEX
  5
654
  8
0
 62
     9
 10
0.0
 20
0.0
 30
0.0
 70
   128
 71
   303
 72
   310
 73
   308
  0
VERTEX
  5
655
  8
0
 62
     9
 10
0.0
 20
0.0
 30
0.0
 70
   128
 71
   304
 72
   309
 73
   308
  0
VERTEX
  5
656
  8
0
 62
     9
 10
0.0
 20
0.0
 30
0.0
 70
   128
 71
   305
 72
    56
 73
    67
  0
VERTEX
  5
657
  8
0
 62
     9
 10
0.0
 20
0.0
 30
0.0
 70
   128
 71
    56
 72
   305
 73
     5
  0
VERTEX
  5
658
  8
0
 62
     9
 10
0.0
 20
0.0
 30
0.0
 70
   128
 71
   307
 72
   306
 73
    28
  0
VERTEX
  5
659
  8
0
 62
     9
 10
0.0
 20
0.0
 30
0.0
 70
   128
 71
    12
 72
   306
 73
   214
  0
VERTEX
  5
65A
  8
0
 62
     9
 10
0.0
 20
0.0
 30
0.0
 70
   128
 71
   219
 72
   303
 73
   252
  0
VERTEX
  5
65B
  8
0
 62
     9
 10
0.0
 20
0.0
 30
0.0
 70
   128
 71
   310
 72
   303
 73
   307
  0
VERTEX
  5
65C
  8
0
 62
     9
 10
0.0
 20
0.0
 30
0.0
 70
   128
 71
   308
 72
   249
 73
   259
  0
VERTEX
  5
65D
  8
0
 62
     9
 10
0.0
 20
0.0
 30
0.0
 70
   128
 71
   249
 72
   308
 73
   248
  0
VERTEX
  5
65E
  8
0
 62
     9
 10
0.0
 20
0.0
 30
0.0
 70
   128
 71
   309
 72
   248
 73
   308
  0
VERTEX
  5
65F
  8
0
 62
     9
 10
0.0
 20
0.0
 30
0.0
 70
   128
 71
   248
 72
   309
 73
   257
  0
VERTEX
  5
660
  8
0
 62
     9
 10
0.0
 20
0.0
 30
0.0
 70
   128
 71
   312
 72
   255
 73
   311
  0
VERTEX
  5
661
  8
0
 62
     9
 10
0.0
 20
0.0
 30
0.0
 70
   128
 71
    65
 72
    66
 73
   313
  0
VERTEX
  5
662
  8
0
 62
     9
 10
0.0
 20
0.0
 30
0.0
 70
   128
 71
   311
 72
   315
 73
   314
  0
VERTEX
  5
663
  8
0
 62
     9
 10
0.0
 20
0.0
 30
0.0
 70
   128
 71
   197
 72
    60
 73
    61
  0
VERTEX
  5
664
  8
0
 62
     9
 10
0.0
 20
0.0
 30
0.0
 70
   128
 71
   315
 72
   311
 73
    52
  0
VERTEX
  5
665
  8
0
 62
     9
 10
0.0
 20
0.0
 30
0.0
 70
   128
 71
   191
 72
   316
 73
   197
  0
VERTEX
  5
666
  8
0
 62
     9
 10
0.0
 20
0.0
 30
0.0
 70
   128
 71
   197
 72
   316
 73
    60
  0
VERTEX
  5
667
  8
0
 62
     9
 10
0.0
 20
0.0
 30
0.0
 70
   128
 71
    66
 72
   316
 73
   313
  0
VERTEX
  5
668
  8
0
 62
     9
 10
0.0
 20
0.0
 30
0.0
 70
   128
 71
    60
 72
   316
 73
    66
  0
VERTEX
  5
669
  8
0
 62
     9
 10
0.0
 20
0.0
 30
0.0
 70
   128
 71
   315
 72
    53
 73
   317
  0
VERTEX
  5
66A
  8
0
 62
     9
 10
0.0
 20
0.0
 30
0.0
 70
   128
 71
    65
 72
   313
 73
   317
  0
VERTEX
  5
66B
  8
0
 62
     9
 10
0.0
 20
0.0
 30
0.0
 70
   128
 71
   314
 72
   312
 73
   311
  0
VERTEX
  5
66C
  8
0
 62
     9
 10
0.0
 20
0.0
 30
0.0
 70
   128
 71
    53
 72
    65
 73
   317
  0
VERTEX
  5
66D
  8
0
 62
     9
 10
0.0
 20
0.0
 30
0.0
 70
   128
 71
    68
 72
   311
 73
   256
  0
VERTEX
  5
66E
  8
0
 62
     9
 10
0.0
 20
0.0
 30
0.0
 70
   128
 71
    52
 72
   311
 73
    68
  0
VERTEX
  5
66F
  8
0
 62
     9
 10
0.0
 20
0.0
 30
0.0
 70
   128
 71
   256
 72
   311
 73
   255
  0
VERTEX
  5
670
  8
0
 62
     9
 10
0.0
 20
0.0
 30
0.0
 70
   128
 71
   314
 72
   315
 73
   318
  0
VERTEX
  5
671
  8
0
 62
     9
 10
0.0
 20
0.0
 30
0.0
 70
   128
 71
    53
 72
   315
 73
    52
  0
VERTEX
  5
672
  8
0
 62
     9
 10
0.0
 20
0.0
 30
0.0
 70
   128
 71
   317
 72
   318
 73
   315
  0
VERTEX
  5
673
  8
0
 62
     9
 10
0.0
 20
0.0
 30
0.0
 70
   128
 71
   318
 72
   317
 73
   319
  0
VERTEX
  5
674
  8
0
 62
     9
 10
0.0
 20
0.0
 30
0.0
 70
   128
 71
   313
 72
   319
 73
   317
  0
VERTEX
  5
675
  8
0
 62
     9
 10
0.0
 20
0.0
 30
0.0
 70
   128
 71
   319
 72
   313
 73
   320
  0
VERTEX
  5
676
  8
0
 62
     9
 10
0.0
 20
0.0
 30
0.0
 70
   128
 71
   316
 72
   320
 73
   313
  0
VERTEX
  5
677
  8
0
 62
     9
 10
0.0
 20
0.0
 30
0.0
 70
   128
 71
   191
 72
   320
 73
   316
  0
VERTEX
  5
678
  8
0
 62
     9
 10
0.0
 20
0.0
 30
0.0
 70
   128
 71
   145
 72
   146
 73
   321
  0
VERTEX
  5
679
  8
0
 62
     9
 10
0.0
 20
0.0
 30
0.0
 70
   128
 71
   149
 72
   151
 73
   322
  0
VERTEX
  5
67A
  8
0
 62
     9
 10
0.0
 20
0.0
 30
0.0
 70
   128
 71
   321
 72
   146
 73
   323
  0
VERTEX
  5
67B
  8
0
 62
     9
 10
0.0
 20
0.0
 30
0.0
 70
   128
 71
   321
 72
   324
 73
   190
  0
VERTEX
  5
67C
  8
0
 62
     9
 10
0.0
 20
0.0
 30
0.0
 70
   128
 71
   325
 72
   322
 73
   153
  0
VERTEX
  5
67D
  8
0
 62
     9
 10
0.0
 20
0.0
 30
0.0
 70
   128
 71
   143
 72
   148
 73
   326
  0
VERTEX
  5
67E
  8
0
 62
     9
 10
0.0
 20
0.0
 30
0.0
 70
   128
 71
   154
 72
   327
 73
   152
  0
VERTEX
  5
67F
  8
0
 62
     9
 10
0.0
 20
0.0
 30
0.0
 70
   128
 71
   328
 72
   269
 73
   322
  0
VERTEX
  5
680
  8
0
 62
     9
 10
0.0
 20
0.0
 30
0.0
 70
   128
 71
   325
 72
   152
 73
   327
  0
VERTEX
  5
681
  8
0
 62
     9
 10
0.0
 20
0.0
 30
0.0
 70
   128
 71
   329
 72
   325
 73
   327
  0
VERTEX
  5
682
  8
0
 62
     9
 10
0.0
 20
0.0
 30
0.0
 70
   128
 71
   328
 72
   322
 73
   325
  0
VERTEX
  5
683
  8
0
 62
     9
 10
0.0
 20
0.0
 30
0.0
 70
   128
 71
   329
 72
   327
 73
     2
  0
VERTEX
  5
684
  8
0
 62
     9
 10
0.0
 20
0.0
 30
0.0
 70
   128
 71
   149
 72
   330
 73
   150
  0
VERTEX
  5
685
  8
0
 62
     9
 10
0.0
 20
0.0
 30
0.0
 70
   128
 71
   322
 72
   330
 73
   149
  0
VERTEX
  5
686
  8
0
 62
     9
 10
0.0
 20
0.0
 30
0.0
 70
   128
 71
   151
 72
   153
 73
   322
  0
VERTEX
  5
687
  8
0
 62
     9
 10
0.0
 20
0.0
 30
0.0
 70
   128
 71
   148
 72
   330
 73
   326
  0
VERTEX
  5
688
  8
0
 62
     9
 10
0.0
 20
0.0
 30
0.0
 70
   128
 71
   330
 72
   148
 73
   150
  0
VERTEX
  5
689
  8
0
 62
     9
 10
0.0
 20
0.0
 30
0.0
 70
   128
 71
   323
 72
   143
 73
   326
  0
VERTEX
  5
68A
  8
0
 62
     9
 10
0.0
 20
0.0
 30
0.0
 70
   128
 71
   331
 72
   321
 73
   323
  0
VERTEX
  5
68B
  8
0
 62
     9
 10
0.0
 20
0.0
 30
0.0
 70
   128
 71
   143
 72
   323
 73
   146
  0
VERTEX
  5
68C
  8
0
 62
     9
 10
0.0
 20
0.0
 30
0.0
 70
   128
 71
   145
 72
   188
 73
   142
  0
VERTEX
  5
68D
  8
0
 62
     9
 10
0.0
 20
0.0
 30
0.0
 70
   128
 71
   321
 72
   190
 73
   188
  0
VERTEX
  5
68E
  8
0
 62
     9
 10
0.0
 20
0.0
 30
0.0
 70
   128
 71
   145
 72
   321
 73
   188
  0
VERTEX
  5
68F
  8
0
 62
     9
 10
0.0
 20
0.0
 30
0.0
 70
   128
 71
   321
 72
   331
 73
   324
  0
VERTEX
  5
690
  8
0
 62
     9
 10
0.0
 20
0.0
 30
0.0
 70
   128
 71
   323
 72
   332
 73
   331
  0
VERTEX
  5
691
  8
0
 62
     9
 10
0.0
 20
0.0
 30
0.0
 70
   128
 71
   323
 72
   326
 73
   332
  0
VERTEX
  5
692
  8
0
 62
     9
 10
0.0
 20
0.0
 30
0.0
 70
   128
 71
   326
 72
   333
 73
   332
  0
VERTEX
  5
693
  8
0
 62
     9
 10
0.0
 20
0.0
 30
0.0
 70
   128
 71
   330
 72
   333
 73
   326
  0
VERTEX
  5
694
  8
0
 62
     9
 10
0.0
 20
0.0
 30
0.0
 70
   128
 71
   330
 72
   334
 73
   333
  0
VERTEX
  5
695
  8
0
 62
     9
 10
0.0
 20
0.0
 30
0.0
 70
   128
 71
   269
 72
   334
 73
   322
  0
VERTEX
  5
696
  8
0
 62
     9
 10
0.0
 20
0.0
 30
0.0
 70
   128
 71
   330
 72
   322
 73
   334
  0
VERTEX
  5
697
  8
0
 62
     9
 10
0.0
 20
0.0
 30
0.0
 70
   128
 71
   325
 72
   335
 73
   328
  0
VERTEX
  5
698
  8
0
 62
     9
 10
0.0
 20
0.0
 30
0.0
 70
   128
 71
   335
 72
   325
 73
   329
  0
VERTEX
  5
699
  8
0
 62
     9
 10
0.0
 20
0.0
 30
0.0
 70
   128
 71
   325
 72
   153
 73
   152
  0
VERTEX
  5
69A
  8
0
 62
     9
 10
0.0
 20
0.0
 30
0.0
 70
   128
 71
   244
 72
   245
 73
   336
  0
VERTEX
  5
69B
  8
0
 62
     9
 10
0.0
 20
0.0
 30
0.0
 70
   128
 71
   337
 72
   300
 73
    95
  0
VERTEX
  5
69C
  8
0
 62
     9
 10
0.0
 20
0.0
 30
0.0
 70
   128
 71
   338
 72
   302
 73
   300
  0
VERTEX
  5
69D
  8
0
 62
     9
 10
0.0
 20
0.0
 30
0.0
 70
   128
 71
   244
 72
   336
 73
   338
  0
VERTEX
  5
69E
  8
0
 62
     9
 10
0.0
 20
0.0
 30
0.0
 70
   128
 71
   337
 72
    95
 73
   339
  0
VERTEX
  5
69F
  8
0
 62
     9
 10
0.0
 20
0.0
 30
0.0
 70
   128
 71
   339
 72
   241
 73
   242
  0
VERTEX
  5
6A0
  8
0
 62
     9
 10
0.0
 20
0.0
 30
0.0
 70
   128
 71
   298
 72
   302
 73
   336
  0
VERTEX
  5
6A1
  8
0
 62
     9
 10
0.0
 20
0.0
 30
0.0
 70
   128
 71
   337
 72
   338
 73
   300
  0
VERTEX
  5
6A2
  8
0
 62
     9
 10
0.0
 20
0.0
 30
0.0
 70
   128
 71
   298
 72
   340
 73
   294
  0
VERTEX
  5
6A3
  8
0
 62
     9
 10
0.0
 20
0.0
 30
0.0
 70
   128
 71
   338
 72
   243
 73
   244
  0
VERTEX
  5
6A4
  8
0
 62
     9
 10
0.0
 20
0.0
 30
0.0
 70
   128
 71
   336
 72
   340
 73
   298
  0
VERTEX
  5
6A5
  8
0
 62
     9
 10
0.0
 20
0.0
 30
0.0
 70
   128
 71
   340
 72
   336
 73
   245
  0
VERTEX
  5
6A6
  8
0
 62
     9
 10
0.0
 20
0.0
 30
0.0
 70
   128
 71
   337
 72
   242
 73
   243
  0
VERTEX
  5
6A7
  8
0
 62
     9
 10
0.0
 20
0.0
 30
0.0
 70
   128
 71
   338
 72
   336
 73
   302
  0
VERTEX
  5
6A8
  8
0
 62
     9
 10
0.0
 20
0.0
 30
0.0
 70
   128
 71
   338
 72
   337
 73
   243
  0
VERTEX
  5
6A9
  8
0
 62
     9
 10
0.0
 20
0.0
 30
0.0
 70
   128
 71
   242
 72
   337
 73
   339
  0
VERTEX
  5
6AA
  8
0
 62
     9
 10
0.0
 20
0.0
 30
0.0
 70
   128
 71
   341
 72
   295
 73
   294
  0
VERTEX
  5
6AB
  8
0
 62
     9
 10
0.0
 20
0.0
 30
0.0
 70
   128
 71
   344
 72
   343
 73
   342
  0
VERTEX
  5
6AC
  8
0
 62
     9
 10
0.0
 20
0.0
 30
0.0
 70
   128
 71
   343
 72
   344
 73
   279
  0
VERTEX
  5
6AD
  8
0
 62
     9
 10
0.0
 20
0.0
 30
0.0
 70
   128
 71
   296
 72
   342
 73
   343
  0
VERTEX
  5
6AE
  8
0
 62
     9
 10
0.0
 20
0.0
 30
0.0
 70
   128
 71
   293
 72
   275
 73
    81
  0
VERTEX
  5
6AF
  8
0
 62
     9
 10
0.0
 20
0.0
 30
0.0
 70
   128
 71
   279
 72
   275
 73
   343
  0
VERTEX
  5
6B0
  8
0
 62
     9
 10
0.0
 20
0.0
 30
0.0
 70
   128
 71
   340
 72
   245
 73
   345
  0
VERTEX
  5
6B1
  8
0
 62
     9
 10
0.0
 20
0.0
 30
0.0
 70
   128
 71
   275
 72
   293
 73
   343
  0
VERTEX
  5
6B2
  8
0
 62
     9
 10
0.0
 20
0.0
 30
0.0
 70
   128
 71
   295
 72
   341
 73
   342
  0
VERTEX
  5
6B3
  8
0
 62
     9
 10
0.0
 20
0.0
 30
0.0
 70
   128
 71
   341
 72
   346
 73
   342
  0
VERTEX
  5
6B4
  8
0
 62
     9
 10
0.0
 20
0.0
 30
0.0
 70
   128
 71
   346
 72
   344
 73
   342
  0
VERTEX
  5
6B5
  8
0
 62
     9
 10
0.0
 20
0.0
 30
0.0
 70
   128
 71
   343
 72
   293
 73
   296
  0
VERTEX
  5
6B6
  8
0
 62
     9
 10
0.0
 20
0.0
 30
0.0
 70
   128
 71
   345
 72
   346
 73
   341
  0
VERTEX
  5
6B7
  8
0
 62
     9
 10
0.0
 20
0.0
 30
0.0
 70
   128
 71
   342
 72
   296
 73
   295
  0
VERTEX
  5
6B8
  8
0
 62
     9
 10
0.0
 20
0.0
 30
0.0
 70
   128
 71
   341
 72
   340
 73
   345
  0
VERTEX
  5
6B9
  8
0
 62
     9
 10
0.0
 20
0.0
 30
0.0
 70
   128
 71
   340
 72
   341
 73
   294
  0
VERTEX
  5
6BA
  8
0
 62
     9
 10
0.0
 20
0.0
 30
0.0
 70
   128
 71
   272
 72
   269
 73
   328
  0
VERTEX
  5
6BB
  8
0
 62
     9
 10
0.0
 20
0.0
 30
0.0
 70
   128
 71
   328
 72
   335
 73
   347
  0
VERTEX
  5
6BC
  8
0
 62
     9
 10
0.0
 20
0.0
 30
0.0
 70
   128
 71
    83
 72
   347
 73
   348
  0
VERTEX
  5
6BD
  8
0
 62
     9
 10
0.0
 20
0.0
 30
0.0
 70
   128
 71
   349
 72
   329
 73
     2
  0
VERTEX
  5
6BE
  8
0
 62
     9
 10
0.0
 20
0.0
 30
0.0
 70
   128
 71
   347
 72
    76
 73
   272
  0
VERTEX
  5
6BF
  8
0
 62
     9
 10
0.0
 20
0.0
 30
0.0
 70
   128
 71
   272
 72
    76
 73
    74
  0
VERTEX
  5
6C0
  8
0
 62
     9
 10
0.0
 20
0.0
 30
0.0
 70
   128
 71
   348
 72
   329
 73
   349
  0
VERTEX
  5
6C1
  8
0
 62
     9
 10
0.0
 20
0.0
 30
0.0
 70
   128
 71
    78
 72
   349
 73
   224
  0
VERTEX
  5
6C2
  8
0
 62
     9
 10
0.0
 20
0.0
 30
0.0
 70
   128
 71
   348
 72
   335
 73
   329
  0
VERTEX
  5
6C3
  8
0
 62
     9
 10
0.0
 20
0.0
 30
0.0
 70
   128
 71
   347
 72
    83
 73
    76
  0
VERTEX
  5
6C4
  8
0
 62
     9
 10
0.0
 20
0.0
 30
0.0
 70
   128
 71
    71
 72
   348
 73
   349
  0
VERTEX
  5
6C5
  8
0
 62
     9
 10
0.0
 20
0.0
 30
0.0
 70
   128
 71
    80
 72
    78
 73
   224
  0
VERTEX
  5
6C6
  8
0
 62
     9
 10
0.0
 20
0.0
 30
0.0
 70
   128
 71
   348
 72
    72
 73
    83
  0
VERTEX
  5
6C7
  8
0
 62
     9
 10
0.0
 20
0.0
 30
0.0
 70
   128
 71
   328
 72
   347
 73
   272
  0
VERTEX
  5
6C8
  8
0
 62
     9
 10
0.0
 20
0.0
 30
0.0
 70
   128
 71
    71
 72
    72
 73
   348
  0
VERTEX
  5
6C9
  8
0
 62
     9
 10
0.0
 20
0.0
 30
0.0
 70
   128
 71
   348
 72
   347
 73
   335
  0
VERTEX
  5
6CA
  8
0
 62
     9
 10
0.0
 20
0.0
 30
0.0
 70
   128
 71
    71
 72
   349
 73
    78
  0
VERTEX
  5
6CB
  8
0
 62
     9
 10
0.0
 20
0.0
 30
0.0
 70
   128
 71
   224
 72
   349
 73
     2
  0
VERTEX
  5
6CC
  8
0
 62
     9
 10
0.0
 20
0.0
 30
0.0
 70
   128
 71
   350
 72
    87
 73
    75
  0
VERTEX
  5
6CD
  8
0
 62
     9
 10
0.0
 20
0.0
 30
0.0
 70
   128
 71
    86
 72
   350
 73
   351
  0
VERTEX
  5
6CE
  8
0
 62
     9
 10
0.0
 20
0.0
 30
0.0
 70
   128
 71
   239
 72
   352
 73
   351
  0
VERTEX
  5
6CF
  8
0
 62
     9
 10
0.0
 20
0.0
 30
0.0
 70
   128
 71
    92
 72
   351
 73
    90
  0
VERTEX
  5
6D0
  8
0
 62
     9
 10
0.0
 20
0.0
 30
0.0
 70
   128
 71
   352
 72
   339
 73
    96
  0
VERTEX
  5
6D1
  8
0
 62
     9
 10
0.0
 20
0.0
 30
0.0
 70
   128
 71
   241
 72
   352
 73
   239
  0
VERTEX
  5
6D2
  8
0
 62
     9
 10
0.0
 20
0.0
 30
0.0
 70
   128
 71
    96
 72
   339
 73
    95
  0
VERTEX
  5
6D3
  8
0
 62
     9
 10
0.0
 20
0.0
 30
0.0
 70
   128
 71
   241
 72
   339
 73
   352
  0
VERTEX
  5
6D4
  8
0
 62
     9
 10
0.0
 20
0.0
 30
0.0
 70
   128
 71
   237
 72
   281
 73
   240
  0
VERTEX
  5
6D5
  8
0
 62
     9
 10
0.0
 20
0.0
 30
0.0
 70
   128
 71
   351
 72
   352
 73
    90
  0
VERTEX
  5
6D6
  8
0
 62
     9
 10
0.0
 20
0.0
 30
0.0
 70
   128
 71
   281
 72
   350
 73
    75
  0
VERTEX
  5
6D7
  8
0
 62
     9
 10
0.0
 20
0.0
 30
0.0
 70
   128
 71
    87
 72
   350
 73
    86
  0
VERTEX
  5
6D8
  8
0
 62
     9
 10
0.0
 20
0.0
 30
0.0
 70
   128
 71
   351
 72
   238
 73
   239
  0
VERTEX
  5
6D9
  8
0
 62
     9
 10
0.0
 20
0.0
 30
0.0
 70
   128
 71
    90
 72
   352
 73
    96
  0
VERTEX
  5
6DA
  8
0
 62
     9
 10
0.0
 20
0.0
 30
0.0
 70
   128
 71
   237
 72
   238
 73
   350
  0
VERTEX
  5
6DB
  8
0
 62
     9
 10
0.0
 20
0.0
 30
0.0
 70
   128
 71
   351
 72
    92
 73
    86
  0
VERTEX
  5
6DC
  8
0
 62
     9
 10
0.0
 20
0.0
 30
0.0
 70
   128
 71
   351
 72
   350
 73
   238
  0
VERTEX
  5
6DD
  8
0
 62
     9
 10
0.0
 20
0.0
 30
0.0
 70
   128
 71
   237
 72
   350
 73
   281
  0
VERTEX
  5
6DE
  8
0
 62
     9
 10
0.0
 20
0.0
 30
0.0
 70
   128
 71
   235
 72
   230
 73
   353
  0
VERTEX
  5
6DF
  8
0
 62
     9
 10
0.0
 20
0.0
 30
0.0
 70
   128
 71
   356
 72
   355
 73
   354
  0
VERTEX
  5
6E0
  8
0
 62
     9
 10
0.0
 20
0.0
 30
0.0
 70
   128
 71
   356
 72
   357
 73
   355
  0
VERTEX
  5
6E1
  8
0
 62
     9
 10
0.0
 20
0.0
 30
0.0
 70
   128
 71
   358
 72
   357
 73
   264
  0
VERTEX
  5
6E2
  8
0
 62
     9
 10
0.0
 20
0.0
 30
0.0
 70
   128
 71
   354
 72
   234
 73
   235
  0
VERTEX
  5
6E3
  8
0
 62
     9
 10
0.0
 20
0.0
 30
0.0
 70
   128
 71
   234
 72
   354
 73
   297
  0
VERTEX
  5
6E4
  8
0
 62
     9
 10
0.0
 20
0.0
 30
0.0
 70
   128
 71
    94
 72
   301
 73
   265
  0
VERTEX
  5
6E5
  8
0
 62
     9
 10
0.0
 20
0.0
 30
0.0
 70
   128
 71
   358
 72
   299
 73
   355
  0
VERTEX
  5
6E6
  8
0
 62
     9
 10
0.0
 20
0.0
 30
0.0
 70
   128
 71
   353
 72
   356
 73
   354
  0
VERTEX
  5
6E7
  8
0
 62
     9
 10
0.0
 20
0.0
 30
0.0
 70
   128
 71
   357
 72
   358
 73
   355
  0
VERTEX
  5
6E8
  8
0
 62
     9
 10
0.0
 20
0.0
 30
0.0
 70
   128
 71
   355
 72
   299
 73
   297
  0
VERTEX
  5
6E9
  8
0
 62
     9
 10
0.0
 20
0.0
 30
0.0
 70
   128
 71
   354
 72
   235
 73
   353
  0
VERTEX
  5
6EA
  8
0
 62
     9
 10
0.0
 20
0.0
 30
0.0
 70
   128
 71
   354
 72
   355
 73
   297
  0
VERTEX
  5
6EB
  8
0
 62
     9
 10
0.0
 20
0.0
 30
0.0
 70
   128
 71
   358
 72
   301
 73
   299
  0
VERTEX
  5
6EC
  8
0
 62
     9
 10
0.0
 20
0.0
 30
0.0
 70
   128
 71
   358
 72
   265
 73
   301
  0
VERTEX
  5
6ED
  8
0
 62
     9
 10
0.0
 20
0.0
 30
0.0
 70
   128
 71
   265
 72
   358
 73
   264
  0
VERTEX
  5
6EE
  8
0
 62
     9
 10
0.0
 20
0.0
 30
0.0
 70
   128
 71
   245
 72
   280
 73
   278
  0
VERTEX
  5
6EF
  8
0
 62
     9
 10
0.0
 20
0.0
 30
0.0
 70
   128
 71
   245
 72
   344
 73
   345
  0
VERTEX
  5
6F0
  8
0
 62
     9
 10
0.0
 20
0.0
 30
0.0
 70
   128
 71
   344
 72
   346
 73
   345
  0
VERTEX
  5
6F1
  8
0
 62
     9
 10
0.0
 20
0.0
 30
0.0
 70
   128
 71
   245
 72
   279
 73
   344
  0
VERTEX
  5
6F2
  8
0
 62
     9
 10
0.0
 20
0.0
 30
0.0
 70
   128
 71
   280
 72
   245
 73
   274
  0
VERTEX
  5
6F3
  8
0
 62
     9
 10
0.0
 20
0.0
 30
0.0
 70
   128
 71
   245
 72
   278
 73
   279
  0
VERTEX
  5
6F4
  8
0
 62
     9
 10
0.0
 20
0.0
 30
0.0
 70
   128
 71
   240
 72
   274
 73
   245
  0
VERTEX
  5
6F5
  8
0
 62
     9
 10
0.0
 20
0.0
 30
0.0
 70
   128
 71
   331
 72
   332
 73
   359
  0
VERTEX
  5
6F6
  8
0
 62
     9
 10
0.0
 20
0.0
 30
0.0
 70
   128
 71
   320
 72
   191
 73
   189
  0
VERTEX
  5
6F7
  8
0
 62
     9
 10
0.0
 20
0.0
 30
0.0
 70
   128
 71
   324
 72
   331
 73
   360
  0
VERTEX
  5
6F8
  8
0
 62
     9
 10
0.0
 20
0.0
 30
0.0
 70
   128
 71
   189
 72
   360
 73
   320
  0
VERTEX
  5
6F9
  8
0
 62
     9
 10
0.0
 20
0.0
 30
0.0
 70
   128
 71
   359
 72
   360
 73
   331
  0
VERTEX
  5
6FA
  8
0
 62
     9
 10
0.0
 20
0.0
 30
0.0
 70
   128
 71
   190
 72
   324
 73
   189
  0
VERTEX
  5
6FB
  8
0
 62
     9
 10
0.0
 20
0.0
 30
0.0
 70
   128
 71
   333
 72
   361
 73
   332
  0
VERTEX
  5
6FC
  8
0
 62
     9
 10
0.0
 20
0.0
 30
0.0
 70
   128
 71
   332
 72
   361
 73
   359
  0
VERTEX
  5
6FD
  8
0
 62
     9
 10
0.0
 20
0.0
 30
0.0
 70
   128
 71
   361
 72
   333
 73
   362
  0
VERTEX
  5
6FE
  8
0
 62
     9
 10
0.0
 20
0.0
 30
0.0
 70
   128
 71
   362
 72
   334
 73
   270
  0
VERTEX
  5
6FF
  8
0
 62
     9
 10
0.0
 20
0.0
 30
0.0
 70
   128
 71
   362
 72
   267
 73
   312
  0
VERTEX
  5
700
  8
0
 62
     9
 10
0.0
 20
0.0
 30
0.0
 70
   128
 71
   263
 72
   264
 73
   255
  0
VERTEX
  5
701
  8
0
 62
     9
 10
0.0
 20
0.0
 30
0.0
 70
   128
 71
   312
 72
   263
 73
   255
  0
VERTEX
  5
702
  8
0
 62
     9
 10
0.0
 20
0.0
 30
0.0
 70
   128
 71
   333
 72
   334
 73
   362
  0
VERTEX
  5
703
  8
0
 62
     9
 10
0.0
 20
0.0
 30
0.0
 70
   128
 71
   267
 72
   263
 73
   312
  0
VERTEX
  5
704
  8
0
 62
     9
 10
0.0
 20
0.0
 30
0.0
 70
   128
 71
   270
 72
   334
 73
   269
  0
VERTEX
  5
705
  8
0
 62
     9
 10
0.0
 20
0.0
 30
0.0
 70
   128
 71
   324
 72
   360
 73
   189
  0
VERTEX
  5
706
  8
0
 62
     9
 10
0.0
 20
0.0
 30
0.0
 70
   128
 71
   320
 72
   360
 73
   319
  0
VERTEX
  5
707
  8
0
 62
     9
 10
0.0
 20
0.0
 30
0.0
 70
   128
 71
   359
 72
   319
 73
   360
  0
VERTEX
  5
708
  8
0
 62
     9
 10
0.0
 20
0.0
 30
0.0
 70
   128
 71
   319
 72
   359
 73
   318
  0
VERTEX
  5
709
  8
0
 62
     9
 10
0.0
 20
0.0
 30
0.0
 70
   128
 71
   361
 72
   318
 73
   359
  0
VERTEX
  5
70A
  8
0
 62
     9
 10
0.0
 20
0.0
 30
0.0
 70
   128
 71
   318
 72
   361
 73
   314
  0
VERTEX
  5
70B
  8
0
 62
     9
 10
0.0
 20
0.0
 30
0.0
 70
   128
 71
   362
 72
   314
 73
   361
  0
VERTEX
  5
70C
  8
0
 62
     9
 10
0.0
 20
0.0
 30
0.0
 70
   128
 71
   312
 72
   314
 73
   362
  0
VERTEX
  5
70D
  8
0
 62
     9
 10
0.0
 20
0.0
 30
0.0
 70
   128
 71
   362
 72
   270
 73
   267
  0
VERTEX
  5
70E
  8
0
 62
     9
 10
0.0
 20
0.0
 30
0.0
 70
   128
 71
   154
 72
     1
 73
   327
  0
VERTEX
  5
70F
  8
0
 62
     9
 10
0.0
 20
0.0
 30
0.0
 70
   128
 71
     2
 72
   327
 73
     1
  0
VERTEX
  5
710
  8
0
 62
     9
 10
0.0
 20
0.0
 30
0.0
 70
   128
 71
   262
 72
   255
 73
   357
  0
VERTEX
  5
711
  8
0
 62
     9
 10
0.0
 20
0.0
 30
0.0
 70
   128
 71
   364
 72
   363
 73
   261
  0
VERTEX
  5
712
  8
0
 62
     9
 10
0.0
 20
0.0
 30
0.0
 70
   128
 71
   365
 72
   292
 73
   133
  0
VERTEX
  5
713
  8
0
 62
     9
 10
0.0
 20
0.0
 30
0.0
 70
   128
 71
   365
 72
   290
 73
   292
  0
VERTEX
  5
714
  8
0
 62
     9
 10
0.0
 20
0.0
 30
0.0
 70
   128
 71
   246
 72
   133
 73
   132
  0
VERTEX
  5
715
  8
0
 62
     9
 10
0.0
 20
0.0
 30
0.0
 70
   128
 71
   131
 72
   133
 73
   292
  0
VERTEX
  5
716
  8
0
 62
     9
 10
0.0
 20
0.0
 30
0.0
 70
   128
 71
   290
 72
   365
 73
   366
  0
VERTEX
  5
717
  8
0
 62
     9
 10
0.0
 20
0.0
 30
0.0
 70
   128
 71
   363
 72
   291
 73
   366
  0
VERTEX
  5
718
  8
0
 62
     9
 10
0.0
 20
0.0
 30
0.0
 70
   128
 71
   363
 72
   364
 73
   287
  0
VERTEX
  5
719
  8
0
 62
     9
 10
0.0
 20
0.0
 30
0.0
 70
   128
 71
   290
 72
   366
 73
   291
  0
VERTEX
  5
71A
  8
0
 62
     9
 10
0.0
 20
0.0
 30
0.0
 70
   128
 71
   286
 72
   353
 73
   230
  0
VERTEX
  5
71B
  8
0
 62
     9
 10
0.0
 20
0.0
 30
0.0
 70
   128
 71
   364
 72
   286
 73
   287
  0
VERTEX
  5
71C
  8
0
 62
     9
 10
0.0
 20
0.0
 30
0.0
 70
   128
 71
   356
 72
   262
 73
   357
  0
VERTEX
  5
71D
  8
0
 62
     9
 10
0.0
 20
0.0
 30
0.0
 70
   128
 71
   364
 72
   261
 73
   262
  0
VERTEX
  5
71E
  8
0
 62
     9
 10
0.0
 20
0.0
 30
0.0
 70
   128
 71
   264
 72
   357
 73
   255
  0
VERTEX
  5
71F
  8
0
 62
     9
 10
0.0
 20
0.0
 30
0.0
 70
   128
 71
   364
 72
   356
 73
   353
  0
VERTEX
  5
720
  8
0
 62
     9
 10
0.0
 20
0.0
 30
0.0
 70
   128
 71
   262
 72
   356
 73
   364
  0
VERTEX
  5
721
  8
0
 62
     9
 10
0.0
 20
0.0
 30
0.0
 70
   128
 71
   363
 72
   260
 73
   261
  0
VERTEX
  5
722
  8
0
 62
     9
 10
0.0
 20
0.0
 30
0.0
 70
   128
 71
   364
 72
   353
 73
   286
  0
VERTEX
  5
723
  8
0
 62
     9
 10
0.0
 20
0.0
 30
0.0
 70
   128
 71
   254
 72
   260
 73
   366
  0
VERTEX
  5
724
  8
0
 62
     9
 10
0.0
 20
0.0
 30
0.0
 70
   128
 71
   363
 72
   287
 73
   291
  0
VERTEX
  5
725
  8
0
 62
     9
 10
0.0
 20
0.0
 30
0.0
 70
   128
 71
   363
 72
   366
 73
   260
  0
VERTEX
  5
726
  8
0
 62
     9
 10
0.0
 20
0.0
 30
0.0
 70
   128
 71
   246
 72
   254
 73
   365
  0
VERTEX
  5
727
  8
0
 62
     9
 10
0.0
 20
0.0
 30
0.0
 70
   128
 71
   366
 72
   365
 73
   254
  0
VERTEX
  5
728
  8
0
 62
     9
 10
0.0
 20
0.0
 30
0.0
 70
   128
 71
   246
 72
   365
 73
   133
  0
SEQEND
  5
729
  8
0
  0
ENDBLK
  5
72C
  8
0
  0
BLOCK
  8
0
  2
42
 70
     0
 10
0.0
 20
0.0
 30
0.0
  3
42
  1

  0
POLYLINE
  5
72E
  8
0
 62
     9
 66
     1
 10
0.0
 20
0.0
 30
0.0
 70
    64
 71
   106
 72
   188
  0
VERTEX
  5
72F
  8
0
 10
-3.060351610183716
 20
-11.35168647766113
 30
177.5
 70
   192
  0
VERTEX
  5
730
  8
0
 10
-6.962271690368652
 20
-12.87050628662109
 30
19.5
 70
   192
  0
VERTEX
  5
731
  8
0
 10
-0.000000000000004
 20
-11.0
 30
19.5
 70
   192
  0
VERTEX
  5
732
  8
0
 10
-12.13894462585449
 20
-17.93007278442383
 30
19.5
 70
   192
  0
VERTEX
  5
733
  8
0
 10
-8.698465347290039
 20
-14.02484512329102
 30
177.5
 70
   192
  0
VERTEX
  5
734
  8
0
 10
-12.64777374267578
 20
-18.87448120117188
 30
177.5
 70
   192
  0
VERTEX
  5
735
  8
0
 10
-14.0
 20
-25.0
 30
19.5
 70
   192
  0
VERTEX
  5
736
  8
0
 10
-14.0
 20
-25.0
 30
177.5
 70
   192
  0
VERTEX
  5
737
  8
0
 10
3.176681518554688
 20
-11.39592266082764
 30
177.5
 70
   192
  0
VERTEX
  5
738
  8
0
 10
7.039506912231445
 20
-12.9728479385376
 30
19.5
 70
   192
  0
VERTEX
  5
739
  8
0
 10
8.742060661315918
 20
-14.15386581420898
 30
177.5
 70
   192
  0
VERTEX
  5
73A
  8
0
 10
12.1042947769165
 20
-18.0964298248291
 30
19.5
 70
   192
  0
VERTEX
  5
73B
  8
0
 10
12.58389759063721
 20
-18.99568176269531
 30
177.5
 70
   192
  0
VERTEX
  5
73C
  8
0
 10
14.0
 20
-25.0
 30
19.5
 70
   192
  0
VERTEX
  5
73D
  8
0
 10
14.0
 20
-25.0
 30
177.5
 70
   192
  0
VERTEX
  5
73E
  8
0
 10
32.21829605102539
 20
-18.2110767364502
 30
235.7099304199219
 70
   192
  0
VERTEX
  5
73F
  8
0
 10
17.99870681762695
 20
-18.2110767364502
 30
229.8199920654297
 70
   192
  0
VERTEX
  5
740
  8
0
 10
21.62331962585449
 20
-12.00800037384033
 30
223.4989318847656
 70
   192
  0
VERTEX
  5
741
  8
0
 10
36.88355255126953
 20
-12.31815338134766
 30
218.5023956298828
 70
   192
  0
VERTEX
  5
742
  8
0
 10
48.0
 20
-11.39592266082764
 30
222.3233184814453
 70
   192
  0
VERTEX
  5
743
  8
0
 10
48.0
 20
-11.35168647766113
 30
228.5603485107422
 70
   192
  0
VERTEX
  5
744
  8
0
 10
48.0
 20
-25.0
 30
239.5
 70
   192
  0
VERTEX
  5
745
  8
0
 10
48.0
 20
-18.87448120117188
 30
238.1477661132812
 70
   192
  0
VERTEX
  5
746
  8
0
 10
32.07913208007812
 20
-25.0
 30
237.4127349853516
 70
   192
  0
VERTEX
  5
747
  8
0
 10
16.95872497558594
 20
-25.0
 30
231.1663360595703
 70
   192
  0
VERTEX
  5
748
  8
0
 10
34.12496948242188
 20
-12.00800037384033
 30
228.6772918701172
 70
   192
  0
VERTEX
  5
749
  8
0
 10
48.0
 20
-14.02484512329102
 30
234.1984710693359
 70
   192
  0
VERTEX
  5
74A
  8
0
 10
5.160715103149414
 20
-18.99568176269531
 30
220.3392791748047
 70
   192
  0
VERTEX
  5
74B
  8
0
 10
4.159379482269287
 20
-25.0
 30
221.3406219482422
 70
   192
  0
VERTEX
  5
74C
  8
0
 10
26.86744117736816
 20
-12.31815338134766
 30
214.3535919189453
 70
   192
  0
VERTEX
  5
74D
  8
0
 10
7.877304553985596
 20
-14.15386581420898
 30
217.6226959228516
 70
   192
  0
VERTEX
  5
74E
  8
0
 10
11.81262111663818
 20
-11.39592266082764
 30
213.6873779296875
 70
   192
  0
VERTEX
  5
74F
  8
0
 10
38.65950775146484
 20
-18.48676872253418
 30
211.9518890380859
 70
   192
  0
VERTEX
  5
750
  8
0
 10
48.0
 20
-14.15386581420898
 30
216.7579345703125
 70
   192
  0
VERTEX
  5
751
  8
0
 10
30.94135284423828
 20
-25.0
 30
206.9058532714844
 70
   192
  0
VERTEX
  5
752
  8
0
 10
39.22672271728516
 20
-25.0
 30
210.346923828125
 70
   192
  0
VERTEX
  5
753
  8
0
 10
30.24355888366699
 20
-18.48676872253418
 30
208.4658966064453
 70
   192
  0
VERTEX
  5
754
  8
0
 10
48.0
 20
-18.99568176269531
 30
212.9161071777344
 70
   192
  0
VERTEX
  5
755
  8
0
 10
48.0
 20
-25.0
 30
211.5
 70
   192
  0
VERTEX
  5
756
  8
0
 10
20.20961761474609
 20
-14.02484512329102
 30
205.2903747558594
 70
   192
  0
VERTEX
  5
757
  8
0
 10
23.00220108032227
 20
-18.87448120117188
 30
202.497802734375
 70
   192
  0
VERTEX
  5
758
  8
0
 10
23.95837020874023
 20
-25.0
 30
201.5416259765625
 70
   192
  0
VERTEX
  5
759
  8
0
 10
16.22286987304688
 20
-11.35168647766113
 30
209.2771301269531
 70
   192
  0
VERTEX
  5
75A
  8
0
 10
-4.319990634918213
 20
-18.2110767364502
 30
207.5012969970703
 70
   192
  0
VERTEX
  5
75B
  8
0
 10
-10.20993804931641
 20
-18.2110767364502
 30
193.2817077636719
 70
   192
  0
VERTEX
  5
75C
  8
0
 10
-3.17729115486145
 20
-12.00800037384033
 30
191.3750305175781
 70
   192
  0
VERTEX
  5
75D
  8
0
 10
11.14641189575195
 20
-12.31815338134766
 30
198.6325531005859
 70
   192
  0
VERTEX
  5
75E
  8
0
 10
-5.622450828552246
 20
-25.0
 30
208.6069488525391
 70
   192
  0
VERTEX
  5
75F
  8
0
 10
-11.8973217010498
 20
-25.0
 30
193.4983367919922
 70
   192
  0
VERTEX
  5
760
  8
0
 10
2.001060962677002
 20
-12.00800037384033
 30
203.8766784667969
 70
   192
  0
VERTEX
  5
761
  8
0
 10
6.997602462768555
 20
-12.31815338134766
 30
188.6164398193359
 70
   192
  0
VERTEX
  5
762
  8
0
 10
17.03410530090332
 20
-18.48676872253418
 30
195.2564392089844
 70
   192
  0
VERTEX
  5
763
  8
0
 10
15.14463138580322
 20
-25.0
 30
186.2308044433594
 70
   192
  0
VERTEX
  5
764
  8
0
 10
18.57007598876953
 20
-25.0
 30
194.5226287841797
 70
   192
  0
VERTEX
  5
765
  8
0
 10
13.54810523986816
 20
-18.48676872253418
 30
186.8404998779297
 70
   192
  0
VERTEX
  5
766
  8
0
 10
1.597589612007141
 20
-37.68184661865234
 30
204.1080322265625
 70
   192
  0
VERTEX
  5
767
  8
0
 10
-3.62618350982666
 20
-37.68184661865234
 30
191.4967346191406
 70
   192
  0
VERTEX
  5
768
  8
0
 10
-4.290103912353516
 20
-31.51323127746582
 30
207.4841613769531
 70
   192
  0
VERTEX
  5
769
  8
0
 10
-10.17668628692627
 20
-31.51323127746582
 30
193.2726898193359
 70
   192
  0
VERTEX
  5
76A
  8
0
 10
-8.698465347290039
 20
-35.97515487670898
 30
177.5
 70
   192
  0
VERTEX
  5
76B
  8
0
 10
-12.64777374267578
 20
-31.12551879882812
 30
177.5
 70
   192
  0
VERTEX
  5
76C
  8
0
 10
17.06399154663086
 20
-31.7889232635498
 30
195.2393035888672
 70
   192
  0
VERTEX
  5
76D
  8
0
 10
20.20961761474609
 20
-35.97515487670898
 30
205.2903747558594
 70
   192
  0
VERTEX
  5
76E
  8
0
 10
10.74294090270996
 20
-37.99200057983398
 30
198.8639221191406
 70
   192
  0
VERTEX
  5
76F
  8
0
 10
6.548709869384766
 20
-37.99200057983398
 30
188.7381439208984
 70
   192
  0
VERTEX
  5
770
  8
0
 10
13.5813570022583
 20
-31.7889232635498
 30
186.8314819335938
 70
   192
  0
VERTEX
  5
771
  8
0
 10
12.58389759063721
 20
-31.00431823730469
 30
177.5
 70
   192
  0
VERTEX
  5
772
  8
0
 10
23.00220108032227
 20
-31.12551879882812
 30
202.497802734375
 70
   192
  0
VERTEX
  5
773
  8
0
 10
11.81262111663818
 20
-38.60407638549805
 30
213.6873779296875
 70
   192
  0
VERTEX
  5
774
  8
0
 10
-3.060351610183716
 20
-38.64831161499023
 30
177.5
 70
   192
  0
VERTEX
  5
775
  8
0
 10
3.176681518554688
 20
-38.60407638549805
 30
177.5
 70
   192
  0
VERTEX
  5
776
  8
0
 10
7.877304553985596
 20
-35.84613418579102
 30
217.6226959228516
 70
   192
  0
VERTEX
  5
777
  8
0
 10
5.160715103149414
 20
-31.00431823730469
 30
220.3392791748047
 70
   192
  0
VERTEX
  5
778
  8
0
 10
8.742060661315918
 20
-35.84613418579102
 30
177.5
 70
   192
  0
VERTEX
  5
779
  8
0
 10
16.22286987304688
 20
-38.64831161499023
 30
209.2771301269531
 70
   192
  0
VERTEX
  5
77A
  8
0
 10
126.0
 20
-11.0
 30
225.5
 70
   192
  0
VERTEX
  5
77B
  8
0
 10
126.0
 20
-12.9728479385376
 30
232.5395050048828
 70
   192
  0
VERTEX
  5
77C
  8
0
 10
126.0
 20
-18.0964298248291
 30
237.6042938232422
 70
   192
  0
VERTEX
  5
77D
  8
0
 10
126.0
 20
-25.0
 30
239.5
 70
   192
  0
VERTEX
  5
77E
  8
0
 10
126.0
 20
-12.87050628662109
 30
218.5377349853516
 70
   192
  0
VERTEX
  5
77F
  8
0
 10
126.0
 20
-17.93007278442383
 30
213.3610534667969
 70
   192
  0
VERTEX
  5
780
  8
0
 10
126.0
 20
-25.0
 30
211.5
 70
   192
  0
VERTEX
  5
781
  8
0
 10
48.0
 20
-31.12551879882812
 30
238.1477661132812
 70
   192
  0
VERTEX
  5
782
  8
0
 10
48.0
 20
-38.60407638549805
 30
222.3233184814453
 70
   192
  0
VERTEX
  5
783
  8
0
 10
48.0
 20
-38.64831161499023
 30
228.5603485107422
 70
   192
  0
VERTEX
  5
784
  8
0
 10
126.0
 20
-39.0
 30
225.5
 70
   192
  0
VERTEX
  5
785
  8
0
 10
48.0
 20
-35.97515487670898
 30
234.1984710693359
 70
   192
  0
VERTEX
  5
786
  8
0
 10
126.0
 20
-37.12949371337891
 30
232.4622650146484
 70
   192
  0
VERTEX
  5
787
  8
0
 10
48.0
 20
-31.00431823730469
 30
212.9161071777344
 70
   192
  0
VERTEX
  5
788
  8
0
 10
48.0
 20
-35.84613418579102
 30
216.7579345703125
 70
   192
  0
VERTEX
  5
789
  8
0
 10
126.0
 20
-31.9035701751709
 30
213.3957061767578
 70
   192
  0
VERTEX
  5
78A
  8
0
 10
126.0
 20
-37.02715301513672
 30
218.4604949951172
 70
   192
  0
VERTEX
  5
78B
  8
0
 10
126.0
 20
-32.06992721557617
 30
237.6389465332031
 70
   192
  0
VERTEX
  5
78C
  8
0
 10
34.00326538085938
 20
-37.68184661865234
 30
229.1261901855469
 70
   192
  0
VERTEX
  5
78D
  8
0
 10
21.3919620513916
 20
-37.68184661865234
 30
223.9024047851562
 70
   192
  0
VERTEX
  5
78E
  8
0
 10
32.22731399536133
 20
-31.51323127746582
 30
235.6766815185547
 70
   192
  0
VERTEX
  5
78F
  8
0
 10
18.01584434509277
 20
-31.51323127746582
 30
229.7901000976562
 70
   192
  0
VERTEX
  5
790
  8
0
 10
38.66852188110352
 20
-31.7889232635498
 30
211.9186401367188
 70
   192
  0
VERTEX
  5
791
  8
0
 10
36.7618522644043
 20
-37.99200057983398
 30
218.9512939453125
 70
   192
  0
VERTEX
  5
792
  8
0
 10
26.63608169555664
 20
-37.99200057983398
 30
214.7570648193359
 70
   192
  0
VERTEX
  5
793
  8
0
 10
30.26069641113281
 20
-31.7889232635498
 30
208.4360046386719
 70
   192
  0
VERTEX
  5
794
  8
0
 10
-12.1042947769165
 20
-31.9035701751709
 30
19.5
 70
   192
  0
VERTEX
  5
795
  8
0
 10
6.962271690368652
 20
-37.12949371337891
 30
19.5
 70
   192
  0
VERTEX
  5
796
  8
0
 10
-0.0000000000000089
 20
-39.0
 30
19.5
 70
   192
  0
VERTEX
  5
797
  8
0
 10
-7.039506912231445
 20
-37.02715301513672
 30
19.5
 70
   192
  0
VERTEX
  5
798
  8
0
 10
12.13894462585449
 20
-32.06992721557617
 30
19.5
 70
   192
  0
VERTEX
  5
799
  8
0
 62
     9
 10
0.0
 20
0.0
 30
0.0
 70
   128
 71
     3
 72
     2
 73
     1
  0
VERTEX
  5
79A
  8
0
 62
     9
 10
0.0
 20
0.0
 30
0.0
 70
   128
 71
     5
 72
     2
 73
     4
  0
VERTEX
  5
79B
  8
0
 62
     9
 10
0.0
 20
0.0
 30
0.0
 70
   128
 71
     2
 72
     5
 73
     1
  0
VERTEX
  5
79C
  8
0
 62
     9
 10
0.0
 20
0.0
 30
0.0
 70
   128
 71
     7
 72
     6
 73
     4
  0
VERTEX
  5
79D
  8
0
 62
     9
 10
0.0
 20
0.0
 30
0.0
 70
   128
 71
     5
 72
     4
 73
     6
  0
VERTEX
  5
79E
  8
0
 62
     9
 10
0.0
 20
0.0
 30
0.0
 70
   128
 71
     8
 72
     6
 73
     7
  0
VERTEX
  5
79F
  8
0
 62
     9
 10
0.0
 20
0.0
 30
0.0
 70
   128
 71
     3
 72
     1
 73
     9
  0
VERTEX
  5
7A0
  8
0
 62
     9
 10
0.0
 20
0.0
 30
0.0
 70
   128
 71
    11
 72
    10
 73
     9
  0
VERTEX
  5
7A1
  8
0
 62
     9
 10
0.0
 20
0.0
 30
0.0
 70
   128
 71
     3
 72
     9
 73
    10
  0
VERTEX
  5
7A2
  8
0
 62
     9
 10
0.0
 20
0.0
 30
0.0
 70
   128
 71
    11
 72
    13
 73
    12
  0
VERTEX
  5
7A3
  8
0
 62
     9
 10
0.0
 20
0.0
 30
0.0
 70
   128
 71
    12
 72
    10
 73
    11
  0
VERTEX
  5
7A4
  8
0
 62
     9
 10
0.0
 20
0.0
 30
0.0
 70
   128
 71
    13
 72
    14
 73
    12
  0
VERTEX
  5
7A5
  8
0
 62
     9
 10
0.0
 20
0.0
 30
0.0
 70
   128
 71
    13
 72
    15
 73
    14
  0
VERTEX
  5
7A6
  8
0
 62
     9
 10
0.0
 20
0.0
 30
0.0
 70
   128
 71
    18
 72
    17
 73
    16
  0
VERTEX
  5
7A7
  8
0
 62
     9
 10
0.0
 20
0.0
 30
0.0
 70
   128
 71
    21
 72
    20
 73
    19
  0
VERTEX
  5
7A8
  8
0
 62
     9
 10
0.0
 20
0.0
 30
0.0
 70
   128
 71
    23
 72
    16
 73
    22
  0
VERTEX
  5
7A9
  8
0
 62
     9
 10
0.0
 20
0.0
 30
0.0
 70
   128
 71
    24
 72
    16
 73
    17
  0
VERTEX
  5
7AA
  8
0
 62
     9
 10
0.0
 20
0.0
 30
0.0
 70
   128
 71
    25
 72
    24
 73
    17
  0
VERTEX
  5
7AB
  8
0
 62
     9
 10
0.0
 20
0.0
 30
0.0
 70
   128
 71
    27
 72
    26
 73
    16
  0
VERTEX
  5
7AC
  8
0
 62
     9
 10
0.0
 20
0.0
 30
0.0
 70
   128
 71
    25
 72
    17
 73
    28
  0
VERTEX
  5
7AD
  8
0
 62
     9
 10
0.0
 20
0.0
 30
0.0
 70
   128
 71
    26
 72
    21
 73
    19
  0
VERTEX
  5
7AE
  8
0
 62
     9
 10
0.0
 20
0.0
 30
0.0
 70
   128
 71
    29
 72
    25
 73
    28
  0
VERTEX
  5
7AF
  8
0
 62
     9
 10
0.0
 20
0.0
 30
0.0
 70
   128
 71
    30
 72
    18
 73
    26
  0
VERTEX
  5
7B0
  8
0
 62
     9
 10
0.0
 20
0.0
 30
0.0
 70
   128
 71
    18
 72
    32
 73
    31
  0
VERTEX
  5
7B1
  8
0
 62
     9
 10
0.0
 20
0.0
 30
0.0
 70
   128
 71
    19
 72
    34
 73
    33
  0
VERTEX
  5
7B2
  8
0
 62
     9
 10
0.0
 20
0.0
 30
0.0
 70
   128
 71
    36
 72
    35
 73
    33
  0
VERTEX
  5
7B3
  8
0
 62
     9
 10
0.0
 20
0.0
 30
0.0
 70
   128
 71
    37
 72
    30
 73
    19
  0
VERTEX
  5
7B4
  8
0
 62
     9
 10
0.0
 20
0.0
 30
0.0
 70
   128
 71
    39
 72
    36
 73
    38
  0
VERTEX
  5
7B5
  8
0
 62
     9
 10
0.0
 20
0.0
 30
0.0
 70
   128
 71
    37
 72
    33
 73
    35
  0
VERTEX
  5
7B6
  8
0
 62
     9
 10
0.0
 20
0.0
 30
0.0
 70
   128
 71
    37
 72
    41
 73
    40
  0
VERTEX
  5
7B7
  8
0
 62
     9
 10
0.0
 20
0.0
 30
0.0
 70
   128
 71
    37
 72
    42
 73
    41
  0
VERTEX
  5
7B8
  8
0
 62
     9
 10
0.0
 20
0.0
 30
0.0
 70
   128
 71
    35
 72
    42
 73
    37
  0
VERTEX
  5
7B9
  8
0
 62
     9
 10
0.0
 20
0.0
 30
0.0
 70
   128
 71
    43
 72
    30
 73
    40
  0
VERTEX
  5
7BA
  8
0
 62
     9
 10
0.0
 20
0.0
 30
0.0
 70
   128
 71
    38
 72
    33
 73
    34
  0
VERTEX
  5
7BB
  8
0
 62
     9
 10
0.0
 20
0.0
 30
0.0
 70
   128
 71
    33
 72
    38
 73
    36
  0
VERTEX
  5
7BC
  8
0
 62
     9
 10
0.0
 20
0.0
 30
0.0
 70
   128
 71
    30
 72
    37
 73
    40
  0
VERTEX
  5
7BD
  8
0
 62
     9
 10
0.0
 20
0.0
 30
0.0
 70
   128
 71
    43
 72
    32
 73
    18
  0
VERTEX
  5
7BE
  8
0
 62
     9
 10
0.0
 20
0.0
 30
0.0
 70
   128
 71
    19
 72
    20
 73
    34
  0
VERTEX
  5
7BF
  8
0
 62
     9
 10
0.0
 20
0.0
 30
0.0
 70
   128
 71
    19
 72
    33
 73
    37
  0
VERTEX
  5
7C0
  8
0
 62
     9
 10
0.0
 20
0.0
 30
0.0
 70
   128
 71
    30
 72
    43
 73
    18
  0
VERTEX
  5
7C1
  8
0
 62
     9
 10
0.0
 20
0.0
 30
0.0
 70
   128
 71
    17
 72
    31
 73
    28
  0
VERTEX
  5
7C2
  8
0
 62
     9
 10
0.0
 20
0.0
 30
0.0
 70
   128
 71
    26
 72
    27
 73
    21
  0
VERTEX
  5
7C3
  8
0
 62
     9
 10
0.0
 20
0.0
 30
0.0
 70
   128
 71
    26
 72
    19
 73
    30
  0
VERTEX
  5
7C4
  8
0
 62
     9
 10
0.0
 20
0.0
 30
0.0
 70
   128
 71
    17
 72
    18
 73
    31
  0
VERTEX
  5
7C5
  8
0
 62
     9
 10
0.0
 20
0.0
 30
0.0
 70
   128
 71
    16
 72
    24
 73
    22
  0
VERTEX
  5
7C6
  8
0
 62
     9
 10
0.0
 20
0.0
 30
0.0
 70
   128
 71
    16
 72
    23
 73
    27
  0
VERTEX
  5
7C7
  8
0
 62
     9
 10
0.0
 20
0.0
 30
0.0
 70
   128
 71
    16
 72
    26
 73
    18
  0
VERTEX
  5
7C8
  8
0
 62
     9
 10
0.0
 20
0.0
 30
0.0
 70
   128
 71
    46
 72
    45
 73
    44
  0
VERTEX
  5
7C9
  8
0
 62
     9
 10
0.0
 20
0.0
 30
0.0
 70
   128
 71
    32
 72
    43
 73
    47
  0
VERTEX
  5
7CA
  8
0
 62
     9
 10
0.0
 20
0.0
 30
0.0
 70
   128
 71
    28
 72
    44
 73
    29
  0
VERTEX
  5
7CB
  8
0
 62
     9
 10
0.0
 20
0.0
 30
0.0
 70
   128
 71
    48
 72
    44
 73
    45
  0
VERTEX
  5
7CC
  8
0
 62
     9
 10
0.0
 20
0.0
 30
0.0
 70
   128
 71
    49
 72
    48
 73
    45
  0
VERTEX
  5
7CD
  8
0
 62
     9
 10
0.0
 20
0.0
 30
0.0
 70
   128
 71
    31
 72
    50
 73
    44
  0
VERTEX
  5
7CE
  8
0
 62
     9
 10
0.0
 20
0.0
 30
0.0
 70
   128
 71
    49
 72
    45
 73
     6
  0
VERTEX
  5
7CF
  8
0
 62
     9
 10
0.0
 20
0.0
 30
0.0
 70
   128
 71
    50
 72
    32
 73
    47
  0
VERTEX
  5
7D0
  8
0
 62
     9
 10
0.0
 20
0.0
 30
0.0
 70
   128
 71
     8
 72
    49
 73
     6
  0
VERTEX
  5
7D1
  8
0
 62
     9
 10
0.0
 20
0.0
 30
0.0
 70
   128
 71
    51
 72
    46
 73
    50
  0
VERTEX
  5
7D2
  8
0
 62
     9
 10
0.0
 20
0.0
 30
0.0
 70
   128
 71
    46
 72
     1
 73
     5
  0
VERTEX
  5
7D3
  8
0
 62
     9
 10
0.0
 20
0.0
 30
0.0
 70
   128
 71
    47
 72
    40
 73
    52
  0
VERTEX
  5
7D4
  8
0
 62
     9
 10
0.0
 20
0.0
 30
0.0
 70
   128
 71
    54
 72
    53
 73
    52
  0
VERTEX
  5
7D5
  8
0
 62
     9
 10
0.0
 20
0.0
 30
0.0
 70
   128
 71
    55
 72
    51
 73
    47
  0
VERTEX
  5
7D6
  8
0
 62
     9
 10
0.0
 20
0.0
 30
0.0
 70
   128
 71
    42
 72
    54
 73
    41
  0
VERTEX
  5
7D7
  8
0
 62
     9
 10
0.0
 20
0.0
 30
0.0
 70
   128
 71
    55
 72
    52
 73
    53
  0
VERTEX
  5
7D8
  8
0
 62
     9
 10
0.0
 20
0.0
 30
0.0
 70
   128
 71
    55
 72
    13
 73
    11
  0
VERTEX
  5
7D9
  8
0
 62
     9
 10
0.0
 20
0.0
 30
0.0
 70
   128
 71
    55
 72
    15
 73
    13
  0
VERTEX
  5
7DA
  8
0
 62
     9
 10
0.0
 20
0.0
 30
0.0
 70
   128
 71
    53
 72
    15
 73
    55
  0
VERTEX
  5
7DB
  8
0
 62
     9
 10
0.0
 20
0.0
 30
0.0
 70
   128
 71
     9
 72
    51
 73
    11
  0
VERTEX
  5
7DC
  8
0
 62
     9
 10
0.0
 20
0.0
 30
0.0
 70
   128
 71
    41
 72
    52
 73
    40
  0
VERTEX
  5
7DD
  8
0
 62
     9
 10
0.0
 20
0.0
 30
0.0
 70
   128
 71
    52
 72
    41
 73
    54
  0
VERTEX
  5
7DE
  8
0
 62
     9
 10
0.0
 20
0.0
 30
0.0
 70
   128
 71
    51
 72
    55
 73
    11
  0
VERTEX
  5
7DF
  8
0
 62
     9
 10
0.0
 20
0.0
 30
0.0
 70
   128
 71
     9
 72
     1
 73
    46
  0
VERTEX
  5
7E0
  8
0
 62
     9
 10
0.0
 20
0.0
 30
0.0
 70
   128
 71
    47
 72
    43
 73
    40
  0
VERTEX
  5
7E1
  8
0
 62
     9
 10
0.0
 20
0.0
 30
0.0
 70
   128
 71
    47
 72
    52
 73
    55
  0
VERTEX
  5
7E2
  8
0
 62
     9
 10
0.0
 20
0.0
 30
0.0
 70
   128
 71
    51
 72
     9
 73
    46
  0
VERTEX
  5
7E3
  8
0
 62
     9
 10
0.0
 20
0.0
 30
0.0
 70
   128
 71
    45
 72
     5
 73
     6
  0
VERTEX
  5
7E4
  8
0
 62
     9
 10
0.0
 20
0.0
 30
0.0
 70
   128
 71
    50
 72
    31
 73
    32
  0
VERTEX
  5
7E5
  8
0
 62
     9
 10
0.0
 20
0.0
 30
0.0
 70
   128
 71
    50
 72
    47
 73
    51
  0
VERTEX
  5
7E6
  8
0
 62
     9
 10
0.0
 20
0.0
 30
0.0
 70
   128
 71
    45
 72
    46
 73
     5
  0
VERTEX
  5
7E7
  8
0
 62
     9
 10
0.0
 20
0.0
 30
0.0
 70
   128
 71
    44
 72
    48
 73
    29
  0
VERTEX
  5
7E8
  8
0
 62
     9
 10
0.0
 20
0.0
 30
0.0
 70
   128
 71
    44
 72
    28
 73
    31
  0
VERTEX
  5
7E9
  8
0
 62
     9
 10
0.0
 20
0.0
 30
0.0
 70
   128
 71
    44
 72
    50
 73
    46
  0
VERTEX
  5
7EA
  8
0
 62
     9
 10
0.0
 20
0.0
 30
0.0
 70
   128
 71
    58
 72
    57
 73
    56
  0
VERTEX
  5
7EB
  8
0
 62
     9
 10
0.0
 20
0.0
 30
0.0
 70
   128
 71
    61
 72
    60
 73
    59
  0
VERTEX
  5
7EC
  8
0
 62
     9
 10
0.0
 20
0.0
 30
0.0
 70
   128
 71
    49
 72
    61
 73
    59
  0
VERTEX
  5
7ED
  8
0
 62
     9
 10
0.0
 20
0.0
 30
0.0
 70
   128
 71
    54
 72
    62
 73
    53
  0
VERTEX
  5
7EE
  8
0
 62
     9
 10
0.0
 20
0.0
 30
0.0
 70
   128
 71
     8
 72
    61
 73
    49
  0
VERTEX
  5
7EF
  8
0
 62
     9
 10
0.0
 20
0.0
 30
0.0
 70
   128
 71
    64
 72
    62
 73
    63
  0
VERTEX
  5
7F0
  8
0
 62
     9
 10
0.0
 20
0.0
 30
0.0
 70
   128
 71
    65
 72
    64
 73
    56
  0
VERTEX
  5
7F1
  8
0
 62
     9
 10
0.0
 20
0.0
 30
0.0
 70
   128
 71
    53
 72
    66
 73
    15
  0
VERTEX
  5
7F2
  8
0
 62
     9
 10
0.0
 20
0.0
 30
0.0
 70
   128
 71
    67
 72
    15
 73
    66
  0
VERTEX
  5
7F3
  8
0
 62
     9
 10
0.0
 20
0.0
 30
0.0
 70
   128
 71
    62
 72
    64
 73
    66
  0
VERTEX
  5
7F4
  8
0
 62
     9
 10
0.0
 20
0.0
 30
0.0
 70
   128
 71
    63
 72
    62
 73
    68
  0
VERTEX
  5
7F5
  8
0
 62
     9
 10
0.0
 20
0.0
 30
0.0
 70
   128
 71
    56
 72
    64
 73
    69
  0
VERTEX
  5
7F6
  8
0
 62
     9
 10
0.0
 20
0.0
 30
0.0
 70
   128
 71
    42
 72
    68
 73
    54
  0
VERTEX
  5
7F7
  8
0
 62
     9
 10
0.0
 20
0.0
 30
0.0
 70
   128
 71
    71
 72
    57
 73
    70
  0
VERTEX
  5
7F8
  8
0
 62
     9
 10
0.0
 20
0.0
 30
0.0
 70
   128
 71
    59
 72
    57
 73
    58
  0
VERTEX
  5
7F9
  8
0
 62
     9
 10
0.0
 20
0.0
 30
0.0
 70
   128
 71
    58
 72
    48
 73
    59
  0
VERTEX
  5
7FA
  8
0
 62
     9
 10
0.0
 20
0.0
 30
0.0
 70
   128
 71
    60
 72
    70
 73
    57
  0
VERTEX
  5
7FB
  8
0
 62
     9
 10
0.0
 20
0.0
 30
0.0
 70
   128
 71
    58
 72
    29
 73
    48
  0
VERTEX
  5
7FC
  8
0
 62
     9
 10
0.0
 20
0.0
 30
0.0
 70
   128
 71
    57
 72
    59
 73
    60
  0
VERTEX
  5
7FD
  8
0
 62
     9
 10
0.0
 20
0.0
 30
0.0
 70
   128
 71
    59
 72
    48
 73
    49
  0
VERTEX
  5
7FE
  8
0
 62
     9
 10
0.0
 20
0.0
 30
0.0
 70
   128
 71
    73
 72
    58
 73
    72
  0
VERTEX
  5
7FF
  8
0
 62
     9
 10
0.0
 20
0.0
 30
0.0
 70
   128
 71
    73
 72
    29
 73
    58
  0
VERTEX
  5
800
  8
0
 62
     9
 10
0.0
 20
0.0
 30
0.0
 70
   128
 71
    74
 72
    65
 73
    71
  0
VERTEX
  5
801
  8
0
 62
     9
 10
0.0
 20
0.0
 30
0.0
 70
   128
 71
    56
 72
    72
 73
    58
  0
VERTEX
  5
802
  8
0
 62
     9
 10
0.0
 20
0.0
 30
0.0
 70
   128
 71
    57
 72
    71
 73
    65
  0
VERTEX
  5
803
  8
0
 62
     9
 10
0.0
 20
0.0
 30
0.0
 70
   128
 71
    72
 72
    56
 73
    69
  0
VERTEX
  5
804
  8
0
 62
     9
 10
0.0
 20
0.0
 30
0.0
 70
   128
 71
    65
 72
    56
 73
    57
  0
VERTEX
  5
805
  8
0
 62
     9
 10
0.0
 20
0.0
 30
0.0
 70
   128
 71
    67
 72
    66
 73
    74
  0
VERTEX
  5
806
  8
0
 62
     9
 10
0.0
 20
0.0
 30
0.0
 70
   128
 71
    75
 72
    64
 73
    63
  0
VERTEX
  5
807
  8
0
 62
     9
 10
0.0
 20
0.0
 30
0.0
 70
   128
 71
    75
 72
    69
 73
    64
  0
VERTEX
  5
808
  8
0
 62
     9
 10
0.0
 20
0.0
 30
0.0
 70
   128
 71
    66
 72
    65
 73
    74
  0
VERTEX
  5
809
  8
0
 62
     9
 10
0.0
 20
0.0
 30
0.0
 70
   128
 71
    65
 72
    66
 73
    64
  0
VERTEX
  5
80A
  8
0
 62
     9
 10
0.0
 20
0.0
 30
0.0
 70
   128
 71
    68
 72
    62
 73
    54
  0
VERTEX
  5
80B
  8
0
 62
     9
 10
0.0
 20
0.0
 30
0.0
 70
   128
 71
    62
 72
    66
 73
    53
  0
VERTEX
  5
80C
  8
0
 62
     9
 10
0.0
 20
0.0
 30
0.0
 70
   128
 71
    20
 72
    21
 73
    76
  0
VERTEX
  5
80D
  8
0
 62
     9
 10
0.0
 20
0.0
 30
0.0
 70
   128
 71
    77
 72
    21
 73
    27
  0
VERTEX
  5
80E
  8
0
 62
     9
 10
0.0
 20
0.0
 30
0.0
 70
   128
 71
    21
 72
    77
 73
    76
  0
VERTEX
  5
80F
  8
0
 62
     9
 10
0.0
 20
0.0
 30
0.0
 70
   128
 71
    23
 72
    78
 73
    27
  0
VERTEX
  5
810
  8
0
 62
     9
 10
0.0
 20
0.0
 30
0.0
 70
   128
 71
    77
 72
    27
 73
    78
  0
VERTEX
  5
811
  8
0
 62
     9
 10
0.0
 20
0.0
 30
0.0
 70
   128
 71
    79
 72
    78
 73
    23
  0
VERTEX
  5
812
  8
0
 62
     9
 10
0.0
 20
0.0
 30
0.0
 70
   128
 71
    22
 72
    79
 73
    23
  0
VERTEX
  5
813
  8
0
 62
     9
 10
0.0
 20
0.0
 30
0.0
 70
   128
 71
    76
 72
    80
 73
    20
  0
VERTEX
  5
814
  8
0
 62
     9
 10
0.0
 20
0.0
 30
0.0
 70
   128
 71
    81
 72
    34
 73
    80
  0
VERTEX
  5
815
  8
0
 62
     9
 10
0.0
 20
0.0
 30
0.0
 70
   128
 71
    20
 72
    80
 73
    34
  0
VERTEX
  5
816
  8
0
 62
     9
 10
0.0
 20
0.0
 30
0.0
 70
   128
 71
    81
 72
    82
 73
    38
  0
VERTEX
  5
817
  8
0
 62
     9
 10
0.0
 20
0.0
 30
0.0
 70
   128
 71
    38
 72
    34
 73
    81
  0
VERTEX
  5
818
  8
0
 62
     9
 10
0.0
 20
0.0
 30
0.0
 70
   128
 71
    82
 72
    39
 73
    38
  0
VERTEX
  5
819
  8
0
 62
     9
 10
0.0
 20
0.0
 30
0.0
 70
   128
 71
    79
 72
    22
 73
    83
  0
VERTEX
  5
81A
  8
0
 62
     9
 10
0.0
 20
0.0
 30
0.0
 70
   128
 71
    86
 72
    85
 73
    84
  0
VERTEX
  5
81B
  8
0
 62
     9
 10
0.0
 20
0.0
 30
0.0
 70
   128
 71
    88
 72
    87
 73
    85
  0
VERTEX
  5
81C
  8
0
 62
     9
 10
0.0
 20
0.0
 30
0.0
 70
   128
 71
    91
 72
    90
 73
    89
  0
VERTEX
  5
81D
  8
0
 62
     9
 10
0.0
 20
0.0
 30
0.0
 70
   128
 71
    90
 72
    91
 73
    92
  0
VERTEX
  5
81E
  8
0
 62
     9
 10
0.0
 20
0.0
 30
0.0
 70
   128
 71
    39
 72
    82
 73
    89
  0
VERTEX
  5
81F
  8
0
 62
     9
 10
0.0
 20
0.0
 30
0.0
 70
   128
 71
    91
 72
    89
 73
    82
  0
VERTEX
  5
820
  8
0
 62
     9
 10
0.0
 20
0.0
 30
0.0
 70
   128
 71
    84
 72
    92
 73
    86
  0
VERTEX
  5
821
  8
0
 62
     9
 10
0.0
 20
0.0
 30
0.0
 70
   128
 71
    84
 72
    90
 73
    92
  0
VERTEX
  5
822
  8
0
 62
     9
 10
0.0
 20
0.0
 30
0.0
 70
   128
 71
    87
 72
    88
 73
    93
  0
VERTEX
  5
823
  8
0
 62
     9
 10
0.0
 20
0.0
 30
0.0
 70
   128
 71
    88
 72
    85
 73
    86
  0
VERTEX
  5
824
  8
0
 62
     9
 10
0.0
 20
0.0
 30
0.0
 70
   128
 71
    83
 72
    93
 73
    79
  0
VERTEX
  5
825
  8
0
 62
     9
 10
0.0
 20
0.0
 30
0.0
 70
   128
 71
    93
 72
    83
 73
    87
  0
VERTEX
  5
826
  8
0
 62
     9
 10
0.0
 20
0.0
 30
0.0
 70
   128
 71
    96
 72
    95
 73
    94
  0
VERTEX
  5
827
  8
0
 62
     9
 10
0.0
 20
0.0
 30
0.0
 70
   128
 71
    73
 72
    72
 73
    97
  0
VERTEX
  5
828
  8
0
 62
     9
 10
0.0
 20
0.0
 30
0.0
 70
   128
 71
    25
 72
    73
 73
    97
  0
VERTEX
  5
829
  8
0
 62
     9
 10
0.0
 20
0.0
 30
0.0
 70
   128
 71
    36
 72
    98
 73
    35
  0
VERTEX
  5
82A
  8
0
 62
     9
 10
0.0
 20
0.0
 30
0.0
 70
   128
 71
    29
 72
    73
 73
    25
  0
VERTEX
  5
82B
  8
0
 62
     9
 10
0.0
 20
0.0
 30
0.0
 70
   128
 71
    99
 72
    98
 73
    90
  0
VERTEX
  5
82C
  8
0
 62
     9
 10
0.0
 20
0.0
 30
0.0
 70
   128
 71
   100
 72
    99
 73
    94
  0
VERTEX
  5
82D
  8
0
 62
     9
 10
0.0
 20
0.0
 30
0.0
 70
   128
 71
    35
 72
   101
 73
    42
  0
VERTEX
  5
82E
  8
0
 62
     9
 10
0.0
 20
0.0
 30
0.0
 70
   128
 71
    68
 72
    42
 73
   101
  0
VERTEX
  5
82F
  8
0
 62
     9
 10
0.0
 20
0.0
 30
0.0
 70
   128
 71
    98
 72
    99
 73
   101
  0
VERTEX
  5
830
  8
0
 62
     9
 10
0.0
 20
0.0
 30
0.0
 70
   128
 71
    90
 72
    98
 73
    89
  0
VERTEX
  5
831
  8
0
 62
     9
 10
0.0
 20
0.0
 30
0.0
 70
   128
 71
    94
 72
    99
 73
    85
  0
VERTEX
  5
832
  8
0
 62
     9
 10
0.0
 20
0.0
 30
0.0
 70
   128
 71
    39
 72
    89
 73
    36
  0
VERTEX
  5
833
  8
0
 62
     9
 10
0.0
 20
0.0
 30
0.0
 70
   128
 71
    75
 72
    95
 73
    69
  0
VERTEX
  5
834
  8
0
 62
     9
 10
0.0
 20
0.0
 30
0.0
 70
   128
 71
    97
 72
    95
 73
    96
  0
VERTEX
  5
835
  8
0
 62
     9
 10
0.0
 20
0.0
 30
0.0
 70
   128
 71
    96
 72
    24
 73
    97
  0
VERTEX
  5
836
  8
0
 62
     9
 10
0.0
 20
0.0
 30
0.0
 70
   128
 71
    72
 72
    69
 73
    95
  0
VERTEX
  5
837
  8
0
 62
     9
 10
0.0
 20
0.0
 30
0.0
 70
   128
 71
    96
 72
    22
 73
    24
  0
VERTEX
  5
838
  8
0
 62
     9
 10
0.0
 20
0.0
 30
0.0
 70
   128
 71
    95
 72
    97
 73
    72
  0
VERTEX
  5
839
  8
0
 62
     9
 10
0.0
 20
0.0
 30
0.0
 70
   128
 71
    97
 72
    24
 73
    25
  0
VERTEX
  5
83A
  8
0
 62
     9
 10
0.0
 20
0.0
 30
0.0
 70
   128
 71
    83
 72
    96
 73
    87
  0
VERTEX
  5
83B
  8
0
 62
     9
 10
0.0
 20
0.0
 30
0.0
 70
   128
 71
    83
 72
    22
 73
    96
  0
VERTEX
  5
83C
  8
0
 62
     9
 10
0.0
 20
0.0
 30
0.0
 70
   128
 71
    63
 72
   100
 73
    75
  0
VERTEX
  5
83D
  8
0
 62
     9
 10
0.0
 20
0.0
 30
0.0
 70
   128
 71
    94
 72
    87
 73
    96
  0
VERTEX
  5
83E
  8
0
 62
     9
 10
0.0
 20
0.0
 30
0.0
 70
   128
 71
    95
 72
    75
 73
   100
  0
VERTEX
  5
83F
  8
0
 62
     9
 10
0.0
 20
0.0
 30
0.0
 70
   128
 71
    87
 72
    94
 73
    85
  0
VERTEX
  5
840
  8
0
 62
     9
 10
0.0
 20
0.0
 30
0.0
 70
   128
 71
   100
 72
    94
 73
    95
  0
VERTEX
  5
841
  8
0
 62
     9
 10
0.0
 20
0.0
 30
0.0
 70
   128
 71
    68
 72
   101
 73
    63
  0
VERTEX
  5
842
  8
0
 62
     9
 10
0.0
 20
0.0
 30
0.0
 70
   128
 71
    84
 72
    99
 73
    90
  0
VERTEX
  5
843
  8
0
 62
     9
 10
0.0
 20
0.0
 30
0.0
 70
   128
 71
    84
 72
    85
 73
    99
  0
VERTEX
  5
844
  8
0
 62
     9
 10
0.0
 20
0.0
 30
0.0
 70
   128
 71
   101
 72
   100
 73
    63
  0
VERTEX
  5
845
  8
0
 62
     9
 10
0.0
 20
0.0
 30
0.0
 70
   128
 71
   100
 72
   101
 73
    99
  0
VERTEX
  5
846
  8
0
 62
     9
 10
0.0
 20
0.0
 30
0.0
 70
   128
 71
    89
 72
    98
 73
    36
  0
VERTEX
  5
847
  8
0
 62
     9
 10
0.0
 20
0.0
 30
0.0
 70
   128
 71
    98
 72
   101
 73
    35
  0
VERTEX
  5
848
  8
0
 62
     9
 10
0.0
 20
0.0
 30
0.0
 70
   128
 71
     7
 72
   102
 73
    61
  0
VERTEX
  5
849
  8
0
 62
     9
 10
0.0
 20
0.0
 30
0.0
 70
   128
 71
    71
 72
   103
 73
    74
  0
VERTEX
  5
84A
  8
0
 62
     9
 10
0.0
 20
0.0
 30
0.0
 70
   128
 71
    70
 72
   105
 73
   104
  0
VERTEX
  5
84B
  8
0
 62
     9
 10
0.0
 20
0.0
 30
0.0
 70
   128
 71
    67
 72
   106
 73
    14
  0
VERTEX
  5
84C
  8
0
 62
     9
 10
0.0
 20
0.0
 30
0.0
 70
   128
 71
   106
 72
    67
 73
    74
  0
VERTEX
  5
84D
  8
0
 62
     9
 10
0.0
 20
0.0
 30
0.0
 70
   128
 71
    67
 72
    14
 73
    15
  0
VERTEX
  5
84E
  8
0
 62
     9
 10
0.0
 20
0.0
 30
0.0
 70
   128
 71
   103
 72
    71
 73
   104
  0
VERTEX
  5
84F
  8
0
 62
     9
 10
0.0
 20
0.0
 30
0.0
 70
   128
 71
   103
 72
   106
 73
    74
  0
VERTEX
  5
850
  8
0
 62
     9
 10
0.0
 20
0.0
 30
0.0
 70
   128
 71
    60
 72
   105
 73
    70
  0
VERTEX
  5
851
  8
0
 62
     9
 10
0.0
 20
0.0
 30
0.0
 70
   128
 71
    70
 72
   104
 73
    71
  0
VERTEX
  5
852
  8
0
 62
     9
 10
0.0
 20
0.0
 30
0.0
 70
   128
 71
   102
 72
    60
 73
    61
  0
VERTEX
  5
853
  8
0
 62
     9
 10
0.0
 20
0.0
 30
0.0
 70
   128
 71
    60
 72
   102
 73
   105
  0
VERTEX
  5
854
  8
0
 62
     9
 10
0.0
 20
0.0
 30
0.0
 70
   128
 71
    61
 72
     8
 73
     7
  0
SEQEND
  5
855
  8
0
 62
     9
  0
ENDBLK
  5
858
  8
0
  0
BLOCK
  8
0
  2
43
 70
     0
 10
0.0
 20
0.0
 30
0.0
  3
43
  1

  0
POLYLINE
  5
85A
  8
0
 62
     9
 66
     1
 10
0.0
 20
0.0
 30
0.0
 70
    64
 71
   119
 72
   220
  0
VERTEX
  5
85B
  8
0
 10
-5.291970729827881
 20
1.476388812065125
 30
-88.19999694824219
 70
   192
  0
VERTEX
  5
85C
  8
0
 10
0.0000000000000071
 20
2.0
 30
-88.19999694824219
 70
   192
  0
VERTEX
  5
85D
  8
0
 10
-4.684722900390625
 20
1.590518236160278
 30
-85.31898498535156
 70
   192
  0
VERTEX
  5
85E
  8
0
 10
-9.229427337646484
 20
0.3739323914051056
 30
-85.31898498535156
 70
   192
  0
VERTEX
  5
85F
  8
0
 10
-10.33243083953857
 20
-0.0553063601255417
 30
-88.19999694824219
 70
   192
  0
VERTEX
  5
860
  8
0
 10
-13.49805450439453
 20
-1.614590048789978
 30
-85.31898498535156
 70
   192
  0
VERTEX
  5
861
  8
0
 10
-14.97964572906494
 20
-2.536377429962158
 30
-88.19999694824219
 70
   192
  0
VERTEX
  5
862
  8
0
 10
-19.09188270568848
 20
-5.908116817474365
 30
-88.19999694824219
 70
   192
  0
VERTEX
  5
863
  8
0
 10
-17.35099029541016
 20
-4.310437202453613
 30
-85.31898498535156
 70
   192
  0
VERTEX
  5
864
  8
0
 10
-20.67832565307617
 20
-7.636576652526855
 30
-85.31898498535156
 70
   192
  0
VERTEX
  5
865
  8
0
 10
-22.463623046875
 20
-10.02035427093506
 30
-88.19999694824219
 70
   192
  0
VERTEX
  5
866
  8
0
 10
-23.28373908996582
 20
-11.55520915985107
 30
-85.31898498535156
 70
   192
  0
VERTEX
  5
867
  8
0
 10
-24.94469451904297
 20
-14.66756916046143
 30
-88.19999694824219
 70
   192
  0
VERTEX
  5
868
  8
0
 10
-26.47638893127441
 20
-19.70802879333496
 30
-88.19999694824219
 70
   192
  0
VERTEX
  5
869
  8
0
 10
-25.39280128479004
 20
-15.74713134765625
 30
-85.31898498535156
 70
   192
  0
VERTEX
  5
86A
  8
0
 10
-26.59059524536133
 20
-20.30690574645996
 30
-85.31898498535156
 70
   192
  0
VERTEX
  5
86B
  8
0
 10
-27.0
 20
-25.0
 30
-88.19999694824219
 70
   192
  0
VERTEX
  5
86C
  8
0
 10
-27.0
 20
-25.0
 30
-85.31898498535156
 70
   192
  0
VERTEX
  5
86D
  8
0
 10
-0.0000000000000044
 20
2.0
 30
-85.31898498535156
 70
   192
  0
VERTEX
  5
86E
  8
0
 10
5.291970729827881
 20
1.476388812065125
 30
-88.19999694824219
 70
   192
  0
VERTEX
  5
86F
  8
0
 10
4.691529273986816
 20
1.588497281074524
 30
-85.31898498535156
 70
   192
  0
VERTEX
  5
870
  8
0
 10
10.33243083953857
 20
-0.0553063601255417
 30
-88.19999694824219
 70
   192
  0
VERTEX
  5
871
  8
0
 10
9.235709190368652
 20
0.3696905970573425
 30
-85.31898498535156
 70
   192
  0
VERTEX
  5
872
  8
0
 10
13.4970178604126
 20
-1.61827278137207
 30
-85.31898498535156
 70
   192
  0
VERTEX
  5
873
  8
0
 10
14.97964572906494
 20
-2.536377429962158
 30
-88.19999694824219
 70
   192
  0
VERTEX
  5
874
  8
0
 10
19.09188270568848
 20
-5.908116817474365
 30
-88.19999694824219
 70
   192
  0
VERTEX
  5
875
  8
0
 10
17.35489845275879
 20
-4.318424701690674
 30
-85.31898498535156
 70
   192
  0
VERTEX
  5
876
  8
0
 10
22.463623046875
 20
-10.02035427093506
 30
-88.19999694824219
 70
   192
  0
VERTEX
  5
877
  8
0
 10
20.67305755615234
 20
-7.649652004241943
 30
-85.31898498535156
 70
   192
  0
VERTEX
  5
878
  8
0
 10
23.3681468963623
 20
-11.50775909423828
 30
-85.31898498535156
 70
   192
  0
VERTEX
  5
879
  8
0
 10
24.94469451904297
 20
-14.66756916046143
 30
-88.19999694824219
 70
   192
  0
VERTEX
  5
87A
  8
0
 10
26.47638893127441
 20
-19.70802879333496
 30
-88.19999694824219
 70
   192
  0
VERTEX
  5
87B
  8
0
 10
25.359619140625
 20
-15.77218532562256
 30
-85.31898498535156
 70
   192
  0
VERTEX
  5
87C
  8
0
 10
27.0
 20
-25.0
 30
-88.19999694824219
 70
   192
  0
VERTEX
  5
87D
  8
0
 10
26.58894920349121
 20
-20.3146858215332
 30
-85.31898498535156
 70
   192
  0
VERTEX
  5
87E
  8
0
 10
27.0
 20
-25.0
 30
-85.31898498535156
 70
   192
  0
VERTEX
  5
87F
  8
0
 10
7.271612644195557
 20
0.5733140707015991
 30
-84.82650756835938
 70
   192
  0
VERTEX
  5
880
  8
0
 10
6.89064884185791
 20
-8.366390228271484
 30
-83.69999694824219
 70
   192
  0
VERTEX
  5
881
  8
0
 10
0.0000000000000009
 20
-7.0
 30
-83.69999694824219
 70
   192
  0
VERTEX
  5
882
  8
0
 10
11.84413051605225
 20
-1.195883393287659
 30
-84.82650756835938
 70
   192
  0
VERTEX
  5
883
  8
0
 10
16.01304817199707
 20
-3.77568531036377
 30
-84.82650756835938
 70
   192
  0
VERTEX
  5
884
  8
0
 10
2.44731616973877
 20
1.473456263542175
 30
-84.82650756835938
 70
   192
  0
VERTEX
  5
885
  8
0
 10
-7.274131774902344
 20
0.5702106356620789
 30
-84.82650756835938
 70
   192
  0
VERTEX
  5
886
  8
0
 10
-2.456454038619995
 20
1.472012281417847
 30
-84.82650756835938
 70
   192
  0
VERTEX
  5
887
  8
0
 10
-11.8500804901123
 20
-1.202820777893066
 30
-84.82650756835938
 70
   192
  0
VERTEX
  5
888
  8
0
 10
-6.892013549804688
 20
-8.383356094360352
 30
-83.69999694824219
 70
   192
  0
VERTEX
  5
889
  8
0
 10
-12.72397327423096
 20
-12.28790473937988
 30
-83.69999694824219
 70
   192
  0
VERTEX
  5
88A
  8
0
 10
-16.01839256286621
 20
-3.78443455696106
 30
-84.82650756835938
 70
   192
  0
VERTEX
  5
88B
  8
0
 10
-22.58951950073242
 20
-11.01509952545166
 30
-84.82650756835938
 70
   192
  0
VERTEX
  5
88C
  8
0
 10
-16.62214851379395
 20
-18.12152481079102
 30
-83.69999694824219
 70
   192
  0
VERTEX
  5
88D
  8
0
 10
-19.63678741455078
 20
-7.09999942779541
 30
-84.82650756835938
 70
   192
  0
VERTEX
  5
88E
  8
0
 10
-24.78849029541016
 20
-15.40274810791016
 30
-84.82650756835938
 70
   192
  0
VERTEX
  5
88F
  8
0
 10
-26.13250541687012
 20
-20.12041282653809
 30
-84.82650756835938
 70
   192
  0
VERTEX
  5
890
  8
0
 10
-18.0
 20
-25.0
 30
-83.69999694824219
 70
   192
  0
VERTEX
  5
891
  8
0
 10
-26.58644676208496
 20
-25.0
 30
-84.82650756835938
 70
   192
  0
VERTEX
  5
892
  8
0
 10
12.73811817169189
 20
-12.26895046234131
 30
-83.69999694824219
 70
   192
  0
VERTEX
  5
893
  8
0
 10
22.619384765625
 20
-10.98525524139404
 30
-84.82650756835938
 70
   192
  0
VERTEX
  5
894
  8
0
 10
19.56906127929688
 20
-7.148706436157227
 30
-84.82650756835938
 70
   192
  0
VERTEX
  5
895
  8
0
 10
16.64020538330078
 20
-18.11176681518555
 30
-83.69999694824219
 70
   192
  0
VERTEX
  5
896
  8
0
 10
24.79268836975098
 20
-15.38990783691406
 30
-84.82650756835938
 70
   192
  0
VERTEX
  5
897
  8
0
 10
26.13540077209473
 20
-20.11119651794434
 30
-84.82650756835938
 70
   192
  0
VERTEX
  5
898
  8
0
 10
18.0
 20
-25.0
 30
-83.69999694824219
 70
   192
  0
VERTEX
  5
899
  8
0
 10
26.58644676208496
 20
-25.0
 30
-84.82650756835938
 70
   192
  0
VERTEX
  5
89A
  8
0
 10
26.58894920349121
 20
-29.6853141784668
 30
-85.31898498535156
 70
   192
  0
VERTEX
  5
89B
  8
0
 10
26.13540077209473
 20
-29.88880348205566
 30
-84.82650756835938
 70
   192
  0
VERTEX
  5
89C
  8
0
 10
24.79268836975098
 20
-34.61009216308594
 30
-84.82650756835938
 70
   192
  0
VERTEX
  5
89D
  8
0
 10
25.359619140625
 20
-34.22781372070312
 30
-85.31898498535156
 70
   192
  0
VERTEX
  5
89E
  8
0
 10
23.3681468963623
 20
-38.49224090576172
 30
-85.31898498535156
 70
   192
  0
VERTEX
  5
89F
  8
0
 10
11.84413051605225
 20
-48.80411529541016
 30
-84.82650756835938
 70
   192
  0
VERTEX
  5
8A0
  8
0
 10
13.4970178604126
 20
-48.3817253112793
 30
-85.31898498535156
 70
   192
  0
VERTEX
  5
8A1
  8
0
 10
9.235709190368652
 20
-50.36968994140625
 30
-85.31898498535156
 70
   192
  0
VERTEX
  5
8A2
  8
0
 10
17.35489845275879
 20
-45.68157577514648
 30
-85.31898498535156
 70
   192
  0
VERTEX
  5
8A3
  8
0
 10
19.56906127929688
 20
-42.85129165649414
 30
-84.82650756835938
 70
   192
  0
VERTEX
  5
8A4
  8
0
 10
20.67305755615234
 20
-42.35034942626953
 30
-85.31898498535156
 70
   192
  0
VERTEX
  5
8A5
  8
0
 10
-4.684722900390625
 20
-51.59051895141602
 30
-85.31898498535156
 70
   192
  0
VERTEX
  5
8A6
  8
0
 10
-2.456454038619995
 20
-51.47201156616211
 30
-84.82650756835938
 70
   192
  0
VERTEX
  5
8A7
  8
0
 10
-0.0000000000000018
 20
-52.0
 30
-85.31898498535156
 70
   192
  0
VERTEX
  5
8A8
  8
0
 10
4.691529273986816
 20
-51.58849716186523
 30
-85.31898498535156
 70
   192
  0
VERTEX
  5
8A9
  8
0
 10
2.44731616973877
 20
-51.47345733642578
 30
-84.82650756835938
 70
   192
  0
VERTEX
  5
8AA
  8
0
 10
7.271612644195557
 20
-50.57331466674805
 30
-84.82650756835938
 70
   192
  0
VERTEX
  5
8AB
  8
0
 10
-13.49805450439453
 20
-48.38541030883789
 30
-85.31898498535156
 70
   192
  0
VERTEX
  5
8AC
  8
0
 10
-16.01839256286621
 20
-46.2155647277832
 30
-84.82650756835938
 70
   192
  0
VERTEX
  5
8AD
  8
0
 10
-11.8500804901123
 20
-48.79718017578125
 30
-84.82650756835938
 70
   192
  0
VERTEX
  5
8AE
  8
0
 10
-7.274131774902344
 20
-50.57020950317383
 30
-84.82650756835938
 70
   192
  0
VERTEX
  5
8AF
  8
0
 10
-9.229427337646484
 20
-50.37393188476562
 30
-85.31898498535156
 70
   192
  0
VERTEX
  5
8B0
  8
0
 10
-20.67832565307617
 20
-42.36342239379883
 30
-85.31898498535156
 70
   192
  0
VERTEX
  5
8B1
  8
0
 10
-22.58951950073242
 20
-38.98490142822266
 30
-84.82650756835938
 70
   192
  0
VERTEX
  5
8B2
  8
0
 10
-19.63678741455078
 20
-42.90000152587891
 30
-84.82650756835938
 70
   192
  0
VERTEX
  5
8B3
  8
0
 10
-17.35099029541016
 20
-45.6895637512207
 30
-85.31898498535156
 70
   192
  0
VERTEX
  5
8B4
  8
0
 10
-24.78849029541016
 20
-34.59725189208984
 30
-84.82650756835938
 70
   192
  0
VERTEX
  5
8B5
  8
0
 10
-23.28373908996582
 20
-38.44478988647461
 30
-85.31898498535156
 70
   192
  0
VERTEX
  5
8B6
  8
0
 10
-25.39280128479004
 20
-34.25286865234375
 30
-85.31898498535156
 70
   192
  0
VERTEX
  5
8B7
  8
0
 10
-26.13250541687012
 20
-29.87958717346191
 30
-84.82650756835938
 70
   192
  0
VERTEX
  5
8B8
  8
0
 10
-26.59059524536133
 20
-29.69309425354004
 30
-85.31898498535156
 70
   192
  0
VERTEX
  5
8B9
  8
0
 10
16.01304817199707
 20
-46.22431564331055
 30
-84.82650756835938
 70
   192
  0
VERTEX
  5
8BA
  8
0
 10
22.619384765625
 20
-39.01474380493164
 30
-84.82650756835938
 70
   192
  0
VERTEX
  5
8BB
  8
0
 10
-19.9466724395752
 20
-43.18593978881836
 30
-88.19999694824219
 70
   192
  0
VERTEX
  5
8BC
  8
0
 10
-26.53891181945801
 20
-29.95754623413086
 30
-88.19999694824219
 70
   192
  0
VERTEX
  5
8BD
  8
0
 10
-16.26768684387207
 20
-46.54571533203125
 30
-88.19999694824219
 70
   192
  0
VERTEX
  5
8BE
  8
0
 10
-12.03567028045654
 20
-49.16657257080078
 30
-88.19999694824219
 70
   192
  0
VERTEX
  5
8BF
  8
0
 10
-22.94260215759277
 20
-39.20423889160156
 30
-88.19999694824219
 70
   192
  0
VERTEX
  5
8C0
  8
0
 10
-25.1632194519043
 20
-34.74704742431641
 30
-88.19999694824219
 70
   192
  0
VERTEX
  5
8C1
  8
0
 10
-7.389604568481445
 20
-50.96787643432617
 30
-88.19999694824219
 70
   192
  0
VERTEX
  5
8C2
  8
0
 10
26.54132461547852
 20
-29.96620941162109
 30
-88.19999694824219
 70
   192
  0
VERTEX
  5
8C3
  8
0
 10
7.386507511138916
 20
-50.9703369140625
 30
-88.19999694824219
 70
   192
  0
VERTEX
  5
8C4
  8
0
 10
25.19485664367676
 20
-34.76890563964844
 30
-88.19999694824219
 70
   192
  0
VERTEX
  5
8C5
  8
0
 10
-2.493661165237427
 20
-51.88429641723633
 30
-88.19999694824219
 70
   192
  0
VERTEX
  5
8C6
  8
0
 10
2.487257957458496
 20
-51.88503265380859
 30
-88.19999694824219
 70
   192
  0
VERTEX
  5
8C7
  8
0
 10
16.26826286315918
 20
-46.55105972290039
 30
-88.19999694824219
 70
   192
  0
VERTEX
  5
8C8
  8
0
 10
19.94902038574219
 20
-43.19742202758789
 30
-88.19999694824219
 70
   192
  0
VERTEX
  5
8C9
  8
0
 10
12.02956676483154
 20
-49.17304992675781
 30
-88.19999694824219
 70
   192
  0
VERTEX
  5
8CA
  8
0
 10
22.88628196716309
 20
-39.18077850341797
 30
-88.19999694824219
 70
   192
  0
VERTEX
  5
8CB
  8
0
 10
-16.64020538330078
 20
-31.88823318481445
 30
-83.69999694824219
 70
   192
  0
VERTEX
  5
8CC
  8
0
 10
-12.73811817169189
 20
-37.73104858398438
 30
-83.69999694824219
 70
   192
  0
VERTEX
  5
8CD
  8
0
 10
-6.89064884185791
 20
-41.63360977172852
 30
-83.69999694824219
 70
   192
  0
VERTEX
  5
8CE
  8
0
 10
-0.0000000000000105
 20
-43.0
 30
-83.69999694824219
 70
   192
  0
VERTEX
  5
8CF
  8
0
 10
6.892013549804688
 20
-41.61664199829102
 30
-83.69999694824219
 70
   192
  0
VERTEX
  5
8D0
  8
0
 10
12.72397327423096
 20
-37.71209716796875
 30
-83.69999694824219
 70
   192
  0
VERTEX
  5
8D1
  8
0
 10
16.62214851379395
 20
-31.87847518920898
 30
-83.69999694824219
 70
   192
  0
VERTEX
  5
8D2
  8
0
 62
     9
 10
0.0
 20
0.0
 30
0.0
 70
   128
 71
     3
 72
     2
 73
     1
  0
VERTEX
  5
8D3
  8
0
 62
     9
 10
0.0
 20
0.0
 30
0.0
 70
   128
 71
     5
 72
     4
 73
     1
  0
VERTEX
  5
8D4
  8
0
 62
     9
 10
0.0
 20
0.0
 30
0.0
 70
   128
 71
     3
 72
     1
 73
     4
  0
VERTEX
  5
8D5
  8
0
 62
     9
 10
0.0
 20
0.0
 30
0.0
 70
   128
 71
     5
 72
     7
 73
     6
  0
VERTEX
  5
8D6
  8
0
 62
     9
 10
0.0
 20
0.0
 30
0.0
 70
   128
 71
     6
 72
     4
 73
     5
  0
VERTEX
  5
8D7
  8
0
 62
     9
 10
0.0
 20
0.0
 30
0.0
 70
   128
 71
     9
 72
     7
 73
     8
  0
VERTEX
  5
8D8
  8
0
 62
     9
 10
0.0
 20
0.0
 30
0.0
 70
   128
 71
     7
 72
     9
 73
     6
  0
VERTEX
  5
8D9
  8
0
 62
     9
 10
0.0
 20
0.0
 30
0.0
 70
   128
 71
    11
 72
    10
 73
     8
  0
VERTEX
  5
8DA
  8
0
 62
     9
 10
0.0
 20
0.0
 30
0.0
 70
   128
 71
     9
 72
     8
 73
    10
  0
VERTEX
  5
8DB
  8
0
 62
     9
 10
0.0
 20
0.0
 30
0.0
 70
   128
 71
    11
 72
    13
 73
    12
  0
VERTEX
  5
8DC
  8
0
 62
     9
 10
0.0
 20
0.0
 30
0.0
 70
   128
 71
    12
 72
    10
 73
    11
  0
VERTEX
  5
8DD
  8
0
 62
     9
 10
0.0
 20
0.0
 30
0.0
 70
   128
 71
    15
 72
    13
 73
    14
  0
VERTEX
  5
8DE
  8
0
 62
     9
 10
0.0
 20
0.0
 30
0.0
 70
   128
 71
    13
 72
    15
 73
    12
  0
VERTEX
  5
8DF
  8
0
 62
     9
 10
0.0
 20
0.0
 30
0.0
 70
   128
 71
    17
 72
    16
 73
    14
  0
VERTEX
  5
8E0
  8
0
 62
     9
 10
0.0
 20
0.0
 30
0.0
 70
   128
 71
    15
 72
    14
 73
    16
  0
VERTEX
  5
8E1
  8
0
 62
     9
 10
0.0
 20
0.0
 30
0.0
 70
   128
 71
    18
 72
    16
 73
    17
  0
VERTEX
  5
8E2
  8
0
 62
     9
 10
0.0
 20
0.0
 30
0.0
 70
   128
 71
     2
 72
     3
 73
    19
  0
VERTEX
  5
8E3
  8
0
 62
     9
 10
0.0
 20
0.0
 30
0.0
 70
   128
 71
    21
 72
    20
 73
     2
  0
VERTEX
  5
8E4
  8
0
 62
     9
 10
0.0
 20
0.0
 30
0.0
 70
   128
 71
     2
 72
    19
 73
    21
  0
VERTEX
  5
8E5
  8
0
 62
     9
 10
0.0
 20
0.0
 30
0.0
 70
   128
 71
    20
 72
    23
 73
    22
  0
VERTEX
  5
8E6
  8
0
 62
     9
 10
0.0
 20
0.0
 30
0.0
 70
   128
 71
    23
 72
    20
 73
    21
  0
VERTEX
  5
8E7
  8
0
 62
     9
 10
0.0
 20
0.0
 30
0.0
 70
   128
 71
    25
 72
    22
 73
    24
  0
VERTEX
  5
8E8
  8
0
 62
     9
 10
0.0
 20
0.0
 30
0.0
 70
   128
 71
    23
 72
    24
 73
    22
  0
VERTEX
  5
8E9
  8
0
 62
     9
 10
0.0
 20
0.0
 30
0.0
 70
   128
 71
    27
 72
    26
 73
    25
  0
VERTEX
  5
8EA
  8
0
 62
     9
 10
0.0
 20
0.0
 30
0.0
 70
   128
 71
    25
 72
    24
 73
    27
  0
VERTEX
  5
8EB
  8
0
 62
     9
 10
0.0
 20
0.0
 30
0.0
 70
   128
 71
    26
 72
    29
 73
    28
  0
VERTEX
  5
8EC
  8
0
 62
     9
 10
0.0
 20
0.0
 30
0.0
 70
   128
 71
    29
 72
    26
 73
    27
  0
VERTEX
  5
8ED
  8
0
 62
     9
 10
0.0
 20
0.0
 30
0.0
 70
   128
 71
    31
 72
    28
 73
    30
  0
VERTEX
  5
8EE
  8
0
 62
     9
 10
0.0
 20
0.0
 30
0.0
 70
   128
 71
    29
 72
    30
 73
    28
  0
VERTEX
  5
8EF
  8
0
 62
     9
 10
0.0
 20
0.0
 30
0.0
 70
   128
 71
    33
 72
    32
 73
    31
  0
VERTEX
  5
8F0
  8
0
 62
     9
 10
0.0
 20
0.0
 30
0.0
 70
   128
 71
    31
 72
    30
 73
    33
  0
VERTEX
  5
8F1
  8
0
 62
     9
 10
0.0
 20
0.0
 30
0.0
 70
   128
 71
    32
 72
    35
 73
    34
  0
VERTEX
  5
8F2
  8
0
 62
     9
 10
0.0
 20
0.0
 30
0.0
 70
   128
 71
    35
 72
    32
 73
    33
  0
VERTEX
  5
8F3
  8
0
 62
     9
 10
0.0
 20
0.0
 30
0.0
 70
   128
 71
    35
 72
    36
 73
    34
  0
VERTEX
  5
8F4
  8
0
 62
     9
 10
0.0
 20
0.0
 30
0.0
 70
   128
 71
    39
 72
    38
 73
    37
  0
VERTEX
  5
8F5
  8
0
 62
     9
 10
0.0
 20
0.0
 30
0.0
 70
   128
 71
    41
 72
    40
 73
    38
  0
VERTEX
  5
8F6
  8
0
 62
     9
 10
0.0
 20
0.0
 30
0.0
 70
   128
 71
    42
 72
    39
 73
    37
  0
VERTEX
  5
8F7
  8
0
 62
     9
 10
0.0
 20
0.0
 30
0.0
 70
   128
 71
    39
 72
    44
 73
    43
  0
VERTEX
  5
8F8
  8
0
 62
     9
 10
0.0
 20
0.0
 30
0.0
 70
   128
 71
    39
 72
    42
 73
    44
  0
VERTEX
  5
8F9
  8
0
 62
     9
 10
0.0
 20
0.0
 30
0.0
 70
   128
 71
    46
 72
    43
 73
    45
  0
VERTEX
  5
8FA
  8
0
 62
     9
 10
0.0
 20
0.0
 30
0.0
 70
   128
 71
    46
 72
    39
 73
    43
  0
VERTEX
  5
8FB
  8
0
 62
     9
 10
0.0
 20
0.0
 30
0.0
 70
   128
 71
    46
 72
    48
 73
    47
  0
VERTEX
  5
8FC
  8
0
 62
     9
 10
0.0
 20
0.0
 30
0.0
 70
   128
 71
    46
 72
    45
 73
    48
  0
VERTEX
  5
8FD
  8
0
 62
     9
 10
0.0
 20
0.0
 30
0.0
 70
   128
 71
    37
 72
    38
 73
    40
  0
VERTEX
  5
8FE
  8
0
 62
     9
 10
0.0
 20
0.0
 30
0.0
 70
   128
 71
    50
 72
    47
 73
    49
  0
VERTEX
  5
8FF
  8
0
 62
     9
 10
0.0
 20
0.0
 30
0.0
 70
   128
 71
    49
 72
    47
 73
    51
  0
VERTEX
  5
900
  8
0
 62
     9
 10
0.0
 20
0.0
 30
0.0
 70
   128
 71
    52
 72
    50
 73
    49
  0
VERTEX
  5
901
  8
0
 62
     9
 10
0.0
 20
0.0
 30
0.0
 70
   128
 71
    48
 72
    51
 73
    47
  0
VERTEX
  5
902
  8
0
 62
     9
 10
0.0
 20
0.0
 30
0.0
 70
   128
 71
    52
 72
    53
 73
    50
  0
VERTEX
  5
903
  8
0
 62
     9
 10
0.0
 20
0.0
 30
0.0
 70
   128
 71
    54
 72
    50
 73
    53
  0
VERTEX
  5
904
  8
0
 62
     9
 10
0.0
 20
0.0
 30
0.0
 70
   128
 71
    55
 72
    54
 73
    53
  0
VERTEX
  5
905
  8
0
 62
     9
 10
0.0
 20
0.0
 30
0.0
 70
   128
 71
    38
 72
    56
 73
    41
  0
VERTEX
  5
906
  8
0
 62
     9
 10
0.0
 20
0.0
 30
0.0
 70
   128
 71
    58
 72
    56
 73
    57
  0
VERTEX
  5
907
  8
0
 62
     9
 10
0.0
 20
0.0
 30
0.0
 70
   128
 71
    58
 72
    41
 73
    56
  0
VERTEX
  5
908
  8
0
 62
     9
 10
0.0
 20
0.0
 30
0.0
 70
   128
 71
    60
 72
    57
 73
    59
  0
VERTEX
  5
909
  8
0
 62
     9
 10
0.0
 20
0.0
 30
0.0
 70
   128
 71
    56
 72
    59
 73
    57
  0
VERTEX
  5
90A
  8
0
 62
     9
 10
0.0
 20
0.0
 30
0.0
 70
   128
 71
    59
 72
    62
 73
    61
  0
VERTEX
  5
90B
  8
0
 62
     9
 10
0.0
 20
0.0
 30
0.0
 70
   128
 71
    61
 72
    60
 73
    59
  0
VERTEX
  5
90C
  8
0
 62
     9
 10
0.0
 20
0.0
 30
0.0
 70
   128
 71
    62
 72
    63
 73
    61
  0
VERTEX
  5
90D
  8
0
 62
     9
 10
0.0
 20
0.0
 30
0.0
 70
   128
 71
    21
 72
    37
 73
    23
  0
VERTEX
  5
90E
  8
0
 62
     9
 10
0.0
 20
0.0
 30
0.0
 70
   128
 71
    42
 72
    21
 73
    19
  0
VERTEX
  5
90F
  8
0
 62
     9
 10
0.0
 20
0.0
 30
0.0
 70
   128
 71
    30
 72
    60
 73
    33
  0
VERTEX
  5
910
  8
0
 62
     9
 10
0.0
 20
0.0
 30
0.0
 70
   128
 71
    40
 72
    23
 73
    37
  0
VERTEX
  5
911
  8
0
 62
     9
 10
0.0
 20
0.0
 30
0.0
 70
   128
 71
    24
 72
    40
 73
    41
  0
VERTEX
  5
912
  8
0
 62
     9
 10
0.0
 20
0.0
 30
0.0
 70
   128
 71
    41
 72
    58
 73
    27
  0
VERTEX
  5
913
  8
0
 62
     9
 10
0.0
 20
0.0
 30
0.0
 70
   128
 71
    41
 72
    27
 73
    24
  0
VERTEX
  5
914
  8
0
 62
     9
 10
0.0
 20
0.0
 30
0.0
 70
   128
 71
    29
 72
    58
 73
    57
  0
VERTEX
  5
915
  8
0
 62
     9
 10
0.0
 20
0.0
 30
0.0
 70
   128
 71
    27
 72
    58
 73
    29
  0
VERTEX
  5
916
  8
0
 62
     9
 10
0.0
 20
0.0
 30
0.0
 70
   128
 71
    60
 72
    30
 73
    57
  0
VERTEX
  5
917
  8
0
 62
     9
 10
0.0
 20
0.0
 30
0.0
 70
   128
 71
    30
 72
    29
 73
    57
  0
VERTEX
  5
918
  8
0
 62
     9
 10
0.0
 20
0.0
 30
0.0
 70
   128
 71
    33
 72
    61
 73
    35
  0
VERTEX
  5
919
  8
0
 62
     9
 10
0.0
 20
0.0
 30
0.0
 70
   128
 71
    40
 72
    24
 73
    23
  0
VERTEX
  5
91A
  8
0
 62
     9
 10
0.0
 20
0.0
 30
0.0
 70
   128
 71
    21
 72
    42
 73
    37
  0
VERTEX
  5
91B
  8
0
 62
     9
 10
0.0
 20
0.0
 30
0.0
 70
   128
 71
    61
 72
    33
 73
    60
  0
VERTEX
  5
91C
  8
0
 62
     9
 10
0.0
 20
0.0
 30
0.0
 70
   128
 71
    35
 72
    63
 73
    36
  0
VERTEX
  5
91D
  8
0
 62
     9
 10
0.0
 20
0.0
 30
0.0
 70
   128
 71
    35
 72
    61
 73
    63
  0
VERTEX
  5
91E
  8
0
 62
     9
 10
0.0
 20
0.0
 30
0.0
 70
   128
 71
     3
 72
    44
 73
    19
  0
VERTEX
  5
91F
  8
0
 62
     9
 10
0.0
 20
0.0
 30
0.0
 70
   128
 71
    42
 72
    19
 73
    44
  0
VERTEX
  5
920
  8
0
 62
     9
 10
0.0
 20
0.0
 30
0.0
 70
   128
 71
     3
 72
     4
 73
    43
  0
VERTEX
  5
921
  8
0
 62
     9
 10
0.0
 20
0.0
 30
0.0
 70
   128
 71
    43
 72
    44
 73
     3
  0
VERTEX
  5
922
  8
0
 62
     9
 10
0.0
 20
0.0
 30
0.0
 70
   128
 71
    45
 72
     4
 73
     6
  0
VERTEX
  5
923
  8
0
 62
     9
 10
0.0
 20
0.0
 30
0.0
 70
   128
 71
     4
 72
    45
 73
    43
  0
VERTEX
  5
924
  8
0
 62
     9
 10
0.0
 20
0.0
 30
0.0
 70
   128
 71
     9
 72
    48
 73
     6
  0
VERTEX
  5
925
  8
0
 62
     9
 10
0.0
 20
0.0
 30
0.0
 70
   128
 71
    45
 72
     6
 73
    48
  0
VERTEX
  5
926
  8
0
 62
     9
 10
0.0
 20
0.0
 30
0.0
 70
   128
 71
     9
 72
    10
 73
    51
  0
VERTEX
  5
927
  8
0
 62
     9
 10
0.0
 20
0.0
 30
0.0
 70
   128
 71
    51
 72
    48
 73
     9
  0
VERTEX
  5
928
  8
0
 62
     9
 10
0.0
 20
0.0
 30
0.0
 70
   128
 71
    49
 72
    10
 73
    12
  0
VERTEX
  5
929
  8
0
 62
     9
 10
0.0
 20
0.0
 30
0.0
 70
   128
 71
    10
 72
    49
 73
    51
  0
VERTEX
  5
92A
  8
0
 62
     9
 10
0.0
 20
0.0
 30
0.0
 70
   128
 71
    15
 72
    52
 73
    12
  0
VERTEX
  5
92B
  8
0
 62
     9
 10
0.0
 20
0.0
 30
0.0
 70
   128
 71
    49
 72
    12
 73
    52
  0
VERTEX
  5
92C
  8
0
 62
     9
 10
0.0
 20
0.0
 30
0.0
 70
   128
 71
    15
 72
    16
 73
    53
  0
VERTEX
  5
92D
  8
0
 62
     9
 10
0.0
 20
0.0
 30
0.0
 70
   128
 71
    53
 72
    52
 73
    15
  0
VERTEX
  5
92E
  8
0
 62
     9
 10
0.0
 20
0.0
 30
0.0
 70
   128
 71
    16
 72
    55
 73
    53
  0
VERTEX
  5
92F
  8
0
 62
     9
 10
0.0
 20
0.0
 30
0.0
 70
   128
 71
    16
 72
    18
 73
    55
  0
VERTEX
  5
930
  8
0
 62
     9
 10
0.0
 20
0.0
 30
0.0
 70
   128
 71
    63
 72
    65
 73
    64
  0
VERTEX
  5
931
  8
0
 62
     9
 10
0.0
 20
0.0
 30
0.0
 70
   128
 71
    68
 72
    67
 73
    66
  0
VERTEX
  5
932
  8
0
 62
     9
 10
0.0
 20
0.0
 30
0.0
 70
   128
 71
    71
 72
    70
 73
    69
  0
VERTEX
  5
933
  8
0
 62
     9
 10
0.0
 20
0.0
 30
0.0
 70
   128
 71
    74
 72
    73
 73
    72
  0
VERTEX
  5
934
  8
0
 62
     9
 10
0.0
 20
0.0
 30
0.0
 70
   128
 71
    77
 72
    76
 73
    75
  0
VERTEX
  5
935
  8
0
 62
     9
 10
0.0
 20
0.0
 30
0.0
 70
   128
 71
    80
 72
    79
 73
    78
  0
VERTEX
  5
936
  8
0
 62
     9
 10
0.0
 20
0.0
 30
0.0
 70
   128
 71
    83
 72
    82
 73
    81
  0
VERTEX
  5
937
  8
0
 62
     9
 10
0.0
 20
0.0
 30
0.0
 70
   128
 71
    83
 72
    85
 73
    84
  0
VERTEX
  5
938
  8
0
 62
     9
 10
0.0
 20
0.0
 30
0.0
 70
   128
 71
    88
 72
    87
 73
    86
  0
VERTEX
  5
939
  8
0
 62
     9
 10
0.0
 20
0.0
 30
0.0
 70
   128
 71
    86
 72
    89
 73
    88
  0
VERTEX
  5
93A
  8
0
 62
     9
 10
0.0
 20
0.0
 30
0.0
 70
   128
 71
    91
 72
    87
 73
    90
  0
VERTEX
  5
93B
  8
0
 62
     9
 10
0.0
 20
0.0
 30
0.0
 70
   128
 71
    87
 72
    91
 73
    86
  0
VERTEX
  5
93C
  8
0
 62
     9
 10
0.0
 20
0.0
 30
0.0
 70
   128
 71
    93
 72
    92
 73
    90
  0
VERTEX
  5
93D
  8
0
 62
     9
 10
0.0
 20
0.0
 30
0.0
 70
   128
 71
    91
 72
    90
 73
    92
  0
VERTEX
  5
93E
  8
0
 62
     9
 10
0.0
 20
0.0
 30
0.0
 70
   128
 71
    93
 72
    55
 73
    94
  0
VERTEX
  5
93F
  8
0
 62
     9
 10
0.0
 20
0.0
 30
0.0
 70
   128
 71
    94
 72
    92
 73
    93
  0
VERTEX
  5
940
  8
0
 62
     9
 10
0.0
 20
0.0
 30
0.0
 70
   128
 71
    88
 72
    89
 73
    82
  0
VERTEX
  5
941
  8
0
 62
     9
 10
0.0
 20
0.0
 30
0.0
 70
   128
 71
    55
 72
    18
 73
    94
  0
VERTEX
  5
942
  8
0
 62
     9
 10
0.0
 20
0.0
 30
0.0
 70
   128
 71
    81
 72
    82
 73
    89
  0
VERTEX
  5
943
  8
0
 62
     9
 10
0.0
 20
0.0
 30
0.0
 70
   128
 71
    77
 72
    79
 73
    76
  0
VERTEX
  5
944
  8
0
 62
     9
 10
0.0
 20
0.0
 30
0.0
 70
   128
 71
    83
 72
    81
 73
    85
  0
VERTEX
  5
945
  8
0
 62
     9
 10
0.0
 20
0.0
 30
0.0
 70
   128
 71
    75
 72
    76
 73
    84
  0
VERTEX
  5
946
  8
0
 62
     9
 10
0.0
 20
0.0
 30
0.0
 70
   128
 71
    75
 72
    84
 73
    85
  0
VERTEX
  5
947
  8
0
 62
     9
 10
0.0
 20
0.0
 30
0.0
 70
   128
 71
    78
 72
    71
 73
    80
  0
VERTEX
  5
948
  8
0
 62
     9
 10
0.0
 20
0.0
 30
0.0
 70
   128
 71
    77
 72
    78
 73
    79
  0
VERTEX
  5
949
  8
0
 62
     9
 10
0.0
 20
0.0
 30
0.0
 70
   128
 71
    70
 72
    95
 73
    69
  0
VERTEX
  5
94A
  8
0
 62
     9
 10
0.0
 20
0.0
 30
0.0
 70
   128
 71
    80
 72
    71
 73
    69
  0
VERTEX
  5
94B
  8
0
 62
     9
 10
0.0
 20
0.0
 30
0.0
 70
   128
 71
    95
 72
    70
 73
    72
  0
VERTEX
  5
94C
  8
0
 62
     9
 10
0.0
 20
0.0
 30
0.0
 70
   128
 71
    73
 72
    95
 73
    72
  0
VERTEX
  5
94D
  8
0
 62
     9
 10
0.0
 20
0.0
 30
0.0
 70
   128
 71
    74
 72
    68
 73
    96
  0
VERTEX
  5
94E
  8
0
 62
     9
 10
0.0
 20
0.0
 30
0.0
 70
   128
 71
    96
 72
    73
 73
    74
  0
VERTEX
  5
94F
  8
0
 62
     9
 10
0.0
 20
0.0
 30
0.0
 70
   128
 71
    68
 72
    66
 73
    96
  0
VERTEX
  5
950
  8
0
 62
     9
 10
0.0
 20
0.0
 30
0.0
 70
   128
 71
    36
 72
    63
 73
    64
  0
VERTEX
  5
951
  8
0
 62
     9
 10
0.0
 20
0.0
 30
0.0
 70
   128
 71
    67
 72
    64
 73
    65
  0
VERTEX
  5
952
  8
0
 62
     9
 10
0.0
 20
0.0
 30
0.0
 70
   128
 71
    67
 72
    65
 73
    66
  0
VERTEX
  5
953
  8
0
 62
     9
 10
0.0
 20
0.0
 30
0.0
 70
   128
 71
    97
 72
    25
 73
    26
  0
VERTEX
  5
954
  8
0
 62
     9
 10
0.0
 20
0.0
 30
0.0
 70
   128
 71
     7
 72
     5
 73
    11
  0
VERTEX
  5
955
  8
0
 62
     9
 10
0.0
 20
0.0
 30
0.0
 70
   128
 71
     8
 72
     7
 73
    11
  0
VERTEX
  5
956
  8
0
 62
     9
 10
0.0
 20
0.0
 30
0.0
 70
   128
 71
    13
 72
     5
 73
     1
  0
VERTEX
  5
957
  8
0
 62
     9
 10
0.0
 20
0.0
 30
0.0
 70
   128
 71
     5
 72
    13
 73
    11
  0
VERTEX
  5
958
  8
0
 62
     9
 10
0.0
 20
0.0
 30
0.0
 70
   128
 71
     2
 72
    14
 73
     1
  0
VERTEX
  5
959
  8
0
 62
     9
 10
0.0
 20
0.0
 30
0.0
 70
   128
 71
    13
 72
     1
 73
    14
  0
VERTEX
  5
95A
  8
0
 62
     9
 10
0.0
 20
0.0
 30
0.0
 70
   128
 71
    20
 72
    98
 73
     2
  0
VERTEX
  5
95B
  8
0
 62
     9
 10
0.0
 20
0.0
 30
0.0
 70
   128
 71
    17
 72
    14
 73
     2
  0
VERTEX
  5
95C
  8
0
 62
     9
 10
0.0
 20
0.0
 30
0.0
 70
   128
 71
   100
 72
    99
 73
    28
  0
VERTEX
  5
95D
  8
0
 62
     9
 10
0.0
 20
0.0
 30
0.0
 70
   128
 71
   102
 72
    22
 73
   101
  0
VERTEX
  5
95E
  8
0
 62
     9
 10
0.0
 20
0.0
 30
0.0
 70
   128
 71
    32
 72
   103
 73
    31
  0
VERTEX
  5
95F
  8
0
 62
     9
 10
0.0
 20
0.0
 30
0.0
 70
   128
 71
   106
 72
   105
 73
   104
  0
VERTEX
  5
960
  8
0
 62
     9
 10
0.0
 20
0.0
 30
0.0
 70
   128
 71
   108
 72
   107
 73
    34
  0
VERTEX
  5
961
  8
0
 62
     9
 10
0.0
 20
0.0
 30
0.0
 70
   128
 71
   105
 72
   110
 73
   109
  0
VERTEX
  5
962
  8
0
 62
     9
 10
0.0
 20
0.0
 30
0.0
 70
   128
 71
   105
 72
   109
 73
   111
  0
VERTEX
  5
963
  8
0
 62
     9
 10
0.0
 20
0.0
 30
0.0
 70
   128
 71
   110
 72
   106
 73
   112
  0
VERTEX
  5
964
  8
0
 62
     9
 10
0.0
 20
0.0
 30
0.0
 70
   128
 71
   104
 72
   105
 73
   108
  0
VERTEX
  5
965
  8
0
 62
     9
 10
0.0
 20
0.0
 30
0.0
 70
   128
 71
   105
 72
   106
 73
   110
  0
VERTEX
  5
966
  8
0
 62
     9
 10
0.0
 20
0.0
 30
0.0
 70
   128
 71
    34
 72
   104
 73
   108
  0
VERTEX
  5
967
  8
0
 62
     9
 10
0.0
 20
0.0
 30
0.0
 70
   128
 71
    32
 72
   107
 73
   103
  0
VERTEX
  5
968
  8
0
 62
     9
 10
0.0
 20
0.0
 30
0.0
 70
   128
 71
    32
 72
    34
 73
   107
  0
VERTEX
  5
969
  8
0
 62
     9
 10
0.0
 20
0.0
 30
0.0
 70
   128
 71
    28
 72
    31
 73
   100
  0
VERTEX
  5
96A
  8
0
 62
     9
 10
0.0
 20
0.0
 30
0.0
 70
   128
 71
   100
 72
    31
 73
   103
  0
VERTEX
  5
96B
  8
0
 62
     9
 10
0.0
 20
0.0
 30
0.0
 70
   128
 71
    97
 72
    26
 73
    99
  0
VERTEX
  5
96C
  8
0
 62
     9
 10
0.0
 20
0.0
 30
0.0
 70
   128
 71
    99
 72
    26
 73
    28
  0
VERTEX
  5
96D
  8
0
 62
     9
 10
0.0
 20
0.0
 30
0.0
 70
   128
 71
   101
 72
    22
 73
    25
  0
VERTEX
  5
96E
  8
0
 62
     9
 10
0.0
 20
0.0
 30
0.0
 70
   128
 71
    97
 72
   101
 73
    25
  0
VERTEX
  5
96F
  8
0
 62
     9
 10
0.0
 20
0.0
 30
0.0
 70
   128
 71
   102
 72
    98
 73
    20
  0
VERTEX
  5
970
  8
0
 62
     9
 10
0.0
 20
0.0
 30
0.0
 70
   128
 71
    22
 72
   102
 73
    20
  0
VERTEX
  5
971
  8
0
 62
     9
 10
0.0
 20
0.0
 30
0.0
 70
   128
 71
    17
 72
     2
 73
    98
  0
VERTEX
  5
972
  8
0
 62
     9
 10
0.0
 20
0.0
 30
0.0
 70
   128
 71
    90
 72
   113
 73
    93
  0
VERTEX
  5
973
  8
0
 62
     9
 10
0.0
 20
0.0
 30
0.0
 70
   128
 71
   113
 72
    87
 73
   114
  0
VERTEX
  5
974
  8
0
 62
     9
 10
0.0
 20
0.0
 30
0.0
 70
   128
 71
    55
 72
    93
 73
    54
  0
VERTEX
  5
975
  8
0
 62
     9
 10
0.0
 20
0.0
 30
0.0
 70
   128
 71
    83
 72
    84
 73
   115
  0
VERTEX
  5
976
  8
0
 62
     9
 10
0.0
 20
0.0
 30
0.0
 70
   128
 71
    88
 72
    82
 73
   114
  0
VERTEX
  5
977
  8
0
 62
     9
 10
0.0
 20
0.0
 30
0.0
 70
   128
 71
    76
 72
    79
 73
   116
  0
VERTEX
  5
978
  8
0
 62
     9
 10
0.0
 20
0.0
 30
0.0
 70
   128
 71
    76
 72
   116
 73
    84
  0
VERTEX
  5
979
  8
0
 62
     9
 10
0.0
 20
0.0
 30
0.0
 70
   128
 71
    80
 72
    69
 73
   117
  0
VERTEX
  5
97A
  8
0
 62
     9
 10
0.0
 20
0.0
 30
0.0
 70
   128
 71
   117
 72
   116
 73
    80
  0
VERTEX
  5
97B
  8
0
 62
     9
 10
0.0
 20
0.0
 30
0.0
 70
   128
 71
    95
 72
    73
 73
   118
  0
VERTEX
  5
97C
  8
0
 62
     9
 10
0.0
 20
0.0
 30
0.0
 70
   128
 71
   118
 72
   117
 73
    95
  0
VERTEX
  5
97D
  8
0
 62
     9
 10
0.0
 20
0.0
 30
0.0
 70
   128
 71
   118
 72
    96
 73
   119
  0
VERTEX
  5
97E
  8
0
 62
     9
 10
0.0
 20
0.0
 30
0.0
 70
   128
 71
    96
 72
   118
 73
    73
  0
VERTEX
  5
97F
  8
0
 62
     9
 10
0.0
 20
0.0
 30
0.0
 70
   128
 71
   119
 72
    66
 73
    65
  0
VERTEX
  5
980
  8
0
 62
     9
 10
0.0
 20
0.0
 30
0.0
 70
   128
 71
    96
 72
    66
 73
   119
  0
VERTEX
  5
981
  8
0
 62
     9
 10
0.0
 20
0.0
 30
0.0
 70
   128
 71
    63
 72
    62
 73
    65
  0
VERTEX
  5
982
  8
0
 62
     9
 10
0.0
 20
0.0
 30
0.0
 70
   128
 71
   119
 72
    65
 73
    62
  0
VERTEX
  5
983
  8
0
 62
     9
 10
0.0
 20
0.0
 30
0.0
 70
   128
 71
    95
 72
   117
 73
    69
  0
VERTEX
  5
984
  8
0
 62
     9
 10
0.0
 20
0.0
 30
0.0
 70
   128
 71
   115
 72
    84
 73
   116
  0
VERTEX
  5
985
  8
0
 62
     9
 10
0.0
 20
0.0
 30
0.0
 70
   128
 71
    80
 72
   116
 73
    79
  0
VERTEX
  5
986
  8
0
 62
     9
 10
0.0
 20
0.0
 30
0.0
 70
   128
 71
   114
 72
    82
 73
   115
  0
VERTEX
  5
987
  8
0
 62
     9
 10
0.0
 20
0.0
 30
0.0
 70
   128
 71
    82
 72
    83
 73
   115
  0
VERTEX
  5
988
  8
0
 62
     9
 10
0.0
 20
0.0
 30
0.0
 70
   128
 71
   113
 72
    90
 73
    87
  0
VERTEX
  5
989
  8
0
 62
     9
 10
0.0
 20
0.0
 30
0.0
 70
   128
 71
   114
 72
    87
 73
    88
  0
VERTEX
  5
98A
  8
0
 62
     9
 10
0.0
 20
0.0
 30
0.0
 70
   128
 71
   113
 72
    54
 73
    93
  0
VERTEX
  5
98B
  8
0
 62
     9
 10
0.0
 20
0.0
 30
0.0
 70
   128
 71
    17
 72
    98
 73
    94
  0
VERTEX
  5
98C
  8
0
 62
     9
 10
0.0
 20
0.0
 30
0.0
 70
   128
 71
    86
 72
    97
 73
    89
  0
VERTEX
  5
98D
  8
0
 62
     9
 10
0.0
 20
0.0
 30
0.0
 70
   128
 71
    91
 72
    92
 73
   102
  0
VERTEX
  5
98E
  8
0
 62
     9
 10
0.0
 20
0.0
 30
0.0
 70
   128
 71
   107
 72
    75
 73
   103
  0
VERTEX
  5
98F
  8
0
 62
     9
 10
0.0
 20
0.0
 30
0.0
 70
   128
 71
    85
 72
    81
 73
   100
  0
VERTEX
  5
990
  8
0
 62
     9
 10
0.0
 20
0.0
 30
0.0
 70
   128
 71
    71
 72
   105
 73
   111
  0
VERTEX
  5
991
  8
0
 62
     9
 10
0.0
 20
0.0
 30
0.0
 70
   128
 71
    77
 72
   108
 73
    78
  0
VERTEX
  5
992
  8
0
 62
     9
 10
0.0
 20
0.0
 30
0.0
 70
   128
 71
    72
 72
   109
 73
   110
  0
VERTEX
  5
993
  8
0
 62
     9
 10
0.0
 20
0.0
 30
0.0
 70
   128
 71
   111
 72
   109
 73
    70
  0
VERTEX
  5
994
  8
0
 62
     9
 10
0.0
 20
0.0
 30
0.0
 70
   128
 71
    68
 72
    74
 73
   112
  0
VERTEX
  5
995
  8
0
 62
     9
 10
0.0
 20
0.0
 30
0.0
 70
   128
 71
   110
 72
   112
 73
    74
  0
VERTEX
  5
996
  8
0
 62
     9
 10
0.0
 20
0.0
 30
0.0
 70
   128
 71
   106
 72
    67
 73
    68
  0
VERTEX
  5
997
  8
0
 62
     9
 10
0.0
 20
0.0
 30
0.0
 70
   128
 71
    68
 72
   112
 73
   106
  0
VERTEX
  5
998
  8
0
 62
     9
 10
0.0
 20
0.0
 30
0.0
 70
   128
 71
    67
 72
   104
 73
    64
  0
VERTEX
  5
999
  8
0
 62
     9
 10
0.0
 20
0.0
 30
0.0
 70
   128
 71
   104
 72
    67
 73
   106
  0
VERTEX
  5
99A
  8
0
 62
     9
 10
0.0
 20
0.0
 30
0.0
 70
   128
 71
    36
 72
    64
 73
    34
  0
VERTEX
  5
99B
  8
0
 62
     9
 10
0.0
 20
0.0
 30
0.0
 70
   128
 71
   104
 72
    34
 73
    64
  0
VERTEX
  5
99C
  8
0
 62
     9
 10
0.0
 20
0.0
 30
0.0
 70
   128
 71
    70
 72
   109
 73
    72
  0
VERTEX
  5
99D
  8
0
 62
     9
 10
0.0
 20
0.0
 30
0.0
 70
   128
 71
    72
 72
   110
 73
    74
  0
VERTEX
  5
99E
  8
0
 62
     9
 10
0.0
 20
0.0
 30
0.0
 70
   128
 71
   105
 72
    71
 73
    78
  0
VERTEX
  5
99F
  8
0
 62
     9
 10
0.0
 20
0.0
 30
0.0
 70
   128
 71
    71
 72
   111
 73
    70
  0
VERTEX
  5
9A0
  8
0
 62
     9
 10
0.0
 20
0.0
 30
0.0
 70
   128
 71
    77
 72
   107
 73
   108
  0
VERTEX
  5
9A1
  8
0
 62
     9
 10
0.0
 20
0.0
 30
0.0
 70
   128
 71
    78
 72
   108
 73
   105
  0
VERTEX
  5
9A2
  8
0
 62
     9
 10
0.0
 20
0.0
 30
0.0
 70
   128
 71
    75
 72
    85
 73
   103
  0
VERTEX
  5
9A3
  8
0
 62
     9
 10
0.0
 20
0.0
 30
0.0
 70
   128
 71
    77
 72
    75
 73
   107
  0
VERTEX
  5
9A4
  8
0
 62
     9
 10
0.0
 20
0.0
 30
0.0
 70
   128
 71
   100
 72
    81
 73
    99
  0
VERTEX
  5
9A5
  8
0
 62
     9
 10
0.0
 20
0.0
 30
0.0
 70
   128
 71
   103
 72
    85
 73
   100
  0
VERTEX
  5
9A6
  8
0
 62
     9
 10
0.0
 20
0.0
 30
0.0
 70
   128
 71
    89
 72
    97
 73
    99
  0
VERTEX
  5
9A7
  8
0
 62
     9
 10
0.0
 20
0.0
 30
0.0
 70
   128
 71
    99
 72
    81
 73
    89
  0
VERTEX
  5
9A8
  8
0
 62
     9
 10
0.0
 20
0.0
 30
0.0
 70
   128
 71
    91
 72
   101
 73
    86
  0
VERTEX
  5
9A9
  8
0
 62
     9
 10
0.0
 20
0.0
 30
0.0
 70
   128
 71
   101
 72
    97
 73
    86
  0
VERTEX
  5
9AA
  8
0
 62
     9
 10
0.0
 20
0.0
 30
0.0
 70
   128
 71
    92
 72
    98
 73
   102
  0
VERTEX
  5
9AB
  8
0
 62
     9
 10
0.0
 20
0.0
 30
0.0
 70
   128
 71
    91
 72
   102
 73
   101
  0
VERTEX
  5
9AC
  8
0
 62
     9
 10
0.0
 20
0.0
 30
0.0
 70
   128
 71
    94
 72
    18
 73
    17
  0
VERTEX
  5
9AD
  8
0
 62
     9
 10
0.0
 20
0.0
 30
0.0
 70
   128
 71
    92
 72
    94
 73
    98
  0
SEQEND
  5
9AE
  8
0
 62
     9
  0
ENDBLK
  5
9B1
  8
0
  0
BLOCK
  8
0
  2
44
 70
     0
 10
0.0
 20
0.0
 30
0.0
  3
44
  1

  0
POLYLINE
  5
9B3
  8
0
 62
     9
 66
     1
 10
0.0
 20
0.0
 30
0.0
 70
    64
 71
    36
 72
    36
  0
VERTEX
  5
9B4
  8
0
 10
-3.114990234375
 20
-7.273608684539795
 30
-83.69999694824219
 70
   192
  0
VERTEX
  5
9B5
  8
0
 10
3.114990234375
 20
-7.273608684539795
 30
-14.5
 70
   192
  0
VERTEX
  5
9B6
  8
0
 10
-3.13453483581543
 20
-7.276514053344727
 30
-14.5
 70
   192
  0
VERTEX
  5
9B7
  8
0
 10
-9.010696411132812
 20
-9.42646312713623
 30
-14.5
 70
   192
  0
VERTEX
  5
9B8
  8
0
 10
-8.992050170898438
 20
-9.403282165527344
 30
-83.69999694824219
 70
   192
  0
VERTEX
  5
9B9
  8
0
 10
-13.78846549987793
 20
-13.42000198364258
 30
-83.69999694824219
 70
   192
  0
VERTEX
  5
9BA
  8
0
 10
-13.7887716293335
 20
-13.4381217956543
 30
-14.5
 70
   192
  0
VERTEX
  5
9BB
  8
0
 10
-16.87049865722656
 20
-18.83605575561523
 30
-83.69999694824219
 70
   192
  0
VERTEX
  5
9BC
  8
0
 10
-16.83249855041504
 20
-18.8673038482666
 30
-14.5
 70
   192
  0
VERTEX
  5
9BD
  8
0
 10
-18.0
 20
-25.0
 30
-83.69999694824219
 70
   192
  0
VERTEX
  5
9BE
  8
0
 10
-18.0
 20
-25.0
 30
-14.5
 70
   192
  0
VERTEX
  5
9BF
  8
0
 10
3.13453483581543
 20
-7.276514053344727
 30
-83.69999694824219
 70
   192
  0
VERTEX
  5
9C0
  8
0
 10
8.992050170898438
 20
-9.403282165527344
 30
-14.5
 70
   192
  0
VERTEX
  5
9C1
  8
0
 10
9.010696411132812
 20
-9.42646312713623
 30
-83.69999694824219
 70
   192
  0
VERTEX
  5
9C2
  8
0
 10
13.7887716293335
 20
-13.4381217956543
 30
-83.69999694824219
 70
   192
  0
VERTEX
  5
9C3
  8
0
 10
13.78846549987793
 20
-13.42000198364258
 30
-14.5
 70
   192
  0
VERTEX
  5
9C4
  8
0
 10
16.83249855041504
 20
-18.8673038482666
 30
-83.69999694824219
 70
   192
  0
VERTEX
  5
9C5
  8
0
 10
16.87049865722656
 20
-18.83605575561523
 30
-14.5
 70
   192
  0
VERTEX
  5
9C6
  8
0
 10
18.0
 20
-25.0
 30
-14.5
 70
   192
  0
VERTEX
  5
9C7
  8
0
 10
18.0
 20
-25.0
 30
-83.69999694824219
 70
   192
  0
VERTEX
  5
9C8
  8
0
 10
-16.83249855041504
 20
-31.1326961517334
 30
-83.69999694824219
 70
   192
  0
VERTEX
  5
9C9
  8
0
 10
-3.13453483581543
 20
-42.72348403930664
 30
-83.69999694824219
 70
   192
  0
VERTEX
  5
9CA
  8
0
 10
-9.010696411132812
 20
-40.57353591918945
 30
-83.69999694824219
 70
   192
  0
VERTEX
  5
9CB
  8
0
 10
-3.114990234375
 20
-42.72639083862305
 30
-14.5
 70
   192
  0
VERTEX
  5
9CC
  8
0
 10
-13.7887716293335
 20
-36.5618782043457
 30
-83.69999694824219
 70
   192
  0
VERTEX
  5
9CD
  8
0
 10
-13.78846549987793
 20
-36.57999801635742
 30
-14.5
 70
   192
  0
VERTEX
  5
9CE
  8
0
 10
-8.992050170898438
 20
-40.59671783447266
 30
-14.5
 70
   192
  0
VERTEX
  5
9CF
  8
0
 10
13.7887716293335
 20
-36.5618782043457
 30
-14.5
 70
   192
  0
VERTEX
  5
9D0
  8
0
 10
8.992050170898438
 20
-40.59671783447266
 30
-83.69999694824219
 70
   192
  0
VERTEX
  5
9D1
  8
0
 10
9.010696411132812
 20
-40.57353591918945
 30
-14.5
 70
   192
  0
VERTEX
  5
9D2
  8
0
 10
3.13453483581543
 20
-42.72348403930664
 30
-14.5
 70
   192
  0
VERTEX
  5
9D3
  8
0
 10
3.114990234375
 20
-42.72639083862305
 30
-83.69999694824219
 70
   192
  0
VERTEX
  5
9D4
  8
0
 10
16.83249855041504
 20
-31.1326961517334
 30
-14.5
 70
   192
  0
VERTEX
  5
9D5
  8
0
 10
16.87049865722656
 20
-31.16394424438477
 30
-83.69999694824219
 70
   192
  0
VERTEX
  5
9D6
  8
0
 10
13.78846549987793
 20
-36.57999801635742
 30
-83.69999694824219
 70
   192
  0
VERTEX
  5
9D7
  8
0
 10
-16.87049865722656
 20
-31.16394424438477
 30
-14.5
 70
   192
  0
VERTEX
  5
9D8
  8
0
 62
     9
 10
0.0
 20
0.0
 30
0.0
 70
   128
 71
     3
 72
     2
 73
     1
  0
VERTEX
  5
9D9
  8
0
 62
     9
 10
0.0
 20
0.0
 30
0.0
 70
   128
 71
     1
 72
     5
 73
     4
  0
VERTEX
  5
9DA
  8
0
 62
     9
 10
0.0
 20
0.0
 30
0.0
 70
   128
 71
     4
 72
     3
 73
     1
  0
VERTEX
  5
9DB
  8
0
 62
     9
 10
0.0
 20
0.0
 30
0.0
 70
   128
 71
     7
 72
     5
 73
     6
  0
VERTEX
  5
9DC
  8
0
 62
     9
 10
0.0
 20
0.0
 30
0.0
 70
   128
 71
     5
 72
     7
 73
     4
  0
VERTEX
  5
9DD
  8
0
 62
     9
 10
0.0
 20
0.0
 30
0.0
 70
   128
 71
     9
 72
     7
 73
     8
  0
VERTEX
  5
9DE
  8
0
 62
     9
 10
0.0
 20
0.0
 30
0.0
 70
   128
 71
     6
 72
     8
 73
     7
  0
VERTEX
  5
9DF
  8
0
 62
     9
 10
0.0
 20
0.0
 30
0.0
 70
   128
 71
     9
 72
     8
 73
    10
  0
VERTEX
  5
9E0
  8
0
 62
     9
 10
0.0
 20
0.0
 30
0.0
 70
   128
 71
    11
 72
     9
 73
    10
  0
VERTEX
  5
9E1
  8
0
 62
     9
 10
0.0
 20
0.0
 30
0.0
 70
   128
 71
     2
 72
    12
 73
     1
  0
VERTEX
  5
9E2
  8
0
 62
     9
 10
0.0
 20
0.0
 30
0.0
 70
   128
 71
    14
 72
     2
 73
    13
  0
VERTEX
  5
9E3
  8
0
 62
     9
 10
0.0
 20
0.0
 30
0.0
 70
   128
 71
     2
 72
    14
 73
    12
  0
VERTEX
  5
9E4
  8
0
 62
     9
 10
0.0
 20
0.0
 30
0.0
 70
   128
 71
    16
 72
    15
 73
    13
  0
VERTEX
  5
9E5
  8
0
 62
     9
 10
0.0
 20
0.0
 30
0.0
 70
   128
 71
    14
 72
    13
 73
    15
  0
VERTEX
  5
9E6
  8
0
 62
     9
 10
0.0
 20
0.0
 30
0.0
 70
   128
 71
    18
 72
    17
 73
    15
  0
VERTEX
  5
9E7
  8
0
 62
     9
 10
0.0
 20
0.0
 30
0.0
 70
   128
 71
    15
 72
    16
 73
    18
  0
VERTEX
  5
9E8
  8
0
 62
     9
 10
0.0
 20
0.0
 30
0.0
 70
   128
 71
    19
 72
    17
 73
    18
  0
VERTEX
  5
9E9
  8
0
 62
     9
 10
0.0
 20
0.0
 30
0.0
 70
   128
 71
    19
 72
    20
 73
    17
  0
VERTEX
  5
9EA
  8
0
 62
     9
 10
0.0
 20
0.0
 30
0.0
 70
   128
 71
    11
 72
    10
 73
    21
  0
VERTEX
  5
9EB
  8
0
 62
     9
 10
0.0
 20
0.0
 30
0.0
 70
   128
 71
    24
 72
    23
 73
    22
  0
VERTEX
  5
9EC
  8
0
 62
     9
 10
0.0
 20
0.0
 30
0.0
 70
   128
 71
    27
 72
    26
 73
    25
  0
VERTEX
  5
9ED
  8
0
 62
     9
 10
0.0
 20
0.0
 30
0.0
 70
   128
 71
    30
 72
    29
 73
    28
  0
VERTEX
  5
9EE
  8
0
 62
     9
 10
0.0
 20
0.0
 30
0.0
 70
   128
 71
    32
 72
    30
 73
    31
  0
VERTEX
  5
9EF
  8
0
 62
     9
 10
0.0
 20
0.0
 30
0.0
 70
   128
 71
    28
 72
    34
 73
    33
  0
VERTEX
  5
9F0
  8
0
 62
     9
 10
0.0
 20
0.0
 30
0.0
 70
   128
 71
    34
 72
    28
 73
    35
  0
VERTEX
  5
9F1
  8
0
 62
     9
 10
0.0
 20
0.0
 30
0.0
 70
   128
 71
    19
 72
    33
 73
    20
  0
VERTEX
  5
9F2
  8
0
 62
     9
 10
0.0
 20
0.0
 30
0.0
 70
   128
 71
    34
 72
    20
 73
    33
  0
VERTEX
  5
9F3
  8
0
 62
     9
 10
0.0
 20
0.0
 30
0.0
 70
   128
 71
    30
 72
    32
 73
    29
  0
VERTEX
  5
9F4
  8
0
 62
     9
 10
0.0
 20
0.0
 30
0.0
 70
   128
 71
    29
 72
    35
 73
    28
  0
VERTEX
  5
9F5
  8
0
 62
     9
 10
0.0
 20
0.0
 30
0.0
 70
   128
 71
    22
 72
    32
 73
    24
  0
VERTEX
  5
9F6
  8
0
 62
     9
 10
0.0
 20
0.0
 30
0.0
 70
   128
 71
    32
 72
    31
 73
    24
  0
VERTEX
  5
9F7
  8
0
 62
     9
 10
0.0
 20
0.0
 30
0.0
 70
   128
 71
    27
 72
    25
 73
    23
  0
VERTEX
  5
9F8
  8
0
 62
     9
 10
0.0
 20
0.0
 30
0.0
 70
   128
 71
    27
 72
    23
 73
    24
  0
VERTEX
  5
9F9
  8
0
 62
     9
 10
0.0
 20
0.0
 30
0.0
 70
   128
 71
    36
 72
    21
 73
    25
  0
VERTEX
  5
9FA
  8
0
 62
     9
 10
0.0
 20
0.0
 30
0.0
 70
   128
 71
    36
 72
    25
 73
    26
  0
VERTEX
  5
9FB
  8
0
 62
     9
 10
0.0
 20
0.0
 30
0.0
 70
   128
 71
    21
 72
    36
 73
    11
  0
SEQEND
  5
9FC
  8
0
 62
     9
  0
ENDBLK
  5
9FF
  8
0
  0
BLOCK
  8
0
  2
45
 70
     0
 10
0.0
 20
0.0
 30
0.0
  3
45
  1

  0
POLYLINE
  5
A01
  8
0
 62
     9
 66
     1
 10
0.0
 20
0.0
 30
0.0
 70
    64
 71
    53
 72
    84
  0
VERTEX
  5
A02
  8
0
 10
-15.09889125823975
 20
-49.00086212158203
 30
21.16362190246582
 70
   192
  0
VERTEX
  5
A03
  8
0
 10
-21.14888000488281
 20
-49.00086212158203
 30
15.12133502960205
 70
   192
  0
VERTEX
  5
A04
  8
0
 10
-15.26644420623779
 20
19.89999961853027
 30
21.04812622070312
 70
   192
  0
VERTEX
  5
A05
  8
0
 10
-26.0
 20
-49.00086212158203
 30
-0.0000000000000009
 70
   192
  0
VERTEX
  5
A06
  8
0
 10
-24.73114776611328
 20
19.89999961853027
 30
-8.01777172088623
 70
   192
  0
VERTEX
  5
A07
  8
0
 10
-26.0
 20
19.89999961853027
 30
-0.0000000000000009
 70
   192
  0
VERTEX
  5
A08
  8
0
 10
-7.621686935424805
 20
-49.00086212158203
 30
24.8459587097168
 70
   192
  0
VERTEX
  5
A09
  8
0
 10
-7.999192714691162
 20
19.89999961853027
 30
24.58450698852539
 70
   192
  0
VERTEX
  5
A0A
  8
0
 10
-0.0000000000000069
 20
-49.00086212158203
 30
26.0
 70
   192
  0
VERTEX
  5
A0B
  8
0
 10
-0.0000000000000069
 20
19.89999961853027
 30
26.0
 70
   192
  0
VERTEX
  5
A0C
  8
0
 10
-21.01695251464844
 20
19.89999961853027
 30
15.28896522521973
 70
   192
  0
VERTEX
  5
A0D
  8
0
 10
-24.85361289978027
 20
-49.00086212158203
 30
7.656585216522217
 70
   192
  0
VERTEX
  5
A0E
  8
0
 10
-24.71385192871094
 20
19.89999961853027
 30
8.054757118225098
 70
   192
  0
VERTEX
  5
A0F
  8
0
 10
-21.04862785339355
 20
19.89999961853027
 30
-15.27354145050049
 70
   192
  0
VERTEX
  5
A10
  8
0
 10
-21.16362190246582
 20
-49.00086212158203
 30
-15.09889125823975
 70
   192
  0
VERTEX
  5
A11
  8
0
 10
-0.0000000000000038
 20
19.89999961853027
 30
-26.0
 70
   192
  0
VERTEX
  5
A12
  8
0
 10
-8.042390823364258
 20
19.89999961853027
 30
-24.63644409179688
 70
   192
  0
VERTEX
  5
A13
  8
0
 10
-7.656585216522217
 20
-49.00086212158203
 30
-24.85361289978027
 70
   192
  0
VERTEX
  5
A14
  8
0
 10
-15.12133502960205
 20
-49.00086212158203
 30
-21.14888000488281
 70
   192
  0
VERTEX
  5
A15
  8
0
 10
-15.29718399047852
 20
19.89999961853027
 30
-21.03440284729004
 70
   192
  0
VERTEX
  5
A16
  8
0
 10
-0.0000000000000038
 20
-49.00086212158203
 30
-26.0
 70
   192
  0
VERTEX
  5
A17
  8
0
 10
-24.8459587097168
 20
-49.00086212158203
 30
-7.621686935424805
 70
   192
  0
VERTEX
  5
A18
  8
0
 10
-11.66937446594238
 20
-51.57648849487305
 30
-5.905786037445068
 70
   192
  0
VERTEX
  5
A19
  8
0
 10
-13.1132345199585
 20
-51.57648849487305
 30
0.0000000000000043
 70
   192
  0
VERTEX
  5
A1A
  8
0
 10
0.0000000000000066
 20
-52.43999862670898
 30
-0.0000000000000184
 70
   192
  0
VERTEX
  5
A1B
  8
0
 10
-6.008268356323242
 20
-51.57648849487305
 30
-11.66264533996582
 70
   192
  0
VERTEX
  5
A1C
  8
0
 10
0.0000000000000024
 20
-51.57648849487305
 30
-13.1132345199585
 70
   192
  0
VERTEX
  5
A1D
  8
0
 10
-5.905786037445068
 20
-51.57648849487305
 30
11.66937446594238
 70
   192
  0
VERTEX
  5
A1E
  8
0
 10
0.0000000000000094
 20
-51.57648849487305
 30
13.1132345199585
 70
   192
  0
VERTEX
  5
A1F
  8
0
 10
-11.66264533996582
 20
-51.57648849487305
 30
6.008268356323242
 70
   192
  0
VERTEX
  5
A20
  8
0
 10
11.66937446594238
 20
-51.57648849487305
 30
5.905786037445068
 70
   192
  0
VERTEX
  5
A21
  8
0
 10
13.1132345199585
 20
-51.57648849487305
 30
-0.0000000000000008
 70
   192
  0
VERTEX
  5
A22
  8
0
 10
6.008268356323242
 20
-51.57648849487305
 30
11.66264533996582
 70
   192
  0
VERTEX
  5
A23
  8
0
 10
7.999192714691162
 20
-49.00086212158203
 30
24.58450698852539
 70
   192
  0
VERTEX
  5
A24
  8
0
 10
15.26644420623779
 20
-49.00086212158203
 30
21.04812622070312
 70
   192
  0
VERTEX
  5
A25
  8
0
 10
21.01695251464844
 20
-49.00086212158203
 30
15.28896522521973
 70
   192
  0
VERTEX
  5
A26
  8
0
 10
24.71385192871094
 20
-49.00086212158203
 30
8.054757118225098
 70
   192
  0
VERTEX
  5
A27
  8
0
 10
26.0
 20
-49.00086212158203
 30
0.0000000000000047
 70
   192
  0
VERTEX
  5
A28
  8
0
 10
5.905786037445068
 20
-51.57648849487305
 30
-11.66937446594238
 70
   192
  0
VERTEX
  5
A29
  8
0
 10
15.29718399047852
 20
-49.00086212158203
 30
-21.03440284729004
 70
   192
  0
VERTEX
  5
A2A
  8
0
 10
8.042390823364258
 20
-49.00086212158203
 30
-24.63644409179688
 70
   192
  0
VERTEX
  5
A2B
  8
0
 10
24.73057556152344
 20
-49.00086212158203
 30
-8.017985343933105
 70
   192
  0
VERTEX
  5
A2C
  8
0
 10
11.66264533996582
 20
-51.57648849487305
 30
-6.008268356323242
 70
   192
  0
VERTEX
  5
A2D
  8
0
 10
21.04868316650391
 20
-49.00086212158203
 30
-15.27352046966553
 70
   192
  0
VERTEX
  5
A2E
  8
0
 10
24.73114776611328
 20
19.89999961853027
 30
8.01777172088623
 70
   192
  0
VERTEX
  5
A2F
  8
0
 10
15.29718399047852
 20
19.89999961853027
 30
21.03440284729004
 70
   192
  0
VERTEX
  5
A30
  8
0
 10
21.04862785339355
 20
19.89999961853027
 30
15.27354145050049
 70
   192
  0
VERTEX
  5
A31
  8
0
 10
21.01695251464844
 20
19.89999961853027
 30
-15.28896522521973
 70
   192
  0
VERTEX
  5
A32
  8
0
 10
26.0
 20
19.89999961853027
 30
0.0000000000000018
 70
   192
  0
VERTEX
  5
A33
  8
0
 10
24.71385192871094
 20
19.89999961853027
 30
-8.054757118225098
 70
   192
  0
VERTEX
  5
A34
  8
0
 10
15.26644420623779
 20
19.89999961853027
 30
-21.04812622070312
 70
   192
  0
VERTEX
  5
A35
  8
0
 10
7.999192714691162
 20
19.89999961853027
 30
-24.58450698852539
 70
   192
  0
VERTEX
  5
A36
  8
0
 10
8.042390823364258
 20
19.89999961853027
 30
24.63644409179688
 70
   192
  0
VERTEX
  5
A37
  8
0
 62
     9
 10
0.0
 20
0.0
 30
0.0
 70
   128
 71
     3
 72
     2
 73
     1
  0
VERTEX
  5
A38
  8
0
 62
     9
 10
0.0
 20
0.0
 30
0.0
 70
   128
 71
     6
 72
     5
 73
     4
  0
VERTEX
  5
A39
  8
0
 62
     9
 10
0.0
 20
0.0
 30
0.0
 70
   128
 71
     8
 72
     3
 73
     7
  0
VERTEX
  5
A3A
  8
0
 62
     9
 10
0.0
 20
0.0
 30
0.0
 70
   128
 71
     1
 72
     7
 73
     3
  0
VERTEX
  5
A3B
  8
0
 62
     9
 10
0.0
 20
0.0
 30
0.0
 70
   128
 71
     8
 72
     7
 73
     9
  0
VERTEX
  5
A3C
  8
0
 62
     9
 10
0.0
 20
0.0
 30
0.0
 70
   128
 71
    10
 72
     8
 73
     9
  0
VERTEX
  5
A3D
  8
0
 62
     9
 10
0.0
 20
0.0
 30
0.0
 70
   128
 71
     3
 72
    11
 73
     2
  0
VERTEX
  5
A3E
  8
0
 62
     9
 10
0.0
 20
0.0
 30
0.0
 70
   128
 71
    11
 72
    13
 73
    12
  0
VERTEX
  5
A3F
  8
0
 62
     9
 10
0.0
 20
0.0
 30
0.0
 70
   128
 71
    12
 72
     2
 73
    11
  0
VERTEX
  5
A40
  8
0
 62
     9
 10
0.0
 20
0.0
 30
0.0
 70
   128
 71
    12
 72
     6
 73
     4
  0
VERTEX
  5
A41
  8
0
 62
     9
 10
0.0
 20
0.0
 30
0.0
 70
   128
 71
     6
 72
    12
 73
    13
  0
VERTEX
  5
A42
  8
0
 62
     9
 10
0.0
 20
0.0
 30
0.0
 70
   128
 71
    15
 72
     5
 73
    14
  0
VERTEX
  5
A43
  8
0
 62
     9
 10
0.0
 20
0.0
 30
0.0
 70
   128
 71
    18
 72
    17
 73
    16
  0
VERTEX
  5
A44
  8
0
 62
     9
 10
0.0
 20
0.0
 30
0.0
 70
   128
 71
    20
 72
    17
 73
    19
  0
VERTEX
  5
A45
  8
0
 62
     9
 10
0.0
 20
0.0
 30
0.0
 70
   128
 71
    18
 72
    16
 73
    21
  0
VERTEX
  5
A46
  8
0
 62
     9
 10
0.0
 20
0.0
 30
0.0
 70
   128
 71
    20
 72
    19
 73
    14
  0
VERTEX
  5
A47
  8
0
 62
     9
 10
0.0
 20
0.0
 30
0.0
 70
   128
 71
    19
 72
    17
 73
    18
  0
VERTEX
  5
A48
  8
0
 62
     9
 10
0.0
 20
0.0
 30
0.0
 70
   128
 71
    15
 72
    22
 73
     5
  0
VERTEX
  5
A49
  8
0
 62
     9
 10
0.0
 20
0.0
 30
0.0
 70
   128
 71
    19
 72
    15
 73
    14
  0
VERTEX
  5
A4A
  8
0
 62
     9
 10
0.0
 20
0.0
 30
0.0
 70
   128
 71
     5
 72
    22
 73
     4
  0
VERTEX
  5
A4B
  8
0
 62
     9
 10
0.0
 20
0.0
 30
0.0
 70
   128
 71
    25
 72
    24
 73
    23
  0
VERTEX
  5
A4C
  8
0
 62
     9
 10
0.0
 20
0.0
 30
0.0
 70
   128
 71
    26
 72
    25
 73
    23
  0
VERTEX
  5
A4D
  8
0
 62
     9
 10
0.0
 20
0.0
 30
0.0
 70
   128
 71
    18
 72
    21
 73
    27
  0
VERTEX
  5
A4E
  8
0
 62
     9
 10
0.0
 20
0.0
 30
0.0
 70
   128
 71
    26
 72
    18
 73
    27
  0
VERTEX
  5
A4F
  8
0
 62
     9
 10
0.0
 20
0.0
 30
0.0
 70
   128
 71
    23
 72
    15
 73
    19
  0
VERTEX
  5
A50
  8
0
 62
     9
 10
0.0
 20
0.0
 30
0.0
 70
   128
 71
    26
 72
    27
 73
    25
  0
VERTEX
  5
A51
  8
0
 62
     9
 10
0.0
 20
0.0
 30
0.0
 70
   128
 71
    24
 72
     4
 73
    22
  0
VERTEX
  5
A52
  8
0
 62
     9
 10
0.0
 20
0.0
 30
0.0
 70
   128
 71
    22
 72
    15
 73
    23
  0
VERTEX
  5
A53
  8
0
 62
     9
 10
0.0
 20
0.0
 30
0.0
 70
   128
 71
    22
 72
    23
 73
    24
  0
VERTEX
  5
A54
  8
0
 62
     9
 10
0.0
 20
0.0
 30
0.0
 70
   128
 71
    19
 72
    26
 73
    23
  0
VERTEX
  5
A55
  8
0
 62
     9
 10
0.0
 20
0.0
 30
0.0
 70
   128
 71
    26
 72
    19
 73
    18
  0
VERTEX
  5
A56
  8
0
 62
     9
 10
0.0
 20
0.0
 30
0.0
 70
   128
 71
    25
 72
    29
 73
    28
  0
VERTEX
  5
A57
  8
0
 62
     9
 10
0.0
 20
0.0
 30
0.0
 70
   128
 71
    30
 72
    25
 73
    28
  0
VERTEX
  5
A58
  8
0
 62
     9
 10
0.0
 20
0.0
 30
0.0
 70
   128
 71
    12
 72
     4
 73
    24
  0
VERTEX
  5
A59
  8
0
 62
     9
 10
0.0
 20
0.0
 30
0.0
 70
   128
 71
    30
 72
    12
 73
    24
  0
VERTEX
  5
A5A
  8
0
 62
     9
 10
0.0
 20
0.0
 30
0.0
 70
   128
 71
    28
 72
     1
 73
     2
  0
VERTEX
  5
A5B
  8
0
 62
     9
 10
0.0
 20
0.0
 30
0.0
 70
   128
 71
    30
 72
    24
 73
    25
  0
VERTEX
  5
A5C
  8
0
 62
     9
 10
0.0
 20
0.0
 30
0.0
 70
   128
 71
    29
 72
     9
 73
     7
  0
VERTEX
  5
A5D
  8
0
 62
     9
 10
0.0
 20
0.0
 30
0.0
 70
   128
 71
     7
 72
     1
 73
    28
  0
VERTEX
  5
A5E
  8
0
 62
     9
 10
0.0
 20
0.0
 30
0.0
 70
   128
 71
     7
 72
    28
 73
    29
  0
VERTEX
  5
A5F
  8
0
 62
     9
 10
0.0
 20
0.0
 30
0.0
 70
   128
 71
     2
 72
    30
 73
    28
  0
VERTEX
  5
A60
  8
0
 62
     9
 10
0.0
 20
0.0
 30
0.0
 70
   128
 71
    30
 72
     2
 73
    12
  0
VERTEX
  5
A61
  8
0
 62
     9
 10
0.0
 20
0.0
 30
0.0
 70
   128
 71
    25
 72
    32
 73
    31
  0
VERTEX
  5
A62
  8
0
 62
     9
 10
0.0
 20
0.0
 30
0.0
 70
   128
 71
    33
 72
    25
 73
    31
  0
VERTEX
  5
A63
  8
0
 62
     9
 10
0.0
 20
0.0
 30
0.0
 70
   128
 71
    34
 72
     9
 73
    29
  0
VERTEX
  5
A64
  8
0
 62
     9
 10
0.0
 20
0.0
 30
0.0
 70
   128
 71
    33
 72
    34
 73
    29
  0
VERTEX
  5
A65
  8
0
 62
     9
 10
0.0
 20
0.0
 30
0.0
 70
   128
 71
    31
 72
    36
 73
    35
  0
VERTEX
  5
A66
  8
0
 62
     9
 10
0.0
 20
0.0
 30
0.0
 70
   128
 71
    33
 72
    29
 73
    25
  0
VERTEX
  5
A67
  8
0
 62
     9
 10
0.0
 20
0.0
 30
0.0
 70
   128
 71
    32
 72
    38
 73
    37
  0
VERTEX
  5
A68
  8
0
 62
     9
 10
0.0
 20
0.0
 30
0.0
 70
   128
 71
    37
 72
    36
 73
    31
  0
VERTEX
  5
A69
  8
0
 62
     9
 10
0.0
 20
0.0
 30
0.0
 70
   128
 71
    37
 72
    31
 73
    32
  0
VERTEX
  5
A6A
  8
0
 62
     9
 10
0.0
 20
0.0
 30
0.0
 70
   128
 71
    35
 72
    33
 73
    31
  0
VERTEX
  5
A6B
  8
0
 62
     9
 10
0.0
 20
0.0
 30
0.0
 70
   128
 71
    33
 72
    35
 73
    34
  0
VERTEX
  5
A6C
  8
0
 62
     9
 10
0.0
 20
0.0
 30
0.0
 70
   128
 71
    41
 72
    40
 73
    39
  0
VERTEX
  5
A6D
  8
0
 62
     9
 10
0.0
 20
0.0
 30
0.0
 70
   128
 71
    32
 72
    43
 73
    42
  0
VERTEX
  5
A6E
  8
0
 62
     9
 10
0.0
 20
0.0
 30
0.0
 70
   128
 71
    39
 72
    40
 73
    44
  0
VERTEX
  5
A6F
  8
0
 62
     9
 10
0.0
 20
0.0
 30
0.0
 70
   128
 71
    21
 72
    41
 73
    27
  0
VERTEX
  5
A70
  8
0
 62
     9
 10
0.0
 20
0.0
 30
0.0
 70
   128
 71
    32
 72
    42
 73
    38
  0
VERTEX
  5
A71
  8
0
 62
     9
 10
0.0
 20
0.0
 30
0.0
 70
   128
 71
    39
 72
    44
 73
    43
  0
VERTEX
  5
A72
  8
0
 62
     9
 10
0.0
 20
0.0
 30
0.0
 70
   128
 71
    25
 72
    39
 73
    43
  0
VERTEX
  5
A73
  8
0
 62
     9
 10
0.0
 20
0.0
 30
0.0
 70
   128
 71
    27
 72
    39
 73
    25
  0
VERTEX
  5
A74
  8
0
 62
     9
 10
0.0
 20
0.0
 30
0.0
 70
   128
 71
    41
 72
    39
 73
    27
  0
VERTEX
  5
A75
  8
0
 62
     9
 10
0.0
 20
0.0
 30
0.0
 70
   128
 71
    43
 72
    44
 73
    42
  0
VERTEX
  5
A76
  8
0
 62
     9
 10
0.0
 20
0.0
 30
0.0
 70
   128
 71
    43
 72
    32
 73
    25
  0
VERTEX
  5
A77
  8
0
 62
     9
 10
0.0
 20
0.0
 30
0.0
 70
   128
 71
    10
 72
     9
 73
    34
  0
VERTEX
  5
A78
  8
0
 62
     9
 10
0.0
 20
0.0
 30
0.0
 70
   128
 71
    37
 72
    38
 73
    45
  0
VERTEX
  5
A79
  8
0
 62
     9
 10
0.0
 20
0.0
 30
0.0
 70
   128
 71
    47
 72
    46
 73
    35
  0
VERTEX
  5
A7A
  8
0
 62
     9
 10
0.0
 20
0.0
 30
0.0
 70
   128
 71
    42
 72
    44
 73
    48
  0
VERTEX
  5
A7B
  8
0
 62
     9
 10
0.0
 20
0.0
 30
0.0
 70
   128
 71
    50
 72
    49
 73
    42
  0
VERTEX
  5
A7C
  8
0
 62
     9
 10
0.0
 20
0.0
 30
0.0
 70
   128
 71
    40
 72
    41
 73
    51
  0
VERTEX
  5
A7D
  8
0
 62
     9
 10
0.0
 20
0.0
 30
0.0
 70
   128
 71
    40
 72
    51
 73
    44
  0
VERTEX
  5
A7E
  8
0
 62
     9
 10
0.0
 20
0.0
 30
0.0
 70
   128
 71
    52
 72
    41
 73
    21
  0
VERTEX
  5
A7F
  8
0
 62
     9
 10
0.0
 20
0.0
 30
0.0
 70
   128
 71
    41
 72
    52
 73
    51
  0
VERTEX
  5
A80
  8
0
 62
     9
 10
0.0
 20
0.0
 30
0.0
 70
   128
 71
    52
 72
    21
 73
    16
  0
VERTEX
  5
A81
  8
0
 62
     9
 10
0.0
 20
0.0
 30
0.0
 70
   128
 71
    42
 72
    48
 73
    50
  0
VERTEX
  5
A82
  8
0
 62
     9
 10
0.0
 20
0.0
 30
0.0
 70
   128
 71
    44
 72
    51
 73
    48
  0
VERTEX
  5
A83
  8
0
 62
     9
 10
0.0
 20
0.0
 30
0.0
 70
   128
 71
    38
 72
    49
 73
    45
  0
VERTEX
  5
A84
  8
0
 62
     9
 10
0.0
 20
0.0
 30
0.0
 70
   128
 71
    42
 72
    49
 73
    38
  0
VERTEX
  5
A85
  8
0
 62
     9
 10
0.0
 20
0.0
 30
0.0
 70
   128
 71
    47
 72
    36
 73
    45
  0
VERTEX
  5
A86
  8
0
 62
     9
 10
0.0
 20
0.0
 30
0.0
 70
   128
 71
    36
 72
    37
 73
    45
  0
VERTEX
  5
A87
  8
0
 62
     9
 10
0.0
 20
0.0
 30
0.0
 70
   128
 71
    53
 72
    35
 73
    46
  0
VERTEX
  5
A88
  8
0
 62
     9
 10
0.0
 20
0.0
 30
0.0
 70
   128
 71
    47
 72
    35
 73
    36
  0
VERTEX
  5
A89
  8
0
 62
     9
 10
0.0
 20
0.0
 30
0.0
 70
   128
 71
    34
 72
    53
 73
    10
  0
VERTEX
  5
A8A
  8
0
 62
     9
 10
0.0
 20
0.0
 30
0.0
 70
   128
 71
    53
 72
    34
 73
    35
  0
SEQEND
  5
A8B
  8
0
 62
     9
  0
ENDBLK
  5
A8E
  8
0
  0
ENDSEC
  0
SECTION
  2
ENTITIES
  0
INSERT
  5
A0
  8
LAYER_1
  2
38
 10
0.0
 20
0.0
 30
0.0
  0
INSERT
  5
FA
  8
LAYER_1
  2
39
 10
0.0
 20
0.0
 30
0.0
  0
INSERT
  5
2DE
  8
LAYER_1
  2
40
 10
0.0
 20
0.0
 30
0.0
  0
INSERT
  5
72A
  8
LAYER_1
  2
41
 10
0.0
 20
0.0
 30
0.0
  0
INSERT
  5
856
  8
LAYER_1
  2
42
 10
0.0
 20
0.0
 30
0.0
  0
INSERT
  5
9AF
  8
LAYER_1
  2
43
 10
0.0
 20
0.0
 30
0.0
  0
INSERT
  5
9FD
  8
LAYER_1
  2
44
 10
0.0
 20
0.0
 30
0.0
  0
INSERT
  5
A8C
  8
LAYER_1
  2
45
 10
0.0
 20
0.0
 30
0.0
  0
ENDSEC
  0
EOF
