  0
SECTION
  2
HEADER
  9
$ACADVER
  1
AC1015
  9
$ACADMAINTVER
 70
     6
  9
$DWGCODEPAGE
  3
ANSI_1252
  9
$INSBASE
 10
0.0
 20
0.0
 30
0.0
  9
$EXTMIN
 10
0.0
 20
0.0
 30
0.0
  9
$EXTMAX
 10
3000.0
 20
4500.0
 30
0.0
  9
$LIMMIN
 10
0.0
 20
0.0
  9
$LIMMAX
 10
3000.0
 20
4500.0
  9
$ORTHOMODE
 70
     0
  9
$REGENMODE
 70
     1
  9
$FILLMODE
 70
     1
  9
$QTEXTMODE
 70
     0
  9
$MIRRTEXT
 70
     1
  9
$LTSCALE
 40
1.0
  9
$ATTMODE
 70
     1
  9
$TEXTSIZE
 40
2.5
  9
$TRACEWID
 40
1.0
  9
$TEXTSTYLE
  7
Standard
  9
$CLAYER
  8
0
  9
$CELTYPE
  6
ByLayer
  9
$CECOLOR
 62
   256
  9
$CELTSCALE
 40
1.0
  9
$DISPSILH
 70
     0
  9
$DIMSCALE
 40
1.0
  9
$DIMASZ
 40
2.5
  9
$DIMEXO
 40
0.625
  9
$DIMDLI
 40
3.75
  9
$DIMRND
 40
0.0
  9
$DIMDLE
 40
0.0
  9
$DIMEXE
 40
1.25
  9
$DIMTP
 40
0.0
  9
$DIMTM
 40
0.0
  9
$DIMTXT
 40
2.5
  9
$DIMCEN
 40
2.5
  9
$DIMTSZ
 40
0.0
  9
$DIMTOL
 70
     0
  9
$DIMLIM
 70
     0
  9
$DIMTIH
 70
     0
  9
$DIMTOH
 70
     0
  9
$DIMSE1
 70
     0
  9
$DIMSE2
 70
     0
  9
$DIMTAD
 70
     1
  9
$DIMZIN
 70
     8
  9
$DIMBLK
  1

  9
$DIMASO
 70
     1
  9
$DIMSHO
 70
     1
  9
$DIMPOST
  1

  9
$DIMAPOST
  1

  9
$DIMALT
 70
     0
  9
$DIMALTD
 70
     3
  9
$DIMALTF
 40
0.0393700787
  9
$DIMLFAC
 40
1.0
  9
$DIMTOFL
 70
     1
  9
$DIMTVP
 40
0.0
  9
$DIMTIX
 70
     0
  9
$DIMSOXD
 70
     0
  9
$DIMSAH
 70
     0
  9
$DIMBLK1
  1

  9
$DIMBLK2
  1

  9
$DIMSTYLE
  2
ISO-25
  9
$DIMCLRD
 70
     0
  9
$DIMCLRE
 70
     0
  9
$DIMCLRT
 70
     0
  9
$DIMTFAC
 40
1.0
  9
$DIMGAP
 40
0.625
  9
$DIMJUST
 70
     0
  9
$DIMSD1
 70
     0
  9
$DIMSD2
 70
     0
  9
$DIMTOLJ
 70
     0
  9
$DIMTZIN
 70
     8
  9
$DIMALTZ
 70
     0
  9
$DIMALTTZ
 70
     0
  9
$DIMUPT
 70
     0
  9
$DIMDEC
 70
     2
  9
$DIMTDEC
 70
     2
  9
$DIMALTU
 70
     2
  9
$DIMALTTD
 70
     3
  9
$DIMTXSTY
  7
Standard
  9
$DIMAUNIT
 70
     0
  9
$DIMADEC
 70
     0
  9
$DIMALTRND
 40
0.0
  9
$DIMAZIN
 70
     0
  9
$DIMDSEP
 70
    44
  9
$DIMATFIT
 70
     3
  9
$DIMFRAC
 70
     0
  9
$DIMLDRBLK
  1

  9
$DIMLUNIT
 70
     2
  9
$DIMLWD
 70
    -2
  9
$DIMLWE
 70
    -2
  9
$DIMTMOVE
 70
     0
  9
$LUNITS
 70
     2
  9
$LUPREC
 70
     4
  9
$SKETCHINC
 40
1.0
  9
$FILLETRAD
 40
10.0
  9
$AUNITS
 70
     0
  9
$AUPREC
 70
     0
  9
$MENU
  1
.
  9
$ELEVATION
 40
0.0
  9
$PELEVATION
 40
0.0
  9
$THICKNESS
 40
0.0
  9
$LIMCHECK
 70
     0
  9
$CHAMFERA
 40
10.0
  9
$CHAMFERB
 40
10.0
  9
$CHAMFERC
 40
20.0
  9
$CHAMFERD
 40
0.0
  9
$SKPOLY
 70
     0
  9
$TDCREATE
 40
2456743.554092905
  9
$TDUCREATE
 40
2456743.512426239
  9
$TDUPDATE
 40
2456743.554092917
  9
$TDUUPDATE
 40
2456743.51242625
  9
$TDINDWG
 40
0.0000000116
  9
$TDUSRTIMER
 40
0.0000000116
  9
$USRTIMER
 70
     1
  9
$ANGBASE
 50
0.0
  9
$ANGDIR
 70
     0
  9
$PDMODE
 70
     0
  9
$PDSIZE
 40
0.0
  9
$PLINEWID
 40
0.0
  9
$SPLFRAME
 70
     0
  9
$SPLINETYPE
 70
     6
  9
$SPLINESEGS
 70
     8
  9
$HANDSEED
  5
247
  9
$SURFTAB1
 70
     6
  9
$SURFTAB2
 70
     6
  9
$SURFTYPE
 70
     6
  9
$SURFU
 70
     6
  9
$SURFV
 70
     6
  9
$UCSBASE
  2

  9
$UCSNAME
  2

  9
$UCSORG
 10
0.0
 20
0.0
 30
0.0
  9
$UCSXDIR
 10
1.0
 20
0.0
 30
0.0
  9
$UCSYDIR
 10
0.0
 20
1.0
 30
0.0
  9
$UCSORTHOREF
  2

  9
$UCSORTHOVIEW
 70
     0
  9
$UCSORGTOP
 10
0.0
 20
0.0
 30
0.0
  9
$UCSORGBOTTOM
 10
0.0
 20
0.0
 30
0.0
  9
$UCSORGLEFT
 10
0.0
 20
0.0
 30
0.0
  9
$UCSORGRIGHT
 10
0.0
 20
0.0
 30
0.0
  9
$UCSORGFRONT
 10
0.0
 20
0.0
 30
0.0
  9
$UCSORGBACK
 10
0.0
 20
0.0
 30
0.0
  9
$PUCSBASE
  2

  9
$PUCSNAME
  2

  9
$PUCSORG
 10
0.0
 20
0.0
 30
0.0
  9
$PUCSXDIR
 10
1.0
 20
0.0
 30
0.0
  9
$PUCSYDIR
 10
0.0
 20
1.0
 30
0.0
  9
$PUCSORTHOREF
  2

  9
$PUCSORTHOVIEW
 70
     0
  9
$PUCSORGTOP
 10
0.0
 20
0.0
 30
0.0
  9
$PUCSORGBOTTOM
 10
0.0
 20
0.0
 30
0.0
  9
$PUCSORGLEFT
 10
0.0
 20
0.0
 30
0.0
  9
$PUCSORGRIGHT
 10
0.0
 20
0.0
 30
0.0
  9
$PUCSORGFRONT
 10
0.0
 20
0.0
 30
0.0
  9
$PUCSORGBACK
 10
0.0
 20
0.0
 30
0.0
  9
$USERI1
 70
     0
  9
$USERI2
 70
     0
  9
$USERI3
 70
     0
  9
$USERI4
 70
     0
  9
$USERI5
 70
     0
  9
$USERR1
 40
0.0
  9
$USERR2
 40
0.0
  9
$USERR3
 40
0.0
  9
$USERR4
 40
0.0
  9
$USERR5
 40
0.0
  9
$WORLDVIEW
 70
     1
  9
$SHADEDGE
 70
     3
  9
$SHADEDIF
 70
    70
  9
$TILEMODE
 70
     1
  9
$MAXACTVP
 70
    64
  9
$PINSBASE
 10
0.0
 20
0.0
 30
0.0
  9
$PLIMCHECK
 70
     0
  9
$PEXTMIN
 10
0.0
 20
0.0
 30
0.0
  9
$PEXTMAX
 10
3000.0
 20
4500.0
 30
0.0
  9
$PLIMMIN
 10
0.0
 20
0.0
  9
$PLIMMAX
 10
3000.0
 20
4500.0
  9
$UNITMODE
 70
     0
  9
$VISRETAIN
 70
     1
  9
$PLINEGEN
 70
     0
  9
$PSLTSCALE
 70
     1
  9
$TREEDEPTH
 70
  3020
  9
$CMLSTYLE
  2
Standard
  9
$CMLJUST
 70
     0
  9
$CMLSCALE
 40
20.0
  9
$PROXYGRAPHICS
 70
     1
  9
$MEASUREMENT
 70
     1
  9
$CELWEIGHT
370
    -1
  9
$ENDCAPS
280
     0
  9
$JOINSTYLE
280
     0
  9
$LWDISPLAY
290
     0
  9
$INSUNITS
 70
     4
  9
$HYPERLINKBASE
  1

  9
$STYLESHEET
  1

  9
$XEDIT
290
     1
  9
$CEPSNTYPE
380
     0
  9
$PSTYLEMODE
290
     1
  9
$FINGERPRINTGUID
  2
{3CD227AB-0EF2-403D-A77C-17DDEAAC216C}
  9
$VERSIONGUID
  2
{FAEB1C32-E019-11D5-929B-00C0DF256EC4}
  9
$EXTNAMES
290
     1
  9
$PSVPSCALE
 40
0.0
  9
$OLESTARTUP
290
     0
  0
ENDSEC
  0
SECTION
  2
CLASSES
  0
CLASS
  1
ACDBDICTIONARYWDFLT
  2
AcDbDictionaryWithDefault
  3
ObjectDBX Classes
 90
        0
280
     0
281
     0
  0
CLASS
  1
VISUALSTYLE
  2
AcDbVisualStyle
  3
ObjectDBX Classes
 90
     4095
280
     0
281
     0
  0
CLASS
  1
SCALE
  2
AcDbScale
  3
ObjectDBX Classes
 90
     1153
280
     0
281
     0
  0
CLASS
  1
DICTIONARYVAR
  2
AcDbDictionaryVar
  3
ObjectDBX Classes
 90
        0
280
     0
281
     0
  0
CLASS
  1
ACDBPLACEHOLDER
  2
AcDbPlaceHolder
  3
ObjectDBX Classes
 90
        0
280
     0
281
     0
  0
CLASS
  1
LAYOUT
  2
AcDbLayout
  3
ObjectDBX Classes
 90
        0
280
     0
281
     0
  0
ENDSEC
  0
SECTION
  2
TABLES
  0
TABLE
  2
VPORT
  5
8
330
0
100
AcDbSymbolTable
 70
     1
  0
VPORT
  5
29
330
8
100
AcDbSymbolTableRecord
100
AcDbViewportTableRecord
  2
*Active
 70
     0
 10
0.0
 20
0.0
 11
1.0
 21
1.0
 12
344.1869158879
 22
148.5
 13
0.0
 23
0.0
 14
10.0
 24
10.0
 15
10.0
 25
10.0
 16
0.0
 26
0.0
 36
1.0
 17
0.0
 27
0.0
 37
0.0
 40
297.0
 41
1.9729729729
 42
50.0
 43
0.0
 44
0.0
 50
0.0
 51
0.0
 71
     0
 72
   100
 73
     1
 74
     3
 75
     0
 76
     0
 77
     0
 78
     0
281
     0
 65
     1
110
0.0
120
0.0
130
0.0
111
1.0
121
0.0
131
0.0
112
0.0
122
1.0
132
0.0
 79
     0
146
0.0
  0
ENDTAB
  0
TABLE
  2
LTYPE
  5
5
330
0
100
AcDbSymbolTable
 70
     2
  0
LTYPE
  5
14
330
5
100
AcDbSymbolTableRecord
100
AcDbLinetypeTableRecord
  2
ByBlock
 70
     0
  3

 72
    65
 73
     0
 40
0.0
  0
LTYPE
  5
15
330
5
100
AcDbSymbolTableRecord
100
AcDbLinetypeTableRecord
  2
ByLayer
 70
     0
  3

 72
    65
 73
     0
 40
0.0
  0
LTYPE
  5
16
330
5
100
AcDbSymbolTableRecord
100
AcDbLinetypeTableRecord
  2
Continuous
 70
     0
  3
Solid line
 72
    65
 73
     0
 40
0.0
  0
LTYPE
  5
1B8
330
5
100
AcDbSymbolTableRecord
100
AcDbLinetypeTableRecord
  2
CENTER2
 70
     0
  3
Center (.5x) ___ _ ___ _ ___ _ ___ _ ___ _ ___
 72
    65
 73
     4
 40
28.575
 49
19.05
 74
     4
 75
     0
340
0
 46
0.0
 50
0.0
 44
0.0
 45
0.0
 49
-3.175
 74
     4
 75
     0
340
0
 46
0.0
 50
0.0
 44
0.0
 45
0.0
 49
3.175
 74
     4
 75
     0
340
0
 46
0.0
 50
0.0
 44
0.0
 45
0.0
 49
-3.175
 74
     4
 75
     0
340
0
 46
0.0
 50
0.0
 44
0.0
 45
0.0
  0
ENDTAB
  0
TABLE
  2
LAYER
  5
2
330
0
100
AcDbSymbolTable
 70
    11
  0
LAYER
  5
10
330
2
100
AcDbSymbolTableRecord
100
AcDbLayerTableRecord
  2
0
 70
     0
 62
     7
  6
Continuous
370
    -3
390
F
  0
LAYER
  5
5D
330
2
100
AcDbSymbolTableRecord
100
AcDbLayerTableRecord
  2
Default
 70
     0
 62
     7
  6
Continuous
370
    -3
390
F
  0
LAYER
  5
60
330
2
100
AcDbSymbolTableRecord
100
AcDbLayerTableRecord
  2
$DDT_AUDIT_GENERATED_(60)
 70
     0
 62
     7
  6
Continuous
370
    -3
390
F
  0
LAYER
  5
77
330
2
100
AcDbSymbolTableRecord
100
AcDbLayerTableRecord
  2
$DDT_AUDIT_GENERATED_(77)
 70
     0
 62
     7
  6
Continuous
370
    -3
390
F
  0
LAYER
  5
8A
330
2
100
AcDbSymbolTableRecord
100
AcDbLayerTableRecord
  2
$DDT_AUDIT_GENERATED_(8A)
 70
     0
 62
     7
  6
Continuous
370
    -3
390
F
  0
LAYER
  5
193
330
2
100
AcDbSymbolTableRecord
100
AcDbLayerTableRecord
  2
$DDT_AUDIT_GENERATED_(193)
 70
     0
 62
     7
  6
Continuous
370
    -3
390
F
  0
LAYER
  5
1B0
330
2
100
AcDbSymbolTableRecord
100
AcDbLayerTableRecord
  2
$DDT_AUDIT_GENERATED_(1B0)
 70
     0
 62
     7
  6
Continuous
370
    -3
390
F
  0
LAYER
  5
1B3
330
2
100
AcDbSymbolTableRecord
100
AcDbLayerTableRecord
  2
$DDT_AUDIT_GENERATED_(1B3)
 70
     0
 62
     7
  6
Continuous
370
    -3
390
F
  0
LAYER
  5
1B7
330
2
100
AcDbSymbolTableRecord
100
AcDbLayerTableRecord
  2
DV1_Default
 70
     0
 62
     7
  6
Continuous
370
    -3
390
F
  0
LAYER
  5
1FC
330
2
100
AcDbSymbolTableRecord
100
AcDbLayerTableRecord
  2
DV2_Default
 70
     0
 62
     7
  6
Continuous
370
    -3
390
F
  0
LAYER
  5
22D
330
2
100
AcDbSymbolTableRecord
100
AcDbLayerTableRecord
  2
DV3_Default
 70
     0
 62
     7
  6
Continuous
370
    -3
390
F
  0
ENDTAB
  0
TABLE
  2
STYLE
  5
3
330
0
100
AcDbSymbolTable
 70
     2
  0
STYLE
  5
11
330
3
100
AcDbSymbolTableRecord
100
AcDbTextStyleTableRecord
  2
Standard
 70
     0
 40
0.0
 41
1.0
 50
0.0
 71
     0
 42
2.5
  3
txt
  4

  0
STYLE
  5
236
330
3
100
AcDbSymbolTableRecord
100
AcDbTextStyleTableRecord
  2
SEACAD_seiso_ttf
 70
     0
 40
0.0
 41
1.0
 50
0.0
 71
     0
 42
0.2
  3
seiso.ttf
  4

  0
ENDTAB
  0
TABLE
  2
VIEW
  5
6
330
0
100
AcDbSymbolTable
 70
     0
  0
ENDTAB
  0
TABLE
  2
UCS
  5
7
330
0
100
AcDbSymbolTable
 70
     0
  0
ENDTAB
  0
TABLE
  2
APPID
  5
9
330
0
100
AcDbSymbolTable
 70
     1
  0
APPID
  5
12
330
9
100
AcDbSymbolTableRecord
100
AcDbRegAppTableRecord
  2
ACAD
 70
     0
  0
ENDTAB
  0
TABLE
  2
DIMSTYLE
  5
A
330
0
100
AcDbSymbolTable
 70
     1
100
AcDbDimStyleTable
  0
DIMSTYLE
105
27
330
A
100
AcDbSymbolTableRecord
100
AcDbDimStyleTableRecord
  2
ISO-25
 70
     0
 41
2.5
 42
0.625
 43
3.75
 44
1.25
 73
     0
 74
     0
 77
     1
 78
     8
140
2.5
141
2.5
143
0.0393700787
147
0.625
171
     3
172
     1
271
     2
272
     2
274
     3
278
    44
283
     0
284
     8
340
11
  0
ENDTAB
  0
TABLE
  2
BLOCK_RECORD
  5
1
330
0
100
AcDbSymbolTable
 70
     4
  0
BLOCK_RECORD
  5
1F
330
1
100
AcDbSymbolTableRecord
100
AcDbBlockTableRecord
  2
*Model_Space
340
22
  0
BLOCK_RECORD
  5
1B
330
1
100
AcDbSymbolTableRecord
100
AcDbBlockTableRecord
  2
*Paper_Space
340
1E
  0
BLOCK_RECORD
  5
5E
330
1
100
AcDbSymbolTableRecord
100
AcDbBlockTableRecord
  2
SE
340
0
102
{BLKREFS
331
5F
102
}
  0
BLOCK_RECORD
  5
1C1
330
1
100
AcDbSymbolTableRecord
100
AcDbBlockTableRecord
  2
SE1
340
0
102
{BLKREFS
331
1C2
102
}
  0
BLOCK_RECORD
  5
202
330
1
100
AcDbSymbolTableRecord
100
AcDbBlockTableRecord
  2
SE2
340
0
102
{BLKREFS
331
203
102
}
  0
ENDTAB
  0
ENDSEC
  0
SECTION
  2
BLOCKS
  0
BLOCK
  5
20
330
1F
100
AcDbEntity
  8
0
100
AcDbBlockBegin
  2
*Model_Space
 70
     0
 10
0.0
 20
0.0
 30
0.0
  3
*Model_Space
  1

  0
ENDBLK
  5
21
330
1F
100
AcDbEntity
  8
0
100
AcDbBlockEnd
  0
BLOCK
  5
1C
330
1B
100
AcDbEntity
 67
     1
  8
0
100
AcDbBlockBegin
  2
*Paper_Space
 70
     0
 10
0.0
 20
0.0
 30
0.0
  3
*Paper_Space
  1

  0
ENDBLK
  5
1D
330
1B
100
AcDbEntity
 67
     1
  8
0
100
AcDbBlockEnd
  0
BLOCK
  5
1BF
330
5E
100
AcDbEntity
  8
0
100
AcDbBlockBegin
  2
SE
 70
     0
 10
0.0
 20
0.0
 30
0.0
  3
SE
  1

  0
SPLINE
  5
61
330
5E
100
AcDbEntity
  8
$DDT_AUDIT_GENERATED_(60)
  6
Continuous
 62
     7
100
AcDbSpline
210
0.0
220
0.0
230
1.0
 70
     8
 71
     3
 72
    23
 73
    19
 74
     0
 42
0.0000000003992185
 43
0.0000000001
 40
0.0
 40
0.0
 40
0.0
 40
0.0
 40
0.0304029461844203
 40
0.0608858785348327
 40
0.0915267818733047
 40
0.1224028140808021
 40
0.1847904446040237
 40
0.2484336687862233
 40
0.318589116491043
 40
0.3893511329921413
 40
0.4976404760473858
 40
0.5587277588347853
 40
0.6205238911055108
 40
0.7478385248952302
 40
0.8028167249248299
 40
0.8746177628115552
 40
0.9377896988999369
 40
0.9979570193379624
 40
0.9979570193379624
 40
0.9979570193379624
 40
0.9979570193379624
 10
32.05530272805805
 20
328.2188613889175
 30
0.0
 10
32.45672306313269
 20
328.2188677662309
 30
0.0
 10
33.26061981756283
 20
328.2188805403717
 30
0.0
 10
34.4658929864476
 20
328.2189339426391
 30
0.0
 10
35.67122456871956
 20
328.2188958895792
 30
0.0
 10
37.28205669597109
 20
328.2188001735875
 30
0.0
 10
39.29213808880183
 20
328.2192129543713
 30
0.0
 10
41.72913779506728
 20
328.2187367851175
 30
0.0
 10
44.16195841998032
 20
328.2189755895947
 30
0.0
 10
46.9490833369464
 20
328.2188315247117
 30
0.0
 10
49.37825420379974
 20
328.2188370872586
 30
0.0
 10
51.40548100638163
 20
328.2189198179501
 30
0.0
 10
53.3463857756249
 20
328.2188466562796
 30
0.0
 10
54.84778490136918
 20
328.2187195505765
 30
0.0
 10
55.98205121543467
 20
328.2191002441542
 30
0.0
 10
56.597317196523
 20
328.2187880198219
 30
0.0
 10
56.98678175018063
 20
328.2189144210944
 30
0.0
 10
57.03238585479519
 20
328.2188805671554
 30
0.0
 10
57.05306502304686
 20
328.2188631637627
 30
0.0
  0
SPLINE
  5
62
330
5E
100
AcDbEntity
  8
$DDT_AUDIT_GENERATED_(60)
  6
Continuous
 62
     7
100
AcDbSpline
210
0.0
220
0.0
230
1.0
 70
     8
 71
     3
 72
    20
 73
    16
 74
     0
 42
0.0000000002000121
 43
0.0000000001
 40
0.4999691029501713
 40
0.4999691029501713
 40
0.4999691029501713
 40
0.4999691029501713
 40
0.5302076537990873
 40
0.5617824451209653
 40
0.6252478667524247
 40
0.6572753032538207
 40
0.6891275980071198
 40
0.7506375154479176
 40
0.7822341937070132
 40
0.8141129500979485
 40
0.8755144182215863
 40
0.9071749215137824
 40
0.938675769076963
 40
0.9696399794696242
 40
1.0
 40
1.0
 40
1.0
 40
1.0
 10
7.055301161454832
 20
328.2188614508436
 30
0.0
 10
7.055287650663197
 20
328.2188621902348
 30
0.0
 10
7.135238843630896
 20
328.2188714218476
 30
0.0
 10
7.615484958446803
 20
328.2188598469501
 30
0.0
 10
8.582164898878773
 20
328.2188310595362
 30
0.0
 10
9.993418687512884
 20
328.2189153402457
 30
0.0
 10
11.6651259947287
 20
328.2188379622925
 30
0.0
 10
13.73572680199502
 20
328.2188172731682
 30
0.0
 10
16.16566785365282
 20
328.2189474910629
 30
0.0
 10
18.80731234982763
 20
328.2188181105702
 30
0.0
 10
21.72630656903467
 20
328.2188136863437
 30
0.0
 10
24.81243416863994
 20
328.2189593013669
 30
0.0
 10
27.21810989972475
 20
328.218889918171
 30
0.0
 10
29.63911401867619
 20
328.2186449895302
 30
0.0
 10
31.25521397061891
 20
328.2187897302246
 30
0.0
 10
32.05530272805805
 20
328.2188613889175
 30
0.0
  0
SPLINE
  5
63
330
5E
100
AcDbEntity
  8
$DDT_AUDIT_GENERATED_(60)
  6
Continuous
 62
     7
100
AcDbSpline
210
0.0
220
0.0
230
1.0
 70
     8
 71
     3
 72
    19
 73
    15
 74
     0
 42
0.0000000001133716
 43
0.0000000001
 40
0.0
 40
0.0
 40
0.0
 40
0.0
 40
0.011624548885317
 40
0.0243479043772386
 40
0.038163956647388
 40
0.0530501442967512
 40
0.0689707896093867
 40
0.0858797527201524
 40
0.1037227331670042
 40
0.1224394365407054
 40
0.1419657444924114
 40
0.1766967713943445
 40
0.2196695701051221
 40
0.2502340776588932
 40
0.2502340776588932
 40
0.2502340776588932
 40
0.2502340776588932
 10
8.140128703157854
 20
424.9752904761409
 30
0.0
 10
8.160866463934942
 20
424.6125055088843
 30
0.0
 10
8.204592800982395
 20
423.8527993542271
 30
0.0
 10
8.298542828705541
 20
422.6737907569337
 30
0.0
 10
8.421242057968636
 20
421.4069147304478
 30
0.0
 10
8.579719934043915
 20
420.0582535432124
 30
0.0
 10
8.779064964260304
 20
418.6339945418032
 30
0.0
 10
9.025920287347674
 20
417.1414853166778
 30
0.0
 10
9.327409347938246
 20
415.5889308292223
 30
0.0
 10
9.691382385663486
 20
413.9855300990833
 30
0.0
 10
10.23375427308212
 20
411.9350231710052
 30
0.0
 10
11.09410771279307
 20
409.2757290194231
 30
0.0
 10
12.29784118687955
 20
406.4367130021849
 30
0.0
 10
13.29916990336577
 20
404.6022722279486
 30
0.0
 10
13.74943243981711
 20
403.8603142363703
 30
0.0
  0
SPLINE
  5
64
330
5E
100
AcDbEntity
  8
$DDT_AUDIT_GENERATED_(60)
  6
Continuous
 62
     7
100
AcDbSpline
210
0.0
220
0.0
230
1.0
 70
     8
 71
     3
 72
    15
 73
    11
 74
     0
 42
0.0000000001133358
 43
0.0000000001
 40
0.7499559519175105
 40
0.7499559519175105
 40
0.7499559519175105
 40
0.7499559519175105
 40
0.7836448071113973
 40
0.825974773695742
 40
0.8607952616486595
 40
0.8946904711973331
 40
0.9258428189436142
 40
0.9539262163654859
 40
0.9786896520040493
 40
1.0
 40
1.0
 40
1.0
 40
1.0
 10
50.36087778158177
 20
403.859877358406
 30
0.0
 10
50.85713613316005
 20
404.6776457081037
 30
0.0
 10
51.88385683549399
 20
406.5795937083344
 30
0.0
 10
53.09670572770439
 20
409.4955339954482
 30
0.0
 10
54.06387341651891
 20
412.5409449800949
 30
0.0
 10
54.7557828237762
 20
415.3737296079488
 30
0.0
 10
55.25978961199984
 20
418.0894106158041
 30
0.0
 10
55.60616038048023
 20
420.5993342393135
 30
0.0
 10
55.83835113084498
 20
422.8618252247599
 30
0.0
 10
55.9268291976751
 20
424.2981291217002
 30
0.0
 10
55.96762519446298
 20
424.9625224066238
 30
0.0
  0
ARC
  5
65
330
5E
100
AcDbEntity
  8
$DDT_AUDIT_GENERATED_(60)
  6
Continuous
 62
     7
100
AcDbCircle
 10
31.1607607095
 20
-226.016899399
 30
0.0
 40
629.7904831902284
100
AcDbArc
 50
89.9185906357
 51
91.3693777145
  0
ARC
  5
66
330
5E
100
AcDbEntity
  8
$DDT_AUDIT_GENERATED_(60)
  6
Continuous
 62
     7
100
AcDbCircle
 10
32.9180898099
 20
-227.9446710183
 30
0.0
 40
631.7182078590635
100
AcDbArc
 50
88.6319330536
 51
90.0782259079
  0
SPLINE
  5
67
330
5E
100
AcDbEntity
  8
$DDT_AUDIT_GENERATED_(60)
  6
Continuous
 62
     7
100
AcDbSpline
210
0.0
220
0.0
230
1.0
 70
     8
 71
     3
 72
     8
 73
     4
 74
     0
 42
0.0000000012919982
 43
0.0000000001
 40
0.9218756689376408
 40
0.9218756689376408
 40
0.9218756689376408
 40
0.9218756689376408
 40
0.9229036270237257
 40
0.9229036270237257
 40
0.9229036270237257
 40
0.9229036270237257
 10
57.05716748511425
 20
426.9991940268123
 30
0.0
 10
57.05721831528061
 20
426.9965422907976
 30
0.0
 10
57.05725485901479
 20
426.9938904515051
 30
0.0
 10
57.05727702794569
 20
426.9912385156516
 30
0.0
  0
SPLINE
  5
68
330
5E
100
AcDbEntity
  8
$DDT_AUDIT_GENERATED_(60)
  6
Continuous
 62
     7
100
AcDbSpline
210
0.0
220
0.0
230
1.0
 70
     8
 71
     3
 72
     8
 73
     4
 74
     0
 42
0.0000000012915503
 43
0.0000000001
 40
0.0767276325218197
 40
0.0767276325218197
 40
0.0767276325218197
 40
0.0767276325218197
 40
0.0787071387986249
 40
0.0787071387986249
 40
0.0787071387986249
 40
0.0787071387986249
 10
7.055594762413939
 20
426.9961125928198
 30
0.0
 10
7.055599944660669
 20
427.0012211464072
 30
0.0
 10
7.055652608340318
 20
427.0063296237794
 30
0.0
 10
7.05575298176268
 20
427.0114379229888
 30
0.0
  0
ARC
  5
69
330
5E
100
AcDbEntity
  8
$DDT_AUDIT_GENERATED_(60)
  6
Continuous
 62
     7
100
AcDbCircle
 10
16.4133577489
 20
401.6713098913
 30
0.0
 40
1.946180135963239
100
AcDbArc
 50
98.9642730195
 51
173.6200292663
  0
ARC
  5
6A
330
5E
100
AcDbEntity
  8
$DDT_AUDIT_GENERATED_(60)
  6
Continuous
 62
     7
100
AcDbCircle
 10
47.6972575543
 20
401.671001416
 30
0.0
 40
1.946213185399069
100
AcDbArc
 50
6.3789274159
 51
81.0401749377
  0
SPLINE
  5
6B
330
5E
100
AcDbEntity
  8
$DDT_AUDIT_GENERATED_(60)
  6
Continuous
 62
     7
100
AcDbSpline
210
0.0
220
0.0
230
1.0
 70
     8
 71
     3
 72
     8
 73
     4
 74
     0
 42
0.0000000002386999
 43
0.0000000001
 40
0.0
 40
0.0
 40
0.0
 40
0.0
 40
0.0422767881771059
 40
0.0422767881771059
 40
0.0422767881771059
 40
0.0422767881771059
 10
19.80530279191026
 20
392.7490496666007
 30
0.0
 10
19.80540227954042
 20
392.1968572590447
 30
0.0
 10
19.95199232255282
 20
391.6304428114763
 30
0.0
 10
20.23717134490181
 20
391.0643602267516
 30
0.0
  0
SPLINE
  5
6C
330
5E
100
AcDbEntity
  8
$DDT_AUDIT_GENERATED_(60)
  6
Continuous
 62
     7
100
AcDbSpline
210
0.0
220
0.0
230
1.0
 70
     8
 71
     3
 72
     8
 73
     4
 74
     0
 42
0.0000000002317542
 43
0.0000000001
 40
0.4579016592059746
 40
0.4579016592059746
 40
0.4579016592059746
 40
0.4579016592059746
 40
0.4789279433860467
 40
0.4789279433860467
 40
0.4789279433860467
 40
0.4789279433860467
 10
43.87100028405163
 20
391.0615558328513
 30
0.0
 10
44.01307502037379
 20
391.3438561725885
 30
0.0
 10
44.12094083282254
 20
391.6262598269965
 30
0.0
 10
44.19363770999554
 20
391.9058927086651
 30
0.0
  0
SPLINE
  5
6D
330
5E
100
AcDbEntity
  8
$DDT_AUDIT_GENERATED_(60)
  6
Continuous
 62
     7
100
AcDbSpline
210
0.0
220
0.0
230
1.0
 70
     8
 71
     3
 72
    10
 73
     6
 74
     0
 42
0.0000000002548505
 43
0.0000000001
 40
0.4789279433860467
 40
0.4789279433860467
 40
0.4789279433860467
 40
0.4789279433860467
 40
0.4999999999999998
 40
0.4999999999999998
 40
0.5200428510790357
 40
0.5200428510790357
 40
0.5200428510790357
 40
0.5200428510790357
 10
44.19363770999554
 20
391.9058927086651
 30
0.0
 10
44.26649284209249
 20
392.1861343273545
 30
0.0
 10
44.30402575268255
 20
392.4635930967002
 30
0.0
 10
44.30645376259058
 20
392.9938846604184
 30
0.0
 10
44.27453924104243
 20
393.248459054113
 30
0.0
 10
44.21058374914423
 20
393.497258633783
 30
0.0
  0
SPLINE
  5
6E
330
5E
100
AcDbEntity
  8
$DDT_AUDIT_GENERATED_(60)
  6
Continuous
 62
     7
100
AcDbSpline
210
0.0
220
0.0
230
1.0
 70
     8
 71
     3
 72
    75
 73
    71
 74
     0
 42
0.0000000013562349
 43
0.0000000001
 40
0.0
 40
0.0
 40
0.0
 40
0.0
 40
0.0107031851221125
 40
0.0259921022484112
 40
0.0395262903810766
 40
0.0513223605040495
 40
0.0613963622196107
 40
0.0718956313053533
 40
0.0815339002091886
 40
0.0903165857761121
 40
0.0984069487634121
 40
0.105648924744487
 40
0.1139369408584528
 40
0.1232647022643016
 40
0.1336251794394649
 40
0.1440242552458331
 40
0.1527225169495333
 40
0.1599073865761142
 40
0.1655867234872497
 40
0.1707274790184424
 40
0.1774906771323698
 40
0.1858555066383584
 40
0.1958118023580007
 40
0.2065331797132686
 40
0.2163071383397351
 40
0.2249383506280866
 40
0.2326163034876949
 40
0.2394215253901893
 40
0.2466345099992167
 40
0.2548849649584785
 40
0.2640290569506614
 40
0.2739021051589678
 40
0.2828219877968201
 40
0.2903450263082083
 40
0.2964794546330723
 40
0.302680596846584
 40
0.3220521200036223
 40
0.342895586777533
 40
0.3594288000798532
 40
0.378319875685303
 40
0.4009134923042829
 40
0.4203988494016172
 40
0.4367976340839383
 40
0.4467349962454183
 40
0.4580342442912819
 40
0.4700370320404409
 40
0.4817179057815626
 40
0.4930595424031287
 40
0.5038268934498881
 40
0.5193662790343083
 40
0.5337139213711499
 40
0.5472621252774079
 40
0.5652052732258526
 40
0.5830509503916482
 40
0.6008030268274602
 40
0.6187841652217203
 40
0.6287045559401555
 40
0.6390304370085805
 40
0.6505687914277062
 40
0.6636546869764102
 40
0.6773599269271461
 40
0.6905136395073648
 40
0.7057667307230472
 40
0.7209754836786302
 40
0.736198609612946
 40
0.752103577378828
 40
0.7687468553393069
 40
0.7803397462660357
 40
0.7900245166340465
 40
0.7941614907903071
 40
0.7941614907903071
 40
0.7941614907903071
 40
0.7941614907903071
 10
49.77268133520217
 20
398.8651462547348
 30
0.0
 10
49.77521648858278
 20
398.9151461530707
 30
0.0
 10
49.7804564632543
 20
399.017881069886
 30
0.0
 10
49.79045923018706
 20
399.1879238336853
 30
0.0
 10
49.80123541120451
 20
399.3567771485694
 30
0.0
 10
49.81140447389306
 20
399.5041254101936
 30
0.0
 10
49.82126655409698
 20
399.6384424443994
 30
0.0
 10
49.83089153112135
 20
399.7623896211647
 30
0.0
 10
49.84035076594873
 20
399.8780922146076
 30
0.0
 10
49.84920511221335
 20
399.9816646206394
 30
0.0
 10
49.85725899830796
 20
400.0723434273538
 30
0.0
 10
49.8654228928457
 20
400.1612554322846
 30
0.0
 10
49.87430511006115
 20
400.25481097382
 30
0.0
 10
49.88465169125311
 20
400.3598397238787
 30
0.0
 10
49.89619569669282
 20
400.4724041933742
 30
0.0
 10
49.90789746474038
 20
400.5818981191639
 30
0.0
 10
49.91859558439847
 20
400.6783953151069
 30
0.0
 10
49.92752956083415
 20
400.7566328028867
 30
0.0
 10
49.93506041475721
 20
400.8210595368202
 30
0.0
 10
49.94239630732316
 20
400.8826342837212
 30
0.0
 10
49.95093605903413
 20
400.9528656881789
 30
0.0
 10
49.96166082958497
 20
401.0388521748803
 30
0.0
 10
49.9743182294845
 20
401.1373304466169
 30
0.0
 10
49.98788506418593
 20
401.2394533698778
 30
0.0
 10
50.00114688215666
 20
401.3361423577684
 30
0.0
 10
50.01323982408299
 20
401.4218713758006
 30
0.0
 10
50.02411784582525
 20
401.4971329622651
 30
0.0
 10
50.03445339961118
 20
401.5671386047862
 30
0.0
 10
50.0451649060701
 20
401.6382394362474
 30
0.0
 10
50.05713793018103
 20
401.7159930426399
 30
0.0
 10
50.070577411111
 20
401.8011859846642
 30
0.0
 10
50.08454874186961
 20
401.8874832263871
 30
0.0
 10
50.09785779374551
 20
401.9676516586558
 30
0.0
 10
50.10936148117341
 20
402.0354696545554
 30
0.0
 10
50.11948450494371
 20
402.0941117235649
 30
0.0
 10
50.13564827020127
 20
402.1863094928755
 30
0.0
 10
50.15965805957372
 20
402.3189904818385
 30
0.0
 10
50.18964339615567
 20
402.4769292430062
 30
0.0
 10
50.22012343180276
 20
402.6306406655111
 30
0.0
 10
50.25162653414058
 20
402.7832628128886
 30
0.0
 10
50.2850386218772
 20
402.9379961600334
 30
0.0
 10
50.31676663856121
 20
403.0785320759949
 30
0.0
 10
50.34039455657788
 20
403.1796966974712
 30
0.0
 10
50.36134368842601
 20
403.2671363310567
 30
0.0
 10
50.38039061876754
 20
403.3449204077396
 30
0.0
 10
50.40072751700043
 20
403.4260233118255
 30
0.0
 10
50.4206637786687
 20
403.5036660948478
 30
0.0
 10
50.43954585949972
 20
403.575591231448
 30
0.0
 10
50.46026114229505
 20
403.6528674242477
 30
0.0
 10
50.48202421589792
 20
403.7320949742432
 30
0.0
 10
50.50479367621897
 20
403.8128237250549
 30
0.0
 10
50.52873141109438
 20
403.8956406130565
 30
0.0
 10
50.55410991553062
 20
403.9810345190949
 30
0.0
 10
50.58084212959105
 20
404.0682442275607
 30
0.0
 10
50.60669165169089
 20
404.1500627737042
 30
0.0
 10
50.62781576425047
 20
404.2149479949826
 30
0.0
 10
50.64480484384863
 20
404.2659594686
 30
0.0
 10
50.65854750575444
 20
404.3065393678842
 30
0.0
 10
50.67295693408373
 20
404.3483307115116
 30
0.0
 10
50.68795771833027
 20
404.3909796313877
 30
0.0
 10
50.70266572217774
 20
404.4319030572656
 30
0.0
 10
50.71697977805512
 20
404.4708855871592
 30
0.0
 10
50.7303883828427
 20
404.5065848146298
 30
0.0
 10
50.74277757411771
 20
404.5387937143733
 30
0.0
 10
50.7536392286553
 20
404.5663582583013
 30
0.0
 10
50.7624739482308
 20
404.5882248140986
 30
0.0
 10
50.7682881133567
 20
404.6022526635994
 30
0.0
 10
50.77158208726424
 20
404.6100304914324
 30
0.0
 10
50.77260013787461
 20
404.6123896322898
 30
0.0
 10
50.77271599085216
 20
404.6126577550374
 30
0.0
 10
50.77271500398904
 20
404.6126562628934
 30
0.0
  0
SPLINE
  5
6F
330
5E
100
AcDbEntity
  8
$DDT_AUDIT_GENERATED_(60)
  6
Continuous
 62
     7
100
AcDbSpline
210
0.0
220
0.0
230
1.0
 70
     8
 71
     3
 72
    78
 73
    74
 74
     0
 42
0.0000000013577283
 43
0.0000000001
 40
0.205692829560045
 40
0.205692829560045
 40
0.205692829560045
 40
0.205692829560045
 40
0.2097301520126636
 40
0.2179398678788904
 40
0.2275002248074958
 40
0.2444121229448324
 40
0.2611767145670335
 40
0.2772571554453894
 40
0.2932885460128952
 40
0.3093726655852403
 40
0.3225680259305522
 40
0.3364636390595249
 40
0.3497782248697246
 40
0.3614149232714345
 40
0.3717132063596235
 40
0.3932614704959124
 40
0.4138707963560608
 40
0.4346055045861556
 40
0.4554944846405
 40
0.4660310829355941
 40
0.4770444084070286
 40
0.4886149790364617
 40
0.501152688722673
 40
0.5146835908740063
 40
0.5286892628473122
 40
0.5429915889180125
 40
0.5562235069901654
 40
0.5664957054980126
 40
0.5754207871063362
 40
0.5851668179975452
 40
0.5963643790504413
 40
0.6090243661387146
 40
0.6216331703112353
 40
0.6328141147606323
 40
0.6414165543467814
 40
0.6491695283696346
 40
0.6577631620029586
 40
0.6675091580167678
 40
0.6784054652074525
 40
0.6887674409360405
 40
0.697362237853761
 40
0.7041971924631576
 40
0.710542660262164
 40
0.7182892592835398
 40
0.7274451595316364
 40
0.7373267685245962
 40
0.7463720841234289
 40
0.7545157516669572
 40
0.7617521385980629
 40
0.7688309709925613
 40
0.776891699761037
 40
0.7859499579480341
 40
0.7960125406995976
 40
0.8068123799185476
 40
0.8144787464752999
 40
0.8211544419834406
 40
0.8268344189336075
 40
0.8315143692484086
 40
0.8354571255358553
 40
0.8426291283963337
 40
0.8517335764950941
 40
0.8627831844182748
 40
0.8745984791987503
 40
0.885647353639722
 40
0.8959178046188597
 40
0.9098550447258639
 40
0.9234455894799722
 40
0.9378539264125477
 40
0.9531159425740992
 40
0.9640779909869124
 40
0.9767442950880378
 40
0.9911296137362415
 40
1.0
 40
1.0
 40
1.0
 40
1.0
 10
13.33793634694241
 20
404.6125478707818
 30
0.0
 10
13.33793554964567
 20
404.6125487359466
 30
0.0
 10
13.33803186682182
 20
404.6123252012715
 30
0.0
 10
13.33876584934812
 20
404.6106244084991
 30
0.0
 10
13.34139005886925
 20
404.6044524676417
 30
0.0
 10
13.34659292632519
 20
404.5919739224327
 30
0.0
 10
13.35529122911678
 20
404.5705533747879
 30
0.0
 10
13.3664599700234
 20
404.5423128173205
 30
0.0
 10
13.37937796077849
 20
404.5088034053823
 30
0.0
 10
13.39325534246505
 20
404.471889868565
 30
0.0
 10
13.40793043197131
 20
404.4319293409104
 30
0.0
 10
13.42280571426973
 20
404.3905384427061
 30
0.0
 10
13.43801481922934
 20
404.3472811243876
 30
0.0
 10
13.45256089763573
 20
404.3050669845352
 30
0.0
 10
13.47139717651985
 20
404.2494073980484
 30
0.0
 10
13.49515080061069
 20
404.1773878469345
 30
0.0
 10
13.52523415070812
 20
404.0829035754464
 30
0.0
 10
13.55622425740721
 20
403.982097288241
 30
0.0
 10
13.58313662304546
 20
403.8913439125604
 30
0.0
 10
13.60529265538423
 20
403.8145154549508
 30
0.0
 10
13.6226765198597
 20
403.7530786854656
 30
0.0
 10
13.64118680441243
 20
403.6863499812736
 30
0.0
 10
13.66167075802792
 20
403.6108863545857
 30
0.0
 10
13.6839222533613
 20
403.5268852277169
 30
0.0
 10
13.70760522349099
 20
403.435100224847
 30
0.0
 10
13.73170916025821
 20
403.3390106151925
 30
0.0
 10
13.75325709640373
 20
403.2506603572549
 30
0.0
 10
13.77112186950405
 20
403.1756438717345
 30
0.0
 10
13.78618202240443
 20
403.1112195707078
 30
0.0
 10
13.80210035868566
 20
403.0419154102145
 30
0.0
 10
13.8203125550671
 20
402.9609377863483
 30
0.0
 10
13.84026954496963
 20
402.8699825230271
 30
0.0
 10
13.86019466843449
 20
402.7766895742886
 30
0.0
 10
13.87781573169334
 20
402.6920192923287
 30
0.0
 10
13.89275346371896
 20
402.6186486159264
 30
0.0
 10
13.90629058687045
 20
402.550912977857
 30
0.0
 10
13.92030985636466
 20
402.4794344024691
 30
0.0
 10
13.93585956800549
 20
402.3984481280889
 30
0.0
 10
13.95214958485909
 20
402.3115193040794
 30
0.0
 10
13.96764959405985
 20
402.2266765436531
 30
0.0
 10
13.98091560430658
 20
402.1523633580756
 30
0.0
 10
13.99201104678556
 20
402.0890121174866
 30
0.0
 10
14.00269044436029
 20
402.027016278973
 30
0.0
 10
14.01453071551157
 20
401.9570227730556
 30
0.0
 10
14.02806523834528
 20
401.8752182293647
 30
0.0
 10
14.04208576270873
 20
401.7882854861704
 30
0.0
 10
14.05540382159898
 20
401.7035425655553
 30
0.0
 10
14.067265987696
 20
401.626233610629
 30
0.0
 10
14.07804806390572
 20
401.5544126928554
 30
0.0
 10
14.08868145745447
 20
401.4821013625912
 30
0.0
 10
14.10003509100771
 20
401.4031527580611
 30
0.0
 10
14.11258868597825
 20
401.3135903746693
 30
0.0
 10
14.12614746493775
 20
401.2139807321263
 30
0.0
 10
14.13879016960296
 20
401.118011692414
 30
0.0
 10
14.14971595313037
 20
401.0325749595672
 30
0.0
 10
14.15828621530905
 20
400.963960004732
 30
0.0
 10
14.16548852529957
 20
400.905091824124
 30
0.0
 10
14.17147792895377
 20
400.8552653168477
 30
0.0
 10
14.17806586211784
 20
400.7996355091653
 30
0.0
 10
14.18652399192106
 20
400.7267935367403
 30
0.0
 10
14.19778885027333
 20
400.6268330870731
 30
0.0
 10
14.21066753261017
 20
400.5080968204909
 30
0.0
 10
14.22385620790235
 20
400.380888329846
 30
0.0
 10
14.23620044867771
 20
400.25614514382
 30
0.0
 10
14.24882392719281
 20
400.1227160054776
 30
0.0
 10
14.26165159251269
 20
399.9798014821089
 30
0.0
 10
14.27526535396692
 20
399.8184153196917
 30
0.0
 10
14.28877191264346
 20
399.647040270979
 30
0.0
 10
14.30075639245847
 20
399.4826620071854
 30
0.0
 10
14.31166601707485
 20
399.321554089962
 30
0.0
 10
14.32164418154289
 20
399.1627910436887
 30
0.0
 10
14.33076946014751
 20
399.0062828247486
 30
0.0
 10
14.33552556264819
 20
398.9125766526352
 30
0.0
 10
14.33765671109112
 20
398.8703849200683
 30
0.0
  0
LINE
  5
70
330
5E
100
AcDbEntity
  8
$DDT_AUDIT_GENERATED_(60)
  6
Continuous
 62
     7
100
AcDbLine
 10
57.0553026802
 20
328.2188412691
 30
0.0
 11
57.0553026802
 21
426.9911457073
 31
0.0
  0
LINE
  5
71
330
5E
100
AcDbEntity
  8
$DDT_AUDIT_GENERATED_(60)
  6
Continuous
 62
     7
100
AcDbLine
 10
7.0553026999
 20
426.9960603078
 30
0.0
 11
7.0553026999
 21
328.2188412841
 31
0.0
  0
SPLINE
  5
72
330
5E
100
AcDbEntity
  8
$DDT_AUDIT_GENERATED_(60)
  6
Continuous
 62
     7
100
AcDbSpline
210
0.0
220
0.0
230
1.0
 70
     8
 71
     3
 72
    17
 73
    13
 74
     0
 42
0.0000000006637426
 43
0.0000000001
 40
0.8423320220123842
 40
0.8423320220123842
 40
0.8423320220123842
 40
0.8423320220123842
 40
0.8474588817786245
 40
0.855994432787456
 40
0.8649874326639099
 40
0.874417883867177
 40
0.884256705425368
 40
0.8944698777470433
 40
0.9082978341217816
 40
0.937224277354757
 40
0.9679712505283433
 40
1.0
 40
1.0
 40
1.0
 40
1.0
 10
8.222682438366716
 20
428.9660555849825
 30
0.0
 10
8.202272853811216
 20
428.9511072766581
 30
0.0
 10
8.148297642994264
 20
428.9108683411591
 30
0.0
 10
8.059454184500165
 20
428.8413718589865
 30
0.0
 10
7.951767394246894
 20
428.7509714164814
 30
0.0
 10
7.839422237888606
 20
428.6483385217462
 30
0.0
 10
7.72550191987981
 20
428.5342112596654
 30
0.0
 10
7.595098768443168
 20
428.3861665167911
 30
0.0
 10
7.434282550324537
 20
428.180462501765
 30
0.0
 10
7.247659171087016
 20
427.873539538574
 30
0.0
 10
7.089381114826376
 20
427.4498557060737
 30
0.0
 10
7.066685413065366
 20
427.1732480001269
 30
0.0
 10
7.05534937548893
 20
427.0050519132639
 30
0.0
  0
SPLINE
  5
73
330
5E
100
AcDbEntity
  8
$DDT_AUDIT_GENERATED_(60)
  6
Continuous
 62
     7
100
AcDbSpline
210
0.0
220
0.0
230
1.0
 70
     8
 71
     3
 72
    16
 73
    12
 74
     0
 42
0.0000000006693827
 43
0.0000000001
 40
0.0
 40
0.0
 40
0.0
 40
0.0
 40
0.0197064498997078
 40
0.0386424256919006
 40
0.0566678058691881
 40
0.073647217913825
 40
0.0894825365106712
 40
0.1040896510666559
 40
0.1141855913676345
 40
0.1389085033657915
 40
0.1593723616938719
 40
0.1593723616938719
 40
0.1593723616938719
 40
0.1593723616938719
 10
57.05526965015487
 20
426.9982882354443
 30
0.0
 10
57.05045294676439
 20
427.1082859176344
 30
0.0
 10
57.04075028562216
 20
427.2894501585374
 30
0.0
 10
56.9728136374932
 20
427.5734044642709
 30
0.0
 10
56.87622558396098
 20
427.8249780670031
 30
0.0
 10
56.75832222270355
 20
428.0488237588041
 30
0.0
 10
56.6272486529855
 20
428.2448445769034
 30
0.0
 10
56.50984721027844
 20
428.39206905755
 30
0.0
 10
56.33621483605887
 20
428.585260630315
 30
0.0
 10
56.14490976533582
 20
428.7626532997149
 30
0.0
 10
55.96653402258978
 20
428.9030747975644
 30
0.0
 10
55.88340144168688
 20
428.9641268663829
 30
0.0
  0
SPLINE
  5
74
330
5E
100
AcDbEntity
  8
$DDT_AUDIT_GENERATED_(60)
  6
Continuous
 62
     7
100
AcDbSpline
210
0.0
220
0.0
230
1.0
 70
     8
 71
     3
 72
    41
 73
    37
 74
     0
 42
0.0000000004587171
 43
0.0000000001
 40
0.0
 40
0.0
 40
0.0
 40
0.0
 40
0.022477372894361
 40
0.0483393040163904
 40
0.0572335712716364
 40
0.0605114324790677
 40
0.0635080277748248
 40
0.0674058119926859
 40
0.0722759041219571
 40
0.0843203424716617
 40
0.1000717548141814
 40
0.1196870383379526
 40
0.1433318042513789
 40
0.1711597778187981
 40
0.2033025530781573
 40
0.2381246846422538
 40
0.2619693455684866
 40
0.2850453937496934
 40
0.3073103173995813
 40
0.3287219331406753
 40
0.3492412719133413
 40
0.3688327849260084
 40
0.3935846845259773
 40
0.4172630018759392
 40
0.4404845875867041
 40
0.4603477321611577
 40
0.4755991756815794
 40
0.4882607913125594
 40
0.4983970591916753
 40
0.5064059401492277
 40
0.515863327472465
 40
0.527663588436598
 40
0.5417528948415491
 40
0.558069097724366
 40
0.5768215729113798
 40
0.5896829204099432
 40
0.5896829204099432
 40
0.5896829204099432
 40
0.5896829204099432
 10
14.33766433609691
 20
398.8733452883383
 30
0.0
 10
14.35056783173511
 20
398.6805713691193
 30
0.0
 10
14.37354716789888
 20
398.3345632276389
 30
0.0
 10
14.42745054971054
 20
397.9108628984479
 30
0.0
 10
14.45896208419174
 20
397.6707143708308
 30
0.0
 10
14.4788263043132
 20
397.5526944355482
 30
0.0
 10
14.49184648850353
 20
397.4765763351697
 30
0.0
 10
14.50500159887175
 20
397.3965211986848
 30
0.0
 10
14.52730293372958
 20
397.2611997851022
 30
0.0
 10
14.56114289907623
 20
397.0597675009285
 30
0.0
 10
14.61694643527423
 20
396.7651575675068
 30
0.0
 10
14.69484391428863
 20
396.4010799765367
 30
0.0
 10
14.802734168697
 20
395.9629417434892
 30
0.0
 10
14.94958132779944
 20
395.4487475100937
 30
0.0
 10
15.14408172708096
 20
394.8662168413481
 30
0.0
 10
15.36058062562113
 20
394.3109957292984
 30
0.0
 10
15.58384821441757
 20
393.8073406964496
 30
0.0
 10
15.79089908059641
 20
393.3824293732997
 30
0.0
 10
16.00855294281374
 20
392.9730940909324
 30
0.0
 10
16.23483749858053
 20
392.5805724297603
 30
0.0
 10
16.46783238115327
 20
392.2056564792454
 30
0.0
 10
16.73014338443071
 20
391.812121564783
 30
0.0
 10
17.02546025727941
 20
391.4012954384377
 30
0.0
 10
17.35877085748953
 20
390.9735563558928
 30
0.0
 10
17.68956590417901
 20
390.5803444426829
 30
0.0
 10
17.99605678519794
 20
390.240536306551
 30
0.0
 10
18.25876717556358
 20
389.9653519062214
 30
0.0
 10
18.47548149708599
 20
389.7483076274013
 30
0.0
 10
18.65589736338277
 20
389.5740953072066
 30
0.0
 10
18.82110921056967
 20
389.4191287274151
 30
0.0
 10
18.9997836476296
 20
389.2561448114575
 30
0.0
 10
19.22083562716152
 20
389.0612379866985
 30
0.0
 10
19.49247365330459
 20
388.8314609498783
 30
0.0
 10
19.81939874222537
 20
388.5681444344361
 30
0.0
 10
20.15008150027043
 20
388.3165758516451
 30
0.0
 10
20.37545457318724
 20
388.1538824405385
 30
0.0
 10
20.46832567869123
 20
388.0882741660766
 30
0.0
  0
SPLINE
  5
75
330
5E
100
AcDbEntity
  8
$DDT_AUDIT_GENERATED_(60)
  6
Continuous
 62
     7
100
AcDbSpline
210
0.0
220
0.0
230
1.0
 70
     8
 71
     3
 72
    41
 73
    37
 74
     0
 42
0.0000000004579667
 43
0.0000000001
 40
0.4112758684044616
 40
0.4112758684044616
 40
0.4112758684044616
 40
0.4112758684044616
 40
0.4229302024511557
 40
0.4417552087953227
 40
0.4581218193685662
 40
0.4722740339855851
 40
0.4841499408698341
 40
0.4936957853029976
 40
0.5016846292734904
 40
0.5117245718008352
 40
0.5242916591108647
 40
0.5394498565512236
 40
0.556004873936799
 40
0.5749624676094526
 40
0.5963348960815626
 40
0.6152962571910761
 40
0.6371777956145235
 40
0.6604668799304871
 40
0.6835599895288983
 40
0.7077053023863071
 40
0.7328470804090171
 40
0.7589294688700392
 40
0.7960736706007507
 40
0.8284208249947143
 40
0.8564103674667057
 40
0.880174236598815
 40
0.8998676044601785
 40
0.9156575898927198
 40
0.9277048018205489
 40
0.9350912751919392
 40
0.9400056892370713
 40
0.9503501878344551
 40
0.9641145914672942
 40
0.9769407479601184
 40
0.9888839696063394
 40
1.0
 40
1.0
 40
1.0
 40
1.0
 10
43.64208917944996
 20
388.0881532547828
 30
0.0
 10
43.72620667147114
 20
388.1475712928718
 30
0.0
 10
43.9437338212793
 20
388.3042665537986
 30
0.0
 10
44.26817356348098
 20
388.5501297372032
 30
0.0
 10
44.59766725708275
 20
388.814584487087
 30
0.0
 10
44.87157742077235
 20
389.0455378135524
 30
0.0
 10
45.09488291961804
 20
389.2418578753908
 30
0.0
 10
45.27507334885895
 20
389.4057991652328
 30
0.0
 10
45.44069171222602
 20
389.560769246985
 30
0.0
 10
45.62052482212145
 20
389.7339726889139
 30
0.0
 10
45.83645037659205
 20
389.9496177730421
 30
0.0
 10
46.08095673874061
 20
390.2049524941556
 30
0.0
 10
46.34941466368253
 20
390.500054554295
 30
0.0
 10
46.63699253831525
 20
390.8348645733766
 30
0.0
 10
46.91984808718336
 20
391.1865678858269
 30
0.0
 10
47.20215682064388
 20
391.5616300349163
 30
0.0
 10
47.47483223351178
 20
391.9498226474859
 30
0.0
 10
47.74499963905019
 20
392.3655056538685
 30
0.0
 10
48.00321541471085
 20
392.7967690501171
 30
0.0
 10
48.24719103497215
 20
393.2409283997188
 30
0.0
 10
48.47898808565758
 20
393.704380965587
 30
0.0
 10
48.72518373707475
 20
394.2496226386692
 30
0.0
 10
48.95576872126281
 20
394.8353207576992
 30
0.0
 10
49.15688482966235
 20
395.4351940953712
 30
0.0
 10
49.30532656535492
 20
395.9532731747797
 30
0.0
 10
49.41419880681612
 20
396.3942281405614
 30
0.0
 10
49.49276752258756
 20
396.7606548684441
 30
0.0
 10
49.54866619666696
 20
397.0556951298453
 30
0.0
 10
49.58582419236823
 20
397.2752076948507
 30
0.0
 10
49.61093430516163
 20
397.4309166871585
 30
0.0
 10
49.64128890569476
 20
397.604846165324
 30
0.0
 10
49.66907814817537
 20
397.8000275149168
 30
0.0
 10
49.70226930144889
 20
398.0570086170646
 30
0.0
 10
49.73243916930127
 20
398.33335846402
 30
0.0
 10
49.75710489143735
 20
398.6078069470209
 30
0.0
 10
49.76724357742867
 20
398.7766530109099
 30
0.0
 10
49.77294106768157
 20
398.8733437807169
 30
0.0
  0
SPLINE
  5
76
330
5E
100
AcDbEntity
  8
$DDT_AUDIT_GENERATED_(60)
  6
Continuous
 62
     7
100
AcDbSpline
210
0.0
220
0.0
230
1.0
 70
     8
 71
     3
 72
    61
 73
    57
 74
     0
 42
0.0000000003546327
 43
0.0000000001
 40
0.0
 40
0.0
 40
0.0
 40
0.0
 40
0.0095926693264144
 40
0.0284321284734234
 40
0.0473902619518404
 40
0.0664789058708993
 40
0.085626355076896
 40
0.1047698335302888
 40
0.1238822402492805
 40
0.1429546328599934
 40
0.1619827233378993
 40
0.1809605923298518
 40
0.199878479159209
 40
0.2187232775642997
 40
0.2374803393496286
 40
0.2561356474030372
 40
0.2746778870138711
 40
0.2930559878174971
 40
0.3115650540497412
 40
0.3302622369551427
 40
0.3491206866527202
 40
0.368107825945621
 40
0.3871861693946127
 40
0.4063148822484563
 40
0.4254467365216382
 40
0.4445303780888624
 40
0.4635268923745384
 40
0.4824020296173245
 40
0.501127677402858
 40
0.5196830084928212
 40
0.5380515704886192
 40
0.5565122227399426
 40
0.5751367846375358
 40
0.5938931941807526
 40
0.6127626220510219
 40
0.631721636026865
 40
0.6507432971412213
 40
0.6697983668288311
 40
0.6888509483952764
 40
0.7078671888146866
 40
0.7268201300502876
 40
0.7456865732904109
 40
0.7644482345867959
 40
0.7830925176357993
 40
0.8015363100117779
 40
0.820066457208231
 40
0.8386846240297123
 40
0.857385112242507
 40
0.8761603316553765
 40
0.8950024944583724
 40
0.9139055096283564
 40
0.9328666066717344
 40
0.9518868204429723
 40
0.9709690024807525
 40
0.9901119484255865
 40
1.0
 40
1.0
 40
1.0
 40
1.0
 10
19.80533786620932
 20
392.7640135458994
 30
0.0
 10
19.80658202377678
 20
392.8263201351907
 30
0.0
 10
19.81057295936839
 20
392.9831481151771
 30
0.0
 10
19.84626072404674
 20
393.2651774935858
 30
0.0
 10
19.92613328754638
 20
393.5866508379807
 30
0.0
 10
20.04589228957902
 20
393.9061020341695
 30
0.0
 10
20.20485887159468
 20
394.2189471471642
 30
0.0
 10
20.40261089096663
 20
394.5248148696458
 30
0.0
 10
20.63825409417381
 20
394.8223173554214
 30
0.0
 10
20.91087431765608
 20
395.1106295450589
 30
0.0
 10
21.2194473736451
 20
395.3889159040432
 30
0.0
 10
21.56280502178014
 20
395.6563705421414
 30
0.0
 10
21.93959367219524
 20
395.9121783556862
 30
0.0
 10
22.34825432729092
 20
396.1555406979805
 30
0.0
 10
22.78707247650614
 20
396.3857138786121
 30
0.0
 10
23.25409268202156
 20
396.6020045348117
 30
0.0
 10
23.74724142402279
 20
396.8037601146559
 30
0.0
 10
24.26650819297482
 20
396.9919492547914
 30
0.0
 10
24.81220154853955
 20
397.1672144646775
 30
0.0
 10
25.38582613937793
 20
397.3300678250431
 30
0.0
 10
25.98575377264662
 20
397.4798979381997
 30
0.0
 10
26.60929013972504
 20
397.6159060619629
 30
0.0
 10
27.25343691951318
 20
397.7373613444863
 30
0.0
 10
27.91488518360673
 20
397.843613843881
 30
0.0
 10
28.59001744806046
 20
397.934112361925
 30
0.0
 10
29.27509674400241
 20
398.0084458476318
 30
0.0
 10
29.96642251669407
 20
398.0663554673755
 30
0.0
 10
30.66048474734828
 20
398.1077245139931
 30
0.0
 10
31.35392310663895
 20
398.1325714735888
 30
0.0
 10
32.04355628429735
 20
398.1409804506764
 30
0.0
 10
32.72993941206088
 20
398.1332579315887
 30
0.0
 10
33.41492013574031
 20
398.1097932634858
 30
0.0
 10
34.10018280323882
 20
398.0703220205893
 30
0.0
 10
34.7837045890103
 20
398.0146788100602
 30
0.0
 10
35.4623108852105
 20
397.9428210467049
 30
0.0
 10
36.13291852962067
 20
397.8547943594866
 30
0.0
 10
36.7923614432346
 20
397.7507483967237
 30
0.0
 10
37.43738650678975
 20
397.6309554386272
 30
0.0
 10
38.06474372657868
 20
397.495814978351
 30
0.0
 10
38.67131289160271
 20
397.3458429913503
 30
0.0
 10
39.25422720078574
 20
397.1816385970168
 30
0.0
 10
39.81089519470978
 20
397.0038757646373
 30
0.0
 10
40.33900617581539
 20
396.8132602700185
 30
0.0
 10
40.83578908973347
 20
396.6109318473893
 30
0.0
 10
41.30155818800483
 20
396.396631479035
 30
0.0
 10
41.73728518563441
 20
396.16994941027
 30
0.0
 10
42.14366189214248
 20
395.9303506871579
 30
0.0
 10
42.51912043210137
 20
395.6783859987526
 30
0.0
 10
42.86212177778604
 20
395.4147324870245
 30
0.0
 10
43.17124596589517
 20
395.140140249993
 30
0.0
 10
43.44532187117284
 20
394.855308039739
 30
0.0
 10
43.68307313493847
 20
394.5611846192765
 30
0.0
 10
43.88451560357115
 20
394.257584891939
 30
0.0
 10
44.04562138203654
 20
393.9481576789318
 30
0.0
 10
44.1566169108341
 20
393.6745642203531
 30
0.0
 10
44.19459506413786
 20
393.5201085394383
 30
0.0
 10
44.20951179669979
 20
393.4581668813052
 30
0.0
  0
ELLIPSE
  5
78
330
5E
100
AcDbEntity
  8
$DDT_AUDIT_GENERATED_(77)
  6
Continuous
 62
     7
100
AcDbEllipse
 10
32.0553027415
 20
386.5452900821
 30
0.0
 11
10.05000000000001
 21
-6.938893903907228E-15
 31
0.0
210
0.0
220
0.0
230
1.0
 40
0.5
 41
0.0
 42
6.283185307179586
  0
ELLIPSE
  5
79
330
5E
100
AcDbEntity
  8
$DDT_AUDIT_GENERATED_(77)
  6
Continuous
 62
     7
100
AcDbEllipse
 10
32.0553027415
 20
393.9065060143
 30
0.0
 11
11.8
 21
0.0
 31
0.0
210
0.0
220
0.0
230
1.0
 40
0.5
 41
3.063416841422543
 42
3.141592653589793
  0
ELLIPSE
  5
7A
330
5E
100
AcDbEntity
  8
$DDT_AUDIT_GENERATED_(77)
  6
Continuous
 62
     7
100
AcDbEllipse
 10
32.0553027415
 20
393.9065060143
 30
0.0
 11
11.8
 21
0.0
 31
0.0
210
0.0
220
0.0
230
1.0
 40
0.5
 41
0.0
 42
0.0807930081136835
  0
LINE
  5
7B
330
5E
100
AcDbEntity
  8
$DDT_AUDIT_GENERATED_(77)
  6
Continuous
 62
     7
100
AcDbLine
 10
21.0553027415
 20
388.1135417977
 30
0.0
 11
21.0553027415
 21
385.5270383665
 31
0.0
  0
ELLIPSE
  5
7C
330
5E
100
AcDbEntity
  8
$DDT_AUDIT_GENERATED_(77)
  6
Continuous
 62
     7
100
AcDbEllipse
 10
32.0553027415
 20
389.1433662935
 30
0.0
 11
11.80000000000053
 21
6.938893903907228E-15
 31
0.0
210
0.0
220
0.0
230
1.0
 40
0.5
 41
2.771250021498084
 42
3.511935285681498
  0
LINE
  5
7D
330
5E
100
AcDbEntity
  8
$DDT_AUDIT_GENERATED_(77)
  6
Continuous
 62
     7
100
AcDbLine
 10
21.0553027415
 20
391.2787819439
 30
0.0
 11
21.0553027415
 21
389.7057057325
 31
0.0
  0
LINE
  5
7E
330
5E
100
AcDbEntity
  8
$DDT_AUDIT_GENERATED_(77)
  6
Continuous
 62
     7
100
AcDbLine
 10
21.0553027415
 20
389.7057057325
 30
0.0
 11
21.0553027415
 21
388.1135417977
 31
0.0
  0
LINE
  5
7F
330
5E
100
AcDbEntity
  8
$DDT_AUDIT_GENERATED_(77)
  6
Continuous
 62
     7
100
AcDbLine
 10
21.0553027415
 20
385.5270383665
 30
0.0
 11
21.0553027415
 21
385.1945730548
 31
0.0
  0
ELLIPSE
  5
80
330
5E
100
AcDbEntity
  8
$DDT_AUDIT_GENERATED_(77)
  6
Continuous
 62
     7
100
AcDbEllipse
 10
32.0553027415
 20
386.8202900821
 30
0.0
 11
11.29999999999998
 21
-6.938893903907228E-15
 31
0.0
210
0.0
220
0.0
230
1.0
 40
0.5
 41
4.28777925166874
 42
5.174512050515374
  0
LINE
  5
81
330
5E
100
AcDbEntity
  8
$DDT_AUDIT_GENERATED_(77)
  6
Continuous
 62
     7
100
AcDbLine
 10
43.0553027415
 20
385.5270383665
 30
0.0
 11
43.0553027415
 21
388.1135417977
 31
0.0
  0
ELLIPSE
  5
82
330
5E
100
AcDbEntity
  8
$DDT_AUDIT_GENERATED_(77)
  6
Continuous
 62
     7
100
AcDbEllipse
 10
32.0553027415
 20
389.1433662935
 30
0.0
 11
-11.80000000000041
 21
-2.775557561562892E-14
 31
0.0
210
0.0
220
0.0
230
1.0
 40
0.5
 41
2.771250021498081
 42
3.5119352856815
  0
LINE
  5
83
330
5E
100
AcDbEntity
  8
$DDT_AUDIT_GENERATED_(77)
  6
Continuous
 62
     7
100
AcDbLine
 10
43.0553027415
 20
385.1942706171
 30
0.0
 11
43.0553027415
 21
385.5270383665
 31
0.0
  0
LINE
  5
84
330
5E
100
AcDbEntity
  8
$DDT_AUDIT_GENERATED_(77)
  6
Continuous
 62
     7
100
AcDbLine
 10
43.0553027415
 20
388.1135417977
 30
0.0
 11
43.0553027415
 21
389.7057057325
 31
0.0
  0
LINE
  5
85
330
5E
100
AcDbEntity
  8
$DDT_AUDIT_GENERATED_(77)
  6
Continuous
 62
     7
100
AcDbLine
 10
43.0553027415
 20
389.7057057325
 30
0.0
 11
43.0553027415
 21
391.2787819439
 31
0.0
  0
ARC
  5
86
330
5E
100
AcDbEntity
  8
$DDT_AUDIT_GENERATED_(77)
  6
Continuous
 62
     7
100
AcDbCircle
 10
35.297072308
 20
391.7655857929
 30
0.0
 40
10.1617972138278
100
AcDbArc
 50
280.1677324374
 51
319.7537409128
  0
ARC
  5
87
330
5E
100
AcDbEntity
  8
$DDT_AUDIT_GENERATED_(77)
  6
Continuous
 62
     7
100
AcDbCircle
 10
28.999405341
 20
392.0205488746
 30
0.0
 40
10.46986928705598
100
AcDbArc
 50
220.6697152938
 51
261.1288333152
  0
LINE
  5
88
330
5E
100
AcDbEntity
  8
$DDT_AUDIT_GENERATED_(77)
  6
Continuous
 62
     7
100
AcDbLine
 10
20.2553027415
 20
393.9065060143
 30
0.0
 11
20.2553027415
 21
389.1433662935
 31
0.0
  0
LINE
  5
89
330
5E
100
AcDbEntity
  8
$DDT_AUDIT_GENERATED_(77)
  6
Continuous
 62
     7
100
AcDbLine
 10
43.8553027415
 20
389.1433662935
 30
0.0
 11
43.8553027415
 21
393.9065060143
 31
0.0
  0
ELLIPSE
  5
8B
330
5E
100
AcDbEntity
  8
$DDT_AUDIT_GENERATED_(8A)
  6
Continuous
 62
     7
100
AcDbEllipse
 10
32.0553027415
 20
388.7969561319
 30
0.0
 11
9.399999999997602
 21
4.787836793695988E-13
 31
0.0
210
0.0
220
0.0
230
1.0
 40
0.5
 41
5.990410788591026
 42
6.19285152088159
  0
ELLIPSE
  5
8C
330
5E
100
AcDbEntity
  8
$DDT_AUDIT_GENERATED_(8A)
  6
Continuous
 62
     7
100
AcDbEllipse
 10
32.0553027415
 20
388.4505459704
 30
0.0
 11
9.000000000000002
 21
0.0
 31
0.0
210
0.0
220
0.0
230
1.0
 40
0.5
 41
3.061574895527827
 42
3.141592653589793
  0
ELLIPSE
  5
8D
330
5E
100
AcDbEntity
  8
$DDT_AUDIT_GENERATED_(8A)
  6
Continuous
 62
     7
100
AcDbEllipse
 10
32.0553027415
 20
388.4505459704
 30
0.0
 11
9.000000000000002
 21
0.0
 31
0.0
210
0.0
220
0.0
230
1.0
 40
0.5
 41
0.0
 42
0.0800177580619665
  0
ELLIPSE
  5
8E
330
5E
100
AcDbEntity
  8
$DDT_AUDIT_GENERATED_(8A)
  6
Continuous
 62
     7
100
AcDbEllipse
 10
32.0553027415
 20
388.7969561319
 30
0.0
 11
-9.400000000001405
 21
-2.289834988289385E-13
 31
0.0
210
0.0
220
0.0
230
1.0
 40
0.5
 41
0.0903337862979665
 42
0.2927745185884699
  0
ELLIPSE
  5
8F
330
5E
100
AcDbEntity
  8
$DDT_AUDIT_GENERATED_(8A)
  6
Continuous
 62
     7
100
AcDbEllipse
 10
32.0553027415
 20
386.4586875417
 30
0.0
 11
9.0
 21
0.0
 31
0.0
210
0.0
220
0.0
230
1.0
 40
0.5
 41
3.141592653589793
 42
3.15513987767202
  0
ELLIPSE
  5
90
330
5E
100
AcDbEntity
  8
$DDT_AUDIT_GENERATED_(8A)
  6
Continuous
 62
     7
100
AcDbEllipse
 10
32.0553027415
 20
386.1988799206
 30
0.0
 11
-8.499999999999996
 21
0.0
 31
0.0
210
0.0
220
0.0
230
1.0
 40
0.5
 41
0.0
 42
6.283185307179586
  0
ELLIPSE
  5
91
330
5E
100
AcDbEntity
  8
$DDT_AUDIT_GENERATED_(8A)
  6
Continuous
 62
     7
100
AcDbEllipse
 10
32.0553027415
 20
387.3247129455
 30
0.0
 11
8.499999999991028
 21
5.481726184086711E-13
 31
0.0
210
0.0
220
0.0
230
1.0
 40
0.5
 41
-0.2512109546527634
 42
-0.165635825418879
  0
ARC
  5
92
330
5E
100
AcDbEntity
  8
$DDT_AUDIT_GENERATED_(8A)
  6
Continuous
 62
     7
100
AcDbCircle
 10
-2744.2862550229
 20
425.1464662087
 30
0.0
 40
2784.846156095094
100
AcDbArc
 50
359.1863050125
 51
359.2000888553
  0
ARC
  5
93
330
5E
100
AcDbEntity
  8
$DDT_AUDIT_GENERATED_(8A)
  6
Continuous
 62
     7
100
AcDbCircle
 10
40.1093963964
 20
385.5976699499
 30
0.0
 40
0.1696771216747826
100
AcDbArc
 50
337.6284640259
 51
0.2352856703
  0
LINE
  5
94
330
5E
100
AcDbEntity
  8
$DDT_AUDIT_GENERATED_(8A)
  6
Continuous
 62
     7
100
AcDbLine
 10
40.2650410458
 20
385.5307344851
 30
0.0
 11
40.2663028089
 21
385.533088967
 31
0.0
  0
SPLINE
  5
95
330
5E
100
AcDbEntity
  8
$DDT_AUDIT_GENERATED_(8A)
  6
Continuous
 62
     7
100
AcDbSpline
210
0.0
220
0.0
230
1.0
 70
     8
 71
     3
 72
    14
 73
    10
 74
     0
 42
0.0000003640513655
 43
0.0000000001
 40
0.0
 40
0.0
 40
0.0
 40
0.0
 40
0.0070120796757739
 40
0.0070120796757739
 40
0.0070120796757739
 40
0.2289786091645617
 40
0.2289786091645617
 40
0.2289786091645617
 40
0.3545662394289
 40
0.3545662394289
 40
0.3545662394289
 40
0.3545662394289
 10
40.26504104584293
 20
385.5307344850865
 30
0.0
 10
40.26499462389059
 20
385.530647959803
 30
0.0
 10
40.26494819579581
 20
385.5305622680488
 30
0.0
 10
40.2649017655837
 20
385.5304774172512
 30
0.0
 10
40.26345157829325
 20
385.5278272129393
 30
0.0
 10
40.26197845501837
 20
385.5259829049721
 30
0.0
 10
40.26060530278965
 20
385.5250970914154
 30
0.0
 10
40.25982837943072
 20
385.5245959020866
 30
0.0
 10
40.25907136109419
 20
385.524393725107
 30
0.0
 10
40.25835431682701
 20
385.5244897812553
 30
0.0
  0
ELLIPSE
  5
96
330
5E
100
AcDbEntity
  8
$DDT_AUDIT_GENERATED_(8A)
  6
Continuous
 62
     7
100
AcDbEllipse
 10
32.0553027415
 20
387.3247129455
 30
0.0
 11
8.499999999997209
 21
1.214306433183765E-12
 31
0.0
210
0.0
220
0.0
230
1.0
 40
0.5
 41
-0.5130103424519037
 42
-0.421854544904499
  0
ARC
  5
97
330
5E
100
AcDbEntity
  8
$DDT_AUDIT_GENERATED_(8A)
  6
Continuous
 62
     7
100
AcDbCircle
 10
-3032.2704093052
 20
470.1499947793
 30
0.0
 40
3072.904881824319
100
AcDbArc
 50
358.4041277775
 51
358.4165887261
  0
ARC
  5
98
330
5E
100
AcDbEntity
  8
$DDT_AUDIT_GENERATED_(8A)
  6
Continuous
 62
     7
100
AcDbCircle
 10
39.347568508
 20
384.5719992764
 30
0.0
 40
0.0950061997039411
100
AcDbArc
 50
317.6096573234
 51
359.2471626133
  0
LINE
  5
99
330
5E
100
AcDbEntity
  8
$DDT_AUDIT_GENERATED_(8A)
  6
Continuous
 62
     7
100
AcDbLine
 10
39.4152996015
 20
384.5058372245
 30
0.0
 11
39.4177371405
 21
384.5079481952
 31
0.0
  0
SPLINE
  5
9A
330
5E
100
AcDbEntity
  8
$DDT_AUDIT_GENERATED_(8A)
  6
Continuous
 62
     7
100
AcDbSpline
210
0.0
220
0.0
230
1.0
 70
     8
 71
     3
 72
    14
 73
    10
 74
     0
 42
0.000000250219212
 43
0.0000000001
 40
0.0
 40
0.0
 40
0.0
 40
0.0
 40
0.0070120796761539
 40
0.0070120796761539
 40
0.0070120796761539
 40
0.2289786091648919
 40
0.2289786091648919
 40
0.2289786091648919
 40
0.3872645624607861
 40
0.3872645624607861
 40
0.3872645624607861
 40
0.3872645624607861
 10
39.41529960148258
 20
384.505837224508
 30
0.0
 10
39.41520997253738
 20
384.5057596549446
 30
0.0
 10
39.41512033739192
 20
384.5056829197231
 30
0.0
 10
39.41503070381621
 20
384.5056070254942
 30
0.0
 10
39.41223111565211
 20
384.5032365679588
 30
0.0
 10
39.40939307007374
 20
384.5016760480651
 30
0.0
 10
39.40675240791658
 20
384.5010544488528
 30
0.0
 10
39.4048693319303
 20
384.5006111817931
 30
0.0
 10
39.40304963004002
 20
384.5006366469423
 30
0.0
 10
39.40136958392697
 20
384.5011216179626
 30
0.0
  0
ELLIPSE
  5
9B
330
5E
100
AcDbEntity
  8
$DDT_AUDIT_GENERATED_(8A)
  6
Continuous
 62
     7
100
AcDbEllipse
 10
32.0553027415
 20
387.3247129455
 30
0.0
 11
8.499999999994438
 21
2.171873791922962E-12
 31
0.0
210
0.0
220
0.0
230
1.0
 40
0.5
 41
-0.7748097302512642
 42
-0.6673374975647901
  0
SPLINE
  5
9C
330
5E
100
AcDbEntity
  8
$DDT_AUDIT_GENERATED_(8A)
  6
Continuous
 62
     7
100
AcDbSpline
210
0.0
220
0.0
230
1.0
 70
    12
 71
     2
 72
     6
 73
     3
 74
     0
 42
0.0000000150236264
 43
0.0000000001
 40
0.0
 40
0.0
 40
0.0
 40
1.0
 40
1.0
 40
1.0
 10
38.10263110816049
 20
383.6864021750457
 30
0.0
 41
1.0
 10
38.11585177640696
 20
384.0189412264025
 30
0.0
 41
1.0
 10
38.12901306686709
 20
384.3514973931373
 30
0.0
 41
1.0
  0
ARC
  5
9D
330
5E
100
AcDbEntity
  8
$DDT_AUDIT_GENERATED_(8A)
  6
Continuous
 62
     7
100
AcDbCircle
 10
38.0297749344
 20
383.6900243779
 30
0.0
 40
0.0729461610267386
100
AcDbArc
 50
301.0813595863
 51
357.1537594786
  0
LINE
  5
9E
330
5E
100
AcDbEntity
  8
$DDT_AUDIT_GENERATED_(8A)
  6
Continuous
 62
     7
100
AcDbLine
 10
38.0639865341
 20
383.6258271258
 30
0.0
 11
38.0674337348
 21
383.6275507262
 31
0.0
  0
SPLINE
  5
9F
330
5E
100
AcDbEntity
  8
$DDT_AUDIT_GENERATED_(8A)
  6
Continuous
 62
     7
100
AcDbSpline
210
0.0
220
0.0
230
1.0
 70
     8
 71
     3
 72
    14
 73
    10
 74
     0
 42
0.0000001917789071
 43
0.0000000001
 40
0.0
 40
0.0
 40
0.0
 40
0.0
 40
0.0070120796774397
 40
0.0070120796774397
 40
0.0070120796774397
 40
0.2289786091659645
 40
0.2289786091659645
 40
0.2289786091659645
 40
0.4504574482659619
 40
0.4504574482659619
 40
0.4504574482659619
 40
0.4504574482659619
 10
38.06398653408439
 20
383.6258271258288
 30
0.0
 10
38.0638598062108
 20
383.6257637982232
 30
0.0
 10
38.06373307250169
 20
383.6257013057518
 30
0.0
 10
38.06360634394242
 20
383.6256396538305
 30
0.0
 10
38.0596481422115
 20
383.6237140362541
 30
0.0
 10
38.05563858244571
 20
383.6226042685335
 30
0.0
 10
38.05191036712225
 20
383.6224019086346
 30
0.0
 10
38.04819034217083
 20
383.6221999932925
 30
0.0
 10
38.04464810960114
 20
383.6228959150257
 30
0.0
 10
38.04157730041463
 20
383.6244313138562
 30
0.0
  0
ELLIPSE
  5
A0
330
5E
100
AcDbEntity
  8
$DDT_AUDIT_GENERATED_(8A)
  6
Continuous
 62
     7
100
AcDbEllipse
 10
32.0553027415
 20
387.3247129455
 30
0.0
 11
8.500000000015124
 21
-7.834011217511261E-12
 31
0.0
210
0.0
220
0.0
230
1.0
 40
0.5
 41
-1.036609118048791
 42
-0.9033246102043808
  0
SPLINE
  5
A1
330
5E
100
AcDbEntity
  8
$DDT_AUDIT_GENERATED_(8A)
  6
Continuous
 62
     7
100
AcDbSpline
210
0.0
220
0.0
230
1.0
 70
    12
 71
     2
 72
     6
 73
     3
 74
     0
 42
0.0000000151053135
 43
0.0000000001
 40
0.0
 40
0.0
 40
0.0
 40
1.0
 40
1.0
 40
1.0
 10
36.3505802752357
 20
383.0055872258713
 30
0.0
 41
1.0
 10
36.36681465141483
 20
383.3361873621455
 30
0.0
 41
1.0
 10
36.38300678587104
 20
383.6668113030289
 30
0.0
 41
1.0
  0
ARC
  5
A2
330
5E
100
AcDbEntity
  8
$DDT_AUDIT_GENERATED_(8A)
  6
Continuous
 62
     7
100
AcDbCircle
 10
36.2884796077
 20
383.0113147602
 30
0.0
 40
0.0623642330164715
100
AcDbArc
 50
287.6740996811
 51
354.7305272997
  0
LINE
  5
A3
330
5E
100
AcDbEntity
  8
$DDT_AUDIT_GENERATED_(8A)
  6
Continuous
 62
     7
100
AcDbLine
 10
36.303191596
 20
382.950675423
 30
0.0
 11
36.3074135375
 21
382.9518941925
 31
0.0
  0
SPLINE
  5
A4
330
5E
100
AcDbEntity
  8
$DDT_AUDIT_GENERATED_(8A)
  6
Continuous
 62
     7
100
AcDbSpline
210
0.0
220
0.0
230
1.0
 70
     8
 71
     3
 72
    17
 73
    13
 74
     0
 42
0.0000001617731423
 43
0.0000000001
 40
0.0
 40
0.0
 40
0.0
 40
0.0
 40
0.0070120796770373
 40
0.0070120796770373
 40
0.0070120796770373
 40
0.2289786091655983
 40
0.2289786091655983
 40
0.2289786091655983
 40
0.4509454601540501
 40
0.4509454601540501
 40
0.4509454601540501
 40
0.5638680328149482
 40
0.5638680328149482
 40
0.5638680328149482
 40
0.5638680328149482
 10
36.30319159604126
 20
382.9506754229887
 30
0.0
 10
36.30303640553446
 20
382.9506306530126
 30
0.0
 10
36.30288120995455
 20
382.9505867188887
 30
0.0
 10
36.30272602275363
 20
382.9505436244245
 30
0.0
 10
36.29787895236263
 20
382.9491976248813
 30
0.0
 10
36.29297112328135
 20
382.9486748554176
 30
0.0
 10
36.28840942650469
 20
382.9490181893351
 30
0.0
 10
36.28384772187049
 20
382.9493615238441
 30
0.0
 10
36.27950637657065
 20
382.9505803959539
 30
0.0
 10
36.27574604284382
 20
382.9525728619999
 30
0.0
 10
36.27383302562411
 20
382.9535865012492
 30
0.0
 10
36.27204355570403
 20
382.9548145645821
 30
0.0
 10
36.27041360320336
 20
382.9562261430229
 30
0.0
  0
ELLIPSE
  5
A5
330
5E
100
AcDbEntity
  8
$DDT_AUDIT_GENERATED_(8A)
  6
Continuous
 62
     7
100
AcDbEllipse
 10
32.0553027415
 20
387.3247129455
 30
0.0
 11
8.499999999996646
 21
1.221245327087672E-12
 31
0.0
210
0.0
220
0.0
230
1.0
 40
0.5
 41
-1.158453268198708
 42
-1.131780768048385
  0
LINE
  5
A6
330
5E
100
AcDbEntity
  8
$DDT_AUDIT_GENERATED_(8A)
  6
Continuous
 62
     7
100
AcDbLine
 10
34.3058133767
 20
382.5747025453
 30
0.0
 11
34.3379036044
 21
383.1558666507
 31
0.0
  0
ARC
  5
A7
330
5E
100
AcDbEntity
  8
$DDT_AUDIT_GENERATED_(8A)
  6
Continuous
 62
     7
100
AcDbCircle
 10
34.2513940789
 20
382.5815128277
 30
0.0
 40
0.0548437773243486
100
AcDbArc
 50
276.5172922201
 51
352.8668251274
  0
LINE
  5
A8
330
5E
100
AcDbEntity
  8
$DDT_AUDIT_GENERATED_(8A)
  6
Continuous
 62
     7
100
AcDbLine
 10
34.2529100525
 20
382.5263925888
 30
0.0
 11
34.2576190163
 21
382.5270234703
 31
0.0
  0
SPLINE
  5
A9
330
5E
100
AcDbEntity
  8
$DDT_AUDIT_GENERATED_(8A)
  6
Continuous
 62
     7
100
AcDbSpline
210
0.0
220
0.0
230
1.0
 70
     8
 71
     3
 72
    20
 73
    16
 74
     0
 42
0.0000001463538621
 43
0.0000000001
 40
0.0
 40
0.0
 40
0.0
 40
0.0
 40
0.0070120796767459
 40
0.0070120796767459
 40
0.0070120796767459
 40
0.2289786091653502
 40
0.2289786091653502
 40
0.2289786091653502
 40
0.4509454601539017
 40
0.4509454601539017
 40
0.4509454601539017
 40
0.6729159155857642
 40
0.6729159155857642
 40
0.6729159155857642
 40
0.7558547725261445
 40
0.7558547725261445
 40
0.7558547725261445
 40
0.7558547725261445
 10
34.25291005252954
 20
382.5263925887953
 30
0.0
 10
34.2527369753661
 20
382.5263694274486
 30
0.0
 10
34.2525638942377
 20
382.5263471025489
 30
0.0
 10
34.25239082414642
 20
382.5263256160308
 30
0.0
 10
34.24698520493232
 20
382.5256545125845
 30
0.0
 10
34.24151356697686
 20
382.5258149845002
 30
0.0
 10
34.23642926084377
 20
382.5267932786052
 30
0.0
 10
34.23134494595296
 20
382.5277715743953
 30
0.0
 10
34.2265077558573
 20
382.5295946350596
 30
0.0
 10
34.22231884091747
 20
382.5321103703261
 30
0.0
 10
34.21812985943852
 20
382.5346261455539
 30
0.0
 10
34.21447366957486
 20
382.5379039439553
 30
0.0
 10
34.21165372951446
 20
382.5416710440787
 30
0.0
 10
34.21060006451805
 20
382.5430786135493
 30
0.0
 10
34.20965229631116
 20
382.5445689943459
 30
0.0
 10
34.20881935566442
 20
382.546123303761
 30
0.0
  0
LINE
  5
AA
330
5E
100
AcDbEntity
  8
$DDT_AUDIT_GENERATED_(8A)
  6
Continuous
 62
     7
100
AcDbLine
 10
32.1076778975
 20
382.4231122123
 30
0.0
 11
32.1380409717
 21
382.9491432354
 31
0.0
  0
SPLINE
  5
AB
330
5E
100
AcDbEntity
  8
$DDT_AUDIT_GENERATED_(8A)
  6
Continuous
 62
     7
100
AcDbSpline
210
0.0
220
0.0
230
1.0
 70
     8
 71
     3
 72
    20
 73
    16
 74
     0
 42
0.0000001397604524
 43
0.0000000001
 40
0.0
 40
0.0
 40
0.0
 40
0.0
 40
0.1197787819760869
 40
0.1197787819760869
 40
0.1197787819760869
 40
0.341582394685508
 40
0.341582394685508
 40
0.341582394685508
 40
0.5633889206156122
 40
0.5633889206156122
 40
0.5633889206156122
 40
0.7851985958904553
 40
0.7851985958904553
 40
0.7851985958904553
 40
1.0
 40
1.0
 40
1.0
 40
1.0
 10
32.10767789746581
 20
382.4231122122843
 30
0.0
 10
32.10752652974939
 20
382.4204899802745
 30
0.0
 10
32.10709696919834
 20
382.4178681339346
 30
0.0
 10
32.10639980736394
 20
382.4153113758712
 30
0.0
 10
32.10511270586973
 20
382.4105910843099
 30
0.0
 10
32.10286760611443
 20
382.4059954237101
 30
0.0
 10
32.09985042687089
 20
382.401905918705
 30
0.0
 10
32.09683320832302
 20
382.3978163604267
 30
0.0
 10
32.09296067354732
 20
382.3941202356938
 30
0.0
 10
32.08855349624714
 20
382.3911249548061
 30
0.0
 10
32.08414625870372
 20
382.3881296329748
 30
0.0
 10
32.07908280446517
 20
382.3857526228437
 30
0.0
 10
32.07378243695671
 20
382.3841919030261
 30
0.0
 10
32.0686494658022
 20
382.3826804739052
 30
0.0
 10
32.06315977846811
 20
382.3818935743112
 30
0.0
 10
32.05774028051674
 20
382.3818927972383
 30
0.0
  0
LINE
  5
AC
330
5E
100
AcDbEntity
  8
$DDT_AUDIT_GENERATED_(8A)
  6
Continuous
 62
     7
100
AcDbLine
 10
32.0528652025
 20
382.3818927972
 30
0.0
 11
32.0577402805
 21
382.3818927972
 31
0.0
  0
SPLINE
  5
AD
330
5E
100
AcDbEntity
  8
$DDT_AUDIT_GENERATED_(8A)
  6
Continuous
 62
     7
100
AcDbSpline
210
0.0
220
0.0
230
1.0
 70
     8
 71
     3
 72
    23
 73
    19
 74
     0
 42
0.000000139754745
 43
0.0000000001
 40
0.0
 40
0.0
 40
0.0
 40
0.0
 40
0.0070120796727942
 40
0.0070120796727942
 40
0.0070120796727942
 40
0.2289786091621973
 40
0.2289786091621973
 40
0.2289786091621973
 40
0.4509454601515061
 40
0.4509454601515061
 40
0.4509454601515061
 40
0.6729159155841574
 40
0.6729159155841574
 40
0.6729159155841574
 40
0.8948877460492728
 40
0.8948877460492728
 40
0.8948877460492728
 40
1.0
 40
1.0
 40
1.0
 40
1.0
 10
32.05286520248925
 20
382.3818927972383
 30
0.0
 10
32.05268603359194
 20
382.3818928229284
 30
0.0
 10
32.052506862108
 20
382.3818936854968
 30
0.0
 10
32.05232770356716
 20
382.3818953848684
 30
0.0
 10
32.04673191954619
 20
382.3819484625284
 30
0.0
 10
32.04106935580092
 20
382.3828418571754
 30
0.0
 10
32.03580892737216
 20
382.3845011063514
 30
0.0
 10
32.0305484898823
 20
382.3861603583853
 30
0.0
 10
32.02554510150201
 20
382.3886311874167
 30
0.0
 10
32.02121307297985
 20
382.3917078244274
 30
0.0
 10
32.01688097564523
 20
382.3947845103093
 30
0.0
 10
32.01310077503005
 20
382.3985518184004
 30
0.0
 10
32.01018550455792
 20
382.4026964459192
 30
0.0
 10
32.0072702173495
 20
382.406841097232
 30
0.0
 10
32.00513946346359
 20
382.4114773322718
 30
0.0
 10
32.00396970275001
 20
382.4162202864911
 30
0.0
 10
32.00341073755822
 20
382.4184866870327
 30
0.0
 10
32.00306112565512
 20
382.4207988182903
 30
0.0
 10
32.00292758554453
 20
382.4231122122837
 30
0.0
  0
LINE
  5
AE
330
5E
100
AcDbEntity
  8
$DDT_AUDIT_GENERATED_(8A)
  6
Continuous
 62
     7
100
AcDbLine
 10
31.9725645105
 20
382.9491432495
 30
0.0
 11
32.0029275855
 21
382.4231122123
 31
0.0
  0
SPLINE
  5
AF
330
5E
100
AcDbEntity
  8
$DDT_AUDIT_GENERATED_(8A)
  6
Continuous
 62
     7
100
AcDbSpline
210
0.0
220
0.0
230
1.0
 70
     8
 71
     3
 72
    17
 73
    13
 74
     0
 42
0.0000001462810728
 43
0.0000000001
 40
0.2444274523841761
 40
0.2444274523841761
 40
0.2444274523841761
 40
0.2444274523841761
 40
0.341582394686448
 40
0.341582394686448
 40
0.341582394686448
 40
0.5633889206170749
 40
0.5633889206170749
 40
0.5633889206170749
 40
0.7851985958924328
 40
0.7851985958924328
 40
0.7851985958924328
 40
1.0
 40
1.0
 40
1.0
 40
1.0
 10
29.90179109652579
 20
382.5461335593751
 30
0.0
 10
29.90081432514419
 20
382.5443108645314
 30
0.0
 10
29.89967918391382
 20
382.5425744234908
 30
0.0
 10
29.89840083139761
 20
382.540954273443
 30
0.0
 10
29.89548232932899
 20
382.5372554413867
 30
0.0
 10
29.89173692202239
 20
382.5340607772046
 30
0.0
 10
29.88747545351261
 20
382.5316361207526
 30
0.0
 10
29.88321392675132
 20
382.5292114311571
 30
0.0
 10
29.8783188167991
 20
382.5274899559501
 30
0.0
 10
29.87319607244298
 20
382.5266153504874
 30
0.0
 10
29.86823511474153
 20
382.5257683668387
 30
0.0
 10
29.86293066575536
 20
382.5256920047476
 30
0.0
 10
29.85769543047617
 20
382.5263925887951
 30
0.0
  0
LINE
  5
B0
330
5E
100
AcDbEntity
  8
$DDT_AUDIT_GENERATED_(8A)
  6
Continuous
 62
     7
100
AcDbLine
 10
29.8529864667
 20
382.5270234703
 30
0.0
 11
29.8576954305
 21
382.5263925888
 31
0.0
  0
ARC
  5
B1
330
5E
100
AcDbEntity
  8
$DDT_AUDIT_GENERATED_(8A)
  6
Continuous
 62
     7
100
AcDbCircle
 10
29.8591538906
 20
382.5814546926
 30
0.0
 40
0.0547795132916399
100
AcDbArc
 50
187.0803098597
 51
263.5355727894
  0
LINE
  5
B2
330
5E
100
AcDbEntity
  8
$DDT_AUDIT_GENERATED_(8A)
  6
Continuous
 62
     7
100
AcDbLine
 10
29.7727018786
 20
383.1558666507
 30
0.0
 11
29.8047921063
 21
382.5747025453
 31
0.0
  0
ELLIPSE
  5
B3
330
5E
100
AcDbEntity
  8
$DDT_AUDIT_GENERATED_(8A)
  6
Continuous
 62
     7
100
AcDbEllipse
 10
32.0553027415
 20
387.3247129455
 30
0.0
 11
-8.500000000010287
 21
-4.177214130152151E-12
 31
0.0
210
0.0
220
0.0
230
1.0
 40
0.5
 41
1.131780768047581
 42
1.15845326819794
  0
SPLINE
  5
B4
330
5E
100
AcDbEntity
  8
$DDT_AUDIT_GENERATED_(8A)
  6
Continuous
 62
     7
100
AcDbSpline
210
0.0
220
0.0
230
1.0
 70
     8
 71
     3
 72
    14
 73
    10
 74
     0
 42
0.0000001616983551
 43
0.0000000001
 40
0.4362600050228856
 40
0.4362600050228856
 40
0.4362600050228856
 40
0.4362600050228856
 40
0.5633889206172874
 40
0.5633889206172874
 40
0.5633889206172874
 40
0.7851985958927168
 40
0.7851985958927168
 40
0.7851985958927168
 40
1.0
 40
1.0
 40
1.0
 40
1.0
 10
27.84020047834542
 20
382.956233314054
 30
0.0
 10
27.83836440057636
 20
382.9546432385899
 30
0.0
 10
27.83632376468904
 20
382.9532845376422
 30
0.0
 10
27.83413125795078
 20
382.9521999434308
 30
0.0
 10
27.8303058579779
 20
382.9503075858864
 30
0.0
 10
27.82591268596572
 20
382.9491975234388
 30
0.0
 10
27.82131667132407
 20
382.9489626674239
 30
0.0
 10
27.81686580814461
 20
382.9487352286381
 30
0.0
 10
27.81210808693868
 20
382.9493212214654
 30
0.0
 10
27.80741388696426
 20
382.9506754229884
 30
0.0
  0
LINE
  5
B5
330
5E
100
AcDbEntity
  8
$DDT_AUDIT_GENERATED_(8A)
  6
Continuous
 62
     7
100
AcDbLine
 10
27.8031919455
 20
382.9518941925
 30
0.0
 11
27.807413887
 21
382.950675423
 31
0.0
  0
ARC
  5
B6
330
5E
100
AcDbEntity
  8
$DDT_AUDIT_GENERATED_(8A)
  6
Continuous
 62
     7
100
AcDbCircle
 10
27.8220827627
 20
383.0112800996
 30
0.0
 40
0.0623181268611876
100
AcDbArc
 50
185.2413805378
 51
252.3539924785
  0
SPLINE
  5
B7
330
5E
100
AcDbEntity
  8
$DDT_AUDIT_GENERATED_(8A)
  6
Continuous
 62
     7
100
AcDbSpline
210
0.0
220
0.0
230
1.0
 70
    12
 71
     2
 72
     6
 73
     3
 74
     0
 42
0.0000000151053135
 43
0.0000000001
 40
0.0
 40
0.0
 40
0.0
 40
1.0
 40
1.0
 40
1.0
 10
27.72759869713317
 20
383.6668113030289
 30
0.0
 41
1.0
 10
27.74379083158936
 20
383.3361873621457
 30
0.0
 41
1.0
 10
27.76002520776855
 20
383.0055872258706
 30
0.0
 41
1.0
  0
ELLIPSE
  5
B8
330
5E
100
AcDbEntity
  8
$DDT_AUDIT_GENERATED_(8A)
  6
Continuous
 62
     7
100
AcDbEllipse
 10
32.0553027415
 20
387.3247129455
 30
0.0
 11
-8.500000000015177
 21
-7.327471962526033E-12
 31
0.0
210
0.0
220
0.0
230
1.0
 40
0.5
 41
0.903324610204304
 42
1.036609118048807
  0
SPLINE
  5
B9
330
5E
100
AcDbEntity
  8
$DDT_AUDIT_GENERATED_(8A)
  6
Continuous
 62
     7
100
AcDbSpline
210
0.0
220
0.0
230
1.0
 70
     8
 71
     3
 72
    14
 73
    10
 74
     0
 42
0.0000001917820286
 43
0.0000000001
 40
0.550024551002849
 40
0.550024551002849
 40
0.550024551002849
 40
0.550024551002849
 40
0.5633889206180454
 40
0.5633889206180454
 40
0.5633889206180454
 40
0.7851985958937638
 40
0.7851985958937638
 40
0.7851985958937638
 40
1.0
 40
1.0
 40
1.0
 40
1.0
 10
26.06901427150475
 20
383.6244246515924
 30
0.0
 10
26.0688285577409
 20
383.6243317972605
 30
0.0
 10
26.06864142488027
 20
383.6242421304073
 30
0.0
 10
26.06845292317719
 20
383.6241556933395
 30
0.0
 10
26.06532434467911
 20
383.6227210901121
 30
0.0
 10
26.06173249801952
 20
383.6221366514903
 30
0.0
 10
26.05797642389489
 20
383.6224515821484
 30
0.0
 10
26.05433897420772
 20
383.6227565666577
 30
0.0
 10
26.05045221161974
 20
383.6239115934259
 30
0.0
 10
26.04661894892082
 20
383.6258271258283
 30
0.0
  0
LINE
  5
BA
330
5E
100
AcDbEntity
  8
$DDT_AUDIT_GENERATED_(8A)
  6
Continuous
 62
     7
100
AcDbLine
 10
26.0431717482
 20
383.6275507262
 30
0.0
 11
26.0466189489
 21
383.6258271258
 31
0.0
  0
ARC
  5
BB
330
5E
100
AcDbEntity
  8
$DDT_AUDIT_GENERATED_(8A)
  6
Continuous
 62
     7
100
AcDbCircle
 10
26.0808349317
 20
383.6900269993
 30
0.0
 40
0.0729506689256249
100
AcDbArc
 50
182.8481259053
 51
238.9167550274
  0
SPLINE
  5
BC
330
5E
100
AcDbEntity
  8
$DDT_AUDIT_GENERATED_(8A)
  6
Continuous
 62
     7
100
AcDbSpline
210
0.0
220
0.0
230
1.0
 70
    12
 71
     2
 72
     6
 73
     3
 74
     0
 42
0.0000000150236264
 43
0.0000000001
 40
0.0
 40
0.0
 40
0.0
 40
1.0
 40
1.0
 40
1.0
 10
25.98159241613712
 20
384.3514973931373
 30
0.0
 41
1.0
 10
25.99475370659723
 20
384.0189412264031
 30
0.0
 41
1.0
 10
26.00797437484375
 20
383.686402175045
 30
0.0
 41
1.0
  0
ELLIPSE
  5
BD
330
5E
100
AcDbEntity
  8
$DDT_AUDIT_GENERATED_(8A)
  6
Continuous
 62
     7
100
AcDbEllipse
 10
32.0553027415
 20
387.3247129455
 30
0.0
 11
-8.499999999998717
 21
4.579669976578771E-13
 31
0.0
210
0.0
220
0.0
230
1.0
 40
0.5
 41
0.6673374975644627
 42
0.7748097302509674
  0
SPLINE
  5
BE
330
5E
100
AcDbEntity
  8
$DDT_AUDIT_GENERATED_(8A)
  6
Continuous
 62
     7
100
AcDbSpline
210
0.0
220
0.0
230
1.0
 70
     8
 71
     3
 72
    11
 73
     7
 74
     0
 42
0.0000002500388133
 43
0.0000000001
 40
0.6128483256096489
 40
0.6128483256096489
 40
0.6128483256096489
 40
0.6128483256096489
 40
0.7851985958935036
 40
0.7851985958935036
 40
0.7851985958935036
 40
1.0
 40
1.0
 40
1.0
 40
1.0
 10
24.70923797889699
 20
384.5011212289443
 30
0.0
 10
24.70740896514608
 20
384.5005932415521
 30
0.0
 10
24.70541105069578
 20
384.5006120519221
 30
0.0
 10
24.7033440539605
 20
384.5011849381153
 30
0.0
 10
24.7007679039506
 20
384.5018989405841
 30
0.0
 10
24.6980169764277
 20
384.503490901593
 30
0.0
 10
24.69530588152243
 20
384.5058372245073
 30
0.0
  0
LINE
  5
BF
330
5E
100
AcDbEntity
  8
$DDT_AUDIT_GENERATED_(8A)
  6
Continuous
 62
     7
100
AcDbLine
 10
24.6928683425
 20
384.5079481952
 30
0.0
 11
24.6953058815
 21
384.5058372245
 31
0.0
  0
ARC
  5
C0
330
5E
100
AcDbEntity
  8
$DDT_AUDIT_GENERATED_(8A)
  6
Continuous
 62
     7
100
AcDbCircle
 10
24.7631449506
 20
384.572041965
 30
0.0
 40
0.0951147358055747
100
AcDbArc
 50
180.7776955951
 51
222.3654844664
  0
ARC
  5
C1
330
5E
100
AcDbEntity
  8
$DDT_AUDIT_GENERATED_(8A)
  6
Continuous
 62
     7
100
AcDbCircle
 10
3096.3810149032
 20
470.1499947825
 30
0.0
 40
3072.904881938652
100
AcDbArc
 50
181.5834112739
 51
181.5958722225
  0
ELLIPSE
  5
C2
330
5E
100
AcDbEntity
  8
$DDT_AUDIT_GENERATED_(8A)
  6
Continuous
 62
     7
100
AcDbEllipse
 10
32.0553027415
 20
387.3247129455
 30
0.0
 11
-8.499999999999728
 21
2.151057110211241E-13
 31
0.0
210
0.0
220
0.0
230
1.0
 40
0.5
 41
0.4218545449043121
 42
0.5130103424517559
  0
SPLINE
  5
C3
330
5E
100
AcDbEntity
  8
$DDT_AUDIT_GENERATED_(8A)
  6
Continuous
 62
     7
100
AcDbSpline
210
0.0
220
0.0
230
1.0
 70
     8
 71
     3
 72
    11
 73
     7
 74
     0
 42
0.0000003638128046
 43
0.0000000001
 40
0.6454242730276406
 40
0.6454242730276406
 40
0.6454242730276406
 40
0.6454242730276406
 40
0.7851985958932509
 40
0.7851985958932509
 40
0.7851985958932509
 40
1.0
 40
1.0
 40
1.0
 40
1.0
 10
23.85225425556719
 20
385.5244897092115
 30
0.0
 10
23.85145592267394
 20
385.5243827699834
 30
0.0
 10
23.8506070014262
 20
385.5246461925438
 30
0.0
 10
23.84973551889587
 20
385.5252785092911
 30
0.0
 10
23.84839622892912
 20
385.5262502504859
 30
0.0
 10
23.84696860763588
 20
385.5281172696888
 30
0.0
 10
23.84556443716175
 20
385.5307344850858
 30
0.0
  0
LINE
  5
C4
330
5E
100
AcDbEntity
  8
$DDT_AUDIT_GENERATED_(8A)
  6
Continuous
 62
     7
100
AcDbLine
 10
23.8443026741
 20
385.533088967
 30
0.0
 11
23.8455644372
 21
385.5307344851
 31
0.0
  0
ARC
  5
C5
330
5E
100
AcDbEntity
  8
$DDT_AUDIT_GENERATED_(8A)
  6
Continuous
 62
     7
100
AcDbCircle
 10
24.0015990383
 20
385.5977462301
 30
0.0
 40
0.1700667747449868
100
AcDbArc
 50
179.7909525439
 51
202.3452977591
  0
ARC
  5
C6
330
5E
100
AcDbEntity
  8
$DDT_AUDIT_GENERATED_(8A)
  6
Continuous
 62
     7
100
AcDbCircle
 10
2808.3968606556
 20
425.1464662108
 30
0.0
 40
2784.846156245085
100
AcDbArc
 50
180.7999111447
 51
180.8136949875
  0
ELLIPSE
  5
C7
330
5E
100
AcDbEntity
  8
$DDT_AUDIT_GENERATED_(8A)
  6
Continuous
 62
     7
100
AcDbEllipse
 10
32.0553027415
 20
387.3247129455
 30
0.0
 11
-8.49999999999249
 21
6.661338147750939E-13
 31
0.0
210
0.0
220
0.0
230
1.0
 40
0.5
 41
0.1656358254189117
 42
0.2512109546527299
  0
LINE
  5
C8
330
5E
100
AcDbEntity
  8
$DDT_AUDIT_GENERATED_(8A)
  6
Continuous
 62
     7
100
AcDbLine
 10
25.5378428126
 20
386.630673853
 30
0.0
 11
25.5378428126
 21
386.633111392
 31
0.0
  0
LINE
  5
C9
330
5E
100
AcDbEntity
  8
$DDT_AUDIT_GENERATED_(8A)
  6
Continuous
 62
     7
100
AcDbLine
 10
25.6905576587
 20
385.5393308263
 30
0.0
 11
24.6494994565
 21
385.2388032097
 31
0.0
  0
LINE
  5
CA
330
5E
100
AcDbEntity
  8
$DDT_AUDIT_GENERATED_(8A)
  6
Continuous
 62
     7
100
AcDbLine
 10
38.1290130669
 20
384.3514973931
 30
0.0
 11
37.6843873924
 21
384.5738102304
 31
0.0
  0
SPLINE
  5
CB
330
5E
100
AcDbEntity
  8
$DDT_AUDIT_GENERATED_(8A)
  6
Continuous
 62
     7
100
AcDbSpline
210
0.0
220
0.0
230
1.0
 70
     8
 71
     3
 72
    11
 73
     7
 74
     0
 42
0.0000005100223451
 43
0.0000000001
 40
0.0
 40
0.0
 40
0.0
 40
0.0
 40
0.1706131457991431
 40
0.1706131457991431
 40
0.1706131457991431
 40
0.3447787998395975
 40
0.3447787998395975
 40
0.3447787998395975
 40
0.3447787998395975
 10
25.53784281257774
 20
386.6306738529786
 30
0.0
 10
25.53784442457476
 20
386.6285187847051
 30
0.0
 10
25.53783067724458
 20
386.6268366810302
 30
0.0
 10
25.53780183459313
 20
386.6257108959484
 30
0.0
 10
25.53777241396561
 20
386.6245625513305
 30
0.0
 10
25.53772653955763
 20
386.6239774210293
 30
0.0
 10
25.53766549760777
 20
386.6239774295529
 30
0.0
  0
LINE
  5
CC
330
5E
100
AcDbEntity
  8
$DDT_AUDIT_GENERATED_(8A)
  6
Continuous
 62
     7
100
AcDbLine
 10
27.8097224372
 20
383.7379325482
 30
0.0
 11
27.7275986971
 21
383.666811303
 31
0.0
  0
LINE
  5
CD
330
5E
100
AcDbEntity
  8
$DDT_AUDIT_GENERATED_(8A)
  6
Continuous
 62
     7
100
AcDbLine
 10
32.0029275855
 20
382.4231122123
 30
0.0
 11
32.0029275855
 21
382.9489854283
 31
0.0
  0
LINE
  5
CE
330
5E
100
AcDbEntity
  8
$DDT_AUDIT_GENERATED_(8A)
  6
Continuous
 62
     7
100
AcDbLine
 10
26.4262180906
 20
384.5738102304
 30
0.0
 11
25.9815924161
 21
384.3514973931
 31
0.0
  0
LINE
  5
CF
330
5E
100
AcDbEntity
  8
$DDT_AUDIT_GENERATED_(8A)
  6
Continuous
 62
     7
100
AcDbLine
 10
32.1076778975
 20
382.9489854283
 30
0.0
 11
32.1076778975
 21
382.4231122123
 31
0.0
  0
LINE
  5
D0
330
5E
100
AcDbEntity
  8
$DDT_AUDIT_GENERATED_(8A)
  6
Continuous
 62
     7
100
AcDbLine
 10
40.2885057309
 20
386.2682603276
 30
0.0
 11
38.5687150716
 21
386.4986685867
 31
0.0
  0
SPLINE
  5
D1
330
5E
100
AcDbEntity
  8
$DDT_AUDIT_GENERATED_(8A)
  6
Continuous
 62
     7
100
AcDbSpline
210
0.0
220
0.0
230
1.0
 70
     8
 71
     3
 72
    14
 73
    10
 74
     0
 42
0.0000005109051674
 43
0.0000000001
 40
0.6560922227763168
 40
0.6560922227763168
 40
0.6560922227763168
 40
0.6560922227763168
 40
0.7462760411503446
 40
0.7462760411503446
 40
0.7462760411503446
 40
0.9680472959426346
 40
0.9680472959426346
 40
0.9680472959426346
 40
1.0
 40
1.0
 40
1.0
 40
1.0
 10
38.57293911754908
 20
386.6239798148018
 30
0.0
 10
38.57290747931202
 20
386.6239797925763
 30
0.0
 10
38.57288001405892
 20
386.624135149901
 30
0.0
 10
38.57285697446795
 20
386.6244469079451
 30
0.0
 10
38.57280031795285
 20
386.6252135502152
 30
0.0
 10
38.57276874386111
 20
386.626947126727
 30
0.0
 10
38.57276338397632
 20
386.6295042149395
 30
0.0
 10
38.57276260362306
 20
386.6298765050578
 30
0.0
 10
38.57276236581321
 20
386.6302666173735
 30
0.0
 10
38.57276267042656
 20
386.6306738529786
 30
0.0
  0
LINE
  5
D2
330
5E
100
AcDbEntity
  8
$DDT_AUDIT_GENERATED_(8A)
  6
Continuous
 62
     7
100
AcDbLine
 10
36.3830067859
 20
383.666811303
 30
0.0
 11
36.3008830458
 21
383.7379325482
 31
0.0
  0
LINE
  5
D3
330
5E
100
AcDbEntity
  8
$DDT_AUDIT_GENERATED_(8A)
  6
Continuous
 62
     7
100
AcDbLine
 10
38.5727626704
 20
386.633111392
 30
0.0
 11
38.5727626704
 21
386.630673853
 31
0.0
  0
LINE
  5
D4
330
5E
100
AcDbEntity
  8
$DDT_AUDIT_GENERATED_(8A)
  6
Continuous
 62
     7
100
AcDbLine
 10
39.4611060265
 20
385.2388032097
 30
0.0
 11
38.4200478243
 21
385.5393308263
 31
0.0
  0
LINE
  5
D5
330
5E
100
AcDbEntity
  8
$DDT_AUDIT_GENERATED_(8A)
  6
Continuous
 62
     7
100
AcDbLine
 10
25.5418904114
 20
386.4986685867
 30
0.0
 11
23.8220997521
 21
386.2682603276
 31
0.0
  0
ELLIPSE
  5
D6
330
5E
100
AcDbEntity
  8
$DDT_AUDIT_GENERATED_(8A)
  6
Continuous
 62
     7
100
AcDbEllipse
 10
32.0553027415
 20
387.3247129455
 30
0.0
 11
6.545397000345817
 21
6.661338147750939E-13
 31
0.0
210
0.0
220
0.0
230
1.0
 40
0.5
 41
0.013750554202272
 42
0.0533276949829495
  0
LINE
  5
D7
330
5E
100
AcDbEntity
  8
$DDT_AUDIT_GENERATED_(8A)
  6
Continuous
 62
     7
100
AcDbLine
 10
40.2263859078
 20
387.3697129455
 30
0.0
 11
38.6000809572
 21
387.3697129455
 31
0.0
  0
ARC
  5
D8
330
5E
100
AcDbEntity
  8
$DDT_AUDIT_GENERATED_(8A)
  6
Continuous
 62
     7
100
AcDbCircle
 10
35.3305991409
 20
389.5130751283
 30
0.0
 40
0.061342744654212
100
AcDbArc
 50
183.9067751099
 51
252.2733465217
  0
ARC
  5
D9
330
5E
100
AcDbEntity
  8
$DDT_AUDIT_GENERATED_(8A)
  6
Continuous
 62
     7
100
AcDbCircle
 10
26.3447777637
 20
388.3236716217
 30
0.0
 40
0.091189007374833
100
AcDbArc
 50
317.71088245
 51
1.1098219848
  0
SPLINE
  5
DA
330
5E
100
AcDbEntity
  8
$DDT_AUDIT_GENERATED_(8A)
  6
Continuous
 62
     7
100
AcDbSpline
210
0.0
220
0.0
230
1.0
 70
     8
 71
     3
 72
    17
 73
    13
 74
     0
 42
0.0000002477107646
 43
0.0000000001
 40
0.614403086258984
 40
0.614403086258984
 40
0.614403086258984
 40
0.614403086258984
 40
0.6349668272513693
 40
0.6349668272513693
 40
0.6349668272513693
 40
0.7725292162376873
 40
0.7725292162376873
 40
0.7725292162376873
 40
0.9943820021962059
 40
0.9943820021962059
 40
0.9943820021962059
 40
1.0
 40
1.0
 40
1.0
 40
1.0
 10
37.71485446825837
 20
388.2555173869162
 30
0.0
 10
37.71463127955788
 20
388.2554529602659
 30
0.0
 10
37.71440623414116
 20
388.2553965496583
 30
0.0
 10
37.71417947758023
 20
388.2553482513298
 30
0.0
 10
37.71264923167249
 20
388.2550223144784
 30
0.0
 10
37.71102102146853
 20
388.2550550416519
 30
0.0
 10
37.70934765351502
 20
388.2554452579871
 30
0.0
 10
37.70667245550288
 20
388.2560690932663
 30
0.0
 10
37.70381905490116
 20
388.2576363909668
 30
0.0
 10
37.70102268098352
 20
388.260017157881
 30
0.0
 10
37.7009509005876
 20
388.26007827002
 30
0.0
 10
37.7008791314618
 20
388.2601399249924
 30
0.0
 10
37.70080737760446
 20
388.2602021193625
 30
0.0
  0
LINE
  5
DB
330
5E
100
AcDbEntity
  8
$DDT_AUDIT_GENERATED_(8A)
  6
Continuous
 62
     7
100
AcDbLine
 10
37.6983698386
 20
388.2623130901
 30
0.0
 11
37.7008073776
 21
388.2602021194
 31
0.0
  0
SPLINE
  5
DC
330
5E
100
AcDbEntity
  8
$DDT_AUDIT_GENERATED_(8A)
  6
Continuous
 62
     7
100
AcDbSpline
210
0.0
220
0.0
230
1.0
 70
     8
 71
     3
 72
    20
 73
    16
 74
     0
 42
0.0000001453855081
 43
0.0000000001
 40
0.2447392921133445
 40
0.2447392921133445
 40
0.2447392921133445
 40
0.2447392921133445
 40
0.270164048687598
 40
0.270164048687598
 40
0.270164048687598
 40
0.4077529913293103
 40
0.4077529913293103
 40
0.4077529913293103
 40
0.6296618950979197
 40
0.6296618950979197
 40
0.6296618950979197
 40
0.8515473917378723
 40
0.8515473917378723
 40
0.8515473917378723
 40
1.0
 40
1.0
 40
1.0
 40
1.0
 10
33.7887760784086
 20
389.7993377148789
 30
0.0
 10
33.78851739318524
 20
389.7988550067695
 30
0.0
 10
33.78824805200701
 20
389.7983789283849
 30
0.0
 10
33.78796825788888
 20
389.7979100555179
 30
0.0
 10
33.78644078767863
 20
389.7953503543297
 30
0.0
 10
33.78458573992286
 20
389.7929661021563
 30
0.0
 10
33.78246359456317
 20
389.7908351254908
 30
0.0
 10
33.77907072306218
 20
389.7874281345586
 30
0.0
 10
33.77490647969758
 20
389.7846024075936
 30
0.0
 10
33.77031435356561
 20
389.7825904737866
 30
0.0
 10
33.76572272446765
 20
389.7805787577435
 30
0.0
 10
33.76057668376983
 20
389.779325152172
 30
0.0
 10
33.75530156293856
 20
389.778932464093
 30
0.0
 10
33.75176672302945
 20
389.7786693251929
 30
0.0
 10
33.74812050291123
 20
389.778782831308
 30
0.0
 10
33.74449997868637
 20
389.7792686153014
 30
0.0
  0
LINE
  5
DD
330
5E
100
AcDbEntity
  8
$DDT_AUDIT_GENERATED_(8A)
  6
Continuous
 62
     7
100
AcDbLine
 10
32.1369005933
 20
390.448684083
 30
0.0
 11
32.1076778975
 21
389.9324859472
 31
0.0
  0
LINE
  5
DE
330
5E
100
AcDbEntity
  8
$DDT_AUDIT_GENERATED_(8A)
  6
Continuous
 62
     7
100
AcDbLine
 10
32.1076778975
 20
390.4487992387
 30
0.0
 11
32.1076778975
 21
389.9324859472
 31
0.0
  0
SPLINE
  5
DF
330
5E
100
AcDbEntity
  8
$DDT_AUDIT_GENERATED_(8A)
  6
Continuous
 62
     7
100
AcDbSpline
210
0.0
220
0.0
230
1.0
 70
    12
 71
     2
 72
     6
 73
     3
 74
     0
 42
0.000000014826888
 43
0.0000000001
 40
0.0
 40
0.0
 40
0.0
 40
1.0
 40
1.0
 40
1.0
 10
26.43594966462387
 20
388.3254378466264
 30
0.0
 41
1.0
 10
26.43411144333184
 20
388.6620038052005
 30
0.0
 41
1.0
 10
26.43235854461422
 20
388.9998786425969
 30
0.0
 41
1.0
  0
LINE
  5
E0
330
5E
100
AcDbEntity
  8
$DDT_AUDIT_GENERATED_(8A)
  6
Continuous
 62
     7
100
AcDbLine
 10
26.4323585446
 20
388.9998786426
 30
0.0
 11
25.9292338921
 21
389.1451182194
 31
0.0
  0
ELLIPSE
  5
E1
330
5E
100
AcDbEntity
  8
$DDT_AUDIT_GENERATED_(8A)
  6
Continuous
 62
     7
100
AcDbEllipse
 10
32.0553027415
 20
387.3247129455
 30
0.0
 11
6.545397000342401
 21
1.471045507628332E-12
 31
0.0
210
0.0
220
0.0
230
1.0
 40
0.5
 41
0.7991487175994886
 42
0.9372655185763202
  0
LINE
  5
E2
330
5E
100
AcDbEntity
  8
$DDT_AUDIT_GENERATED_(8A)
  6
Continuous
 62
     7
100
AcDbLine
 10
36.7573625767
 20
389.7393824734
 30
0.0
 11
36.6195201888
 21
389.6704612795
 31
0.0
  0
LINE
  5
E3
330
5E
100
AcDbEntity
  8
$DDT_AUDIT_GENERATED_(8A)
  6
Continuous
 62
     7
100
AcDbLine
 10
33.7397910149
 20
389.7798994968
 30
0.0
 11
33.7444999787
 21
389.7792686153
 31
0.0
  0
SPLINE
  5
E4
330
5E
100
AcDbEntity
  8
$DDT_AUDIT_GENERATED_(8A)
  6
Continuous
 62
     7
100
AcDbSpline
210
0.0
220
0.0
230
1.0
 70
     8
 71
     3
 72
    17
 73
    13
 74
     0
 42
0.000000145284002
 43
0.0000000001
 40
0.0
 40
0.0
 40
0.0
 40
0.0
 40
0.2168355599493207
 40
0.2168355599493207
 40
0.2168355599493207
 40
0.438641259396972
 40
0.438641259396972
 40
0.438641259396972
 40
0.6605578406590357
 40
0.6605578406590357
 40
0.6605578406590357
 40
0.7554875987351475
 40
0.7554875987351475
 40
0.7554875987351475
 40
0.7554875987351475
 10
30.36610550431798
 20
389.7792686153016
 30
0.0
 10
30.36082054380037
 20
389.7785595054968
 30
0.0
 10
30.35545932030579
 20
389.7786521440049
 30
0.0
 10
30.35044668980601
 20
389.7795396154305
 30
0.0
 10
30.34531923681444
 20
389.7804474158389
 30
0.0
 10
30.3404168490244
 20
389.7822127428511
 30
0.0
 10
30.33614490900143
 20
389.7846904542632
 30
0.0
 10
30.3318708645672
 20
389.787169386227
 30
0.0
 10
30.32810983901233
 20
389.7904299152725
 30
0.0
 10
30.32517238496625
 20
389.7942030874751
 30
0.0
 10
30.32391582762013
 20
389.795817140725
 30
0.0
 10
30.32279512637946
 20
389.7975440672809
 30
0.0
 10
30.32182442342071
 20
389.7993554806864
 30
0.0
  0
ARC
  5
E5
330
5E
100
AcDbEntity
  8
$DDT_AUDIT_GENERATED_(8A)
  6
Continuous
 62
     7
100
AcDbCircle
 10
28.7800997351
 20
389.513001925
 30
0.0
 40
0.0612446174444266
100
AcDbArc
 50
287.6642821225
 51
356.1555962459
  0
ARC
  5
E6
330
5E
100
AcDbEntity
  8
$DDT_AUDIT_GENERATED_(8A)
  6
Continuous
 62
     7
100
AcDbCircle
 10
25.6126849973
 20
387.536268608
 30
0.0
 40
0.1594917432485304
100
AcDbArc
 50
337.9881014747
 51
2.0362620414
  0
ARC
  5
E7
330
5E
100
AcDbEntity
  8
$DDT_AUDIT_GENERATED_(8A)
  6
Continuous
 62
     7
100
AcDbCircle
 10
23.4852195493
 20
386.6211931054
 30
0.0
 40
2.052657863940434
100
AcDbArc
 50
0.3326766566
 51
2.1784623957
  0
ARC
  5
E8
330
5E
100
AcDbEntity
  8
$DDT_AUDIT_GENERATED_(8A)
  6
Continuous
 62
     7
100
AcDbCircle
 10
33.7460003087
 20
389.8339152549
 30
0.0
 40
0.0543714764422957
100
AcDbArc
 50
186.0331797651
 51
263.4424401147
  0
LINE
  5
E9
330
5E
100
AcDbEntity
  8
$DDT_AUDIT_GENERATED_(8A)
  6
Continuous
 62
     7
100
AcDbLine
 10
27.4910852942
 20
389.6704612795
 30
0.0
 11
27.3532429063
 21
389.7393824734
 31
0.0
  0
ELLIPSE
  5
EA
330
5E
100
AcDbEntity
  8
$DDT_AUDIT_GENERATED_(8A)
  6
Continuous
 62
     7
100
AcDbEllipse
 10
32.0553027415
 20
387.3247129455
 30
0.0
 11
-6.54539700031467
 21
-1.165734175856414E-11
 31
0.0
210
0.0
220
0.0
230
1.0
 40
0.5
 41
-0.9372655185789958
 42
-0.7991487176016507
  0
ARC
  5
EB
330
5E
100
AcDbEntity
  8
$DDT_AUDIT_GENERATED_(8A)
  6
Continuous
 62
     7
100
AcDbCircle
 10
27.4115689092
 20
388.9979316611
 30
0.0
 40
0.071222001149094
100
AcDbArc
 50
301.2210699547
 51
358.71242554
  0
LINE
  5
EC
330
5E
100
AcDbEntity
  8
$DDT_AUDIT_GENERATED_(8A)
  6
Continuous
 62
     7
100
AcDbLine
 10
35.3119217353
 20
389.4546449405
 30
0.0
 11
35.3161436767
 21
389.453426171
 31
0.0
  0
ARC
  5
ED
330
5E
100
AcDbEntity
  8
$DDT_AUDIT_GENERATED_(8A)
  6
Continuous
 62
     7
100
AcDbCircle
 10
32.0604512423
 20
389.9381050221
 30
0.0
 40
0.0475597619660384
100
AcDbArc
 50
266.7323027066
 51
353.214788899
  0
LINE
  5
EE
330
5E
100
AcDbEntity
  8
$DDT_AUDIT_GENERATED_(8A)
  6
Continuous
 62
     7
100
AcDbLine
 10
25.7568261497
 20
388.2151362318
 30
0.0
 11
24.7279899781
 21
388.3529741425
 31
0.0
  0
ELLIPSE
  5
EF
330
5E
100
AcDbEntity
  8
$DDT_AUDIT_GENERATED_(8A)
  6
Continuous
 62
     7
100
AcDbEllipse
 10
32.0553027415
 20
387.3247129455
 30
0.0
 11
-6.545397000358308
 21
5.169475958410885E-12
 31
0.0
210
0.0
220
0.0
230
1.0
 40
0.5
 41
-0.3364886514337835
 42
-0.2755499420006782
  0
LINE
  5
F0
330
5E
100
AcDbEntity
  8
$DDT_AUDIT_GENERATED_(8A)
  6
Continuous
 62
     7
100
AcDbLine
 10
25.5105245259
 20
387.3697129455
 30
0.0
 11
23.8842195752
 21
387.3697129455
 31
0.0
  0
ELLIPSE
  5
F1
330
5E
100
AcDbEntity
  8
$DDT_AUDIT_GENERATED_(8A)
  6
Continuous
 62
     7
100
AcDbEllipse
 10
32.0553027415
 20
387.3247129455
 30
0.0
 11
-6.545397000345092
 21
5.342948306008566E-13
 31
0.0
210
0.0
220
0.0
230
1.0
 40
0.5
 41
6.229857612196666
 42
6.269434752977266
  0
LINE
  5
F2
330
5E
100
AcDbEntity
  8
$DDT_AUDIT_GENERATED_(8A)
  6
Continuous
 62
     7
100
AcDbLine
 10
32.0577402805
 20
389.8906225869
 30
0.0
 11
32.0528652025
 21
389.8906225869
 31
0.0
  0
SPLINE
  5
F3
330
5E
100
AcDbEntity
  8
$DDT_AUDIT_GENERATED_(8A)
  6
Continuous
 62
     7
100
AcDbSpline
210
0.0
220
0.0
230
1.0
 70
     8
 71
     3
 72
    17
 73
    13
 74
     0
 42
0.0000001606038727
 43
0.0000000001
 40
0.0
 40
0.0
 40
0.0
 40
0.0
 40
0.0359975986861663
 40
0.0359975986861663
 40
0.0359975986861663
 40
0.2578256546023421
 40
0.2578256546023421
 40
0.2578256546023421
 40
0.4797431765973789
 40
0.4797431765973789
 40
0.4797431765973789
 40
0.5631675706986673
 40
0.5631675706986673
 40
0.5631675706986673
 40
0.5631675706986673
 10
28.79446180633149
 20
389.4534261710299
 30
0.0
 10
28.79366769667277
 20
389.4531967332759
 30
0.0
 10
28.79287294213853
 20
389.4529893774982
 30
0.0
 10
28.79207934763185
 20
389.4528045750638
 30
0.0
 10
28.78723765063402
 20
389.4516771007879
 30
0.0
 10
28.78236213021583
 20
389.4513940008356
 30
0.0
 10
28.7778559185599
 20
389.4519792596271
 30
0.0
 10
28.77334792308234
 20
389.4525647500982
 30
0.0
 10
28.76908504644347
 20
389.4540354996119
 30
0.0
 10
28.76541886047303
 20
389.4562706693786
 30
0.0
 10
28.76404065820384
 20
389.457110920274
 30
0.0
 10
28.76273246830768
 20
389.4580679226714
 30
0.0
 10
28.76150813185263
 20
389.459128263907
 30
0.0
  0
SPLINE
  5
F4
330
5E
100
AcDbEntity
  8
$DDT_AUDIT_GENERATED_(8A)
  6
Continuous
 62
     7
100
AcDbSpline
210
0.0
220
0.0
230
1.0
 70
     8
 71
     3
 72
    14
 73
    10
 74
     0
 42
0.0000002479933053
 43
0.0000000001
 40
0.0
 40
0.0
 40
0.0
 40
0.0
 40
0.038527715799297
 40
0.038527715799297
 40
0.038527715799297
 40
0.2603592493713974
 40
0.2603592493713974
 40
0.2603592493713974
 40
0.3866703647045471
 40
0.3866703647045471
 40
0.3866703647045471
 40
0.3866703647045471
 10
26.40979810539968
 20
388.2602021193624
 30
0.0
 10
26.40930775266847
 20
388.2597770944174
 30
0.0
 10
26.40881650506508
 20
388.2593771240619
 30
0.0
 10
26.40832563904311
 20
388.2590032486226
 30
0.0
 10
26.40552674098781
 20
388.2568714261029
 30
0.0
 10
26.40269502343331
 20
388.2555764993315
 30
0.0
 10
26.4000637295061
 20
388.255225998821
 30
0.0
 10
26.39856547907634
 20
388.2550264249402
 30
0.0
 10
26.39710863794281
 20
388.2551299209642
 30
0.0
 10
26.39573095536291
 20
388.2555276307746
 30
0.0
  0
ARC
  5
F5
330
5E
100
AcDbEntity
  8
$DDT_AUDIT_GENERATED_(8A)
  6
Continuous
 62
     7
100
AcDbCircle
 10
32.0502369595
 20
389.938203695
 30
0.0
 40
0.0476536410567301
100
AcDbArc
 50
186.891267963
 51
273.1616404314
  0
LINE
  5
F6
330
5E
100
AcDbEntity
  8
$DDT_AUDIT_GENERATED_(8A)
  6
Continuous
 62
     7
100
AcDbLine
 10
32.0029275855
 20
389.9324859472
 30
0.0
 11
32.0029275855
 21
390.4487992387
 31
0.0
  0
LINE
  5
F7
330
5E
100
AcDbEntity
  8
$DDT_AUDIT_GENERATED_(8A)
  6
Continuous
 62
     7
100
AcDbLine
 10
30.3661055043
 20
389.7792686153
 30
0.0
 11
30.3708144681
 21
389.7798994968
 31
0.0
  0
LINE
  5
F8
330
5E
100
AcDbEntity
  8
$DDT_AUDIT_GENERATED_(8A)
  6
Continuous
 62
     7
100
AcDbLine
 10
28.7944618063
 20
389.453426171
 30
0.0
 11
28.7986837477
 21
389.4546449405
 31
0.0
  0
SPLINE
  5
F9
330
5E
100
AcDbEntity
  8
$DDT_AUDIT_GENERATED_(8A)
  6
Continuous
 62
     7
100
AcDbSpline
210
0.0
220
0.0
230
1.0
 70
    12
 71
     2
 72
     6
 73
     3
 74
     0
 42
0.0000000149032915
 43
0.0000000001
 40
0.0
 40
0.0
 40
0.0
 40
1.0
 40
1.0
 40
1.0
 10
38.60008095715252
 20
387.3697129455123
 30
0.0
 41
1.0
 10
38.58717401892625
 20
387.0338021538431
 30
0.0
 41
1.0
 10
38.57421157510791
 20
386.6992191084089
 30
0.0
 41
1.0
  0
SPLINE
  5
FA
330
5E
100
AcDbEntity
  8
$DDT_AUDIT_GENERATED_(8A)
  6
Continuous
 62
     7
100
AcDbSpline
210
0.0
220
0.0
230
1.0
 70
    12
 71
     2
 72
     6
 73
     3
 74
     0
 42
0.0000000148700619
 43
0.0000000001
 40
0.0655150517341066
 40
0.0655150517341066
 40
0.0655150517341066
 40
1.0
 40
1.0
 40
1.0
 10
35.25104254260278
 20
390.1370612927854
 30
0.0
 41
1.0
 10
35.26026103385792
 20
389.8224173618136
 30
0.0
 41
1.0
 10
35.26939894271881
 20
389.5088956468463
 30
0.0
 41
1.0
  0
SPLINE
  5
FB
330
5E
100
AcDbEntity
  8
$DDT_AUDIT_GENERATED_(8A)
  6
Continuous
 62
     7
100
AcDbSpline
210
0.0
220
0.0
230
1.0
 70
     8
 71
     3
 72
    14
 73
    10
 74
     0
 42
0.0000001904601372
 43
0.0000000001
 40
0.0
 40
0.0
 40
0.0
 40
0.0
 40
0.034400827085811
 40
0.034400827085811
 40
0.034400827085811
 40
0.2562265038928145
 40
0.2562265038928145
 40
0.2562265038928145
 40
0.4505326224320049
 40
0.4505326224320049
 40
0.4505326224320049
 40
0.4505326224320049
 10
27.44503902928223
 20
388.9353008782296
 30
0.0
 10
27.44441938760966
 20
388.9349908255599
 30
0.0
 10
27.44379908700232
 20
388.9347008674721
 30
0.0
 10
27.44317941429878
 20
388.934431605968
 30
0.0
 10
27.43922405522201
 20
388.932712914911
 30
0.0
 10
27.435231573758
 20
388.9318331453334
 30
0.0
 10
27.43153164505712
 20
388.9318655853791
 30
0.0
 10
27.42829075138205
 20
388.931894000721
 30
0.0
 10
27.42519593605276
 20
388.9326230383513
 30
0.0
 10
27.42244094188047
 20
388.9340005769326
 30
0.0
  0
SPLINE
  5
FC
330
5E
100
AcDbEntity
  8
$DDT_AUDIT_GENERATED_(8A)
  6
Continuous
 62
     7
100
AcDbSpline
210
0.0
220
0.0
230
1.0
 70
     8
 71
     3
 72
    14
 73
    10
 74
     0
 42
0.0000003593454343
 43
0.0000000001
 40
0.0
 40
0.0
 40
0.0
 40
0.0
 40
0.0529307919937626
 40
0.0529307919937626
 40
0.0529307919937626
 40
0.2747753195791898
 40
0.2747753195791898
 40
0.2747753195791898
 40
0.3537649540893076
 40
0.3537649540893076
 40
0.3537649540893076
 40
0.3537649540893076
 10
25.75928899283004
 20
387.4741367591917
 30
0.0
 10
25.75894106577837
 20
387.4734865458493
 30
0.0
 10
25.75859142239838
 20
387.4728831524941
 30
0.0
 10
25.75824176868364
 20
387.4723295303065
 30
0.0
 10
25.75678834362094
 20
387.4700282581368
 30
0.0
 10
25.75530978685926
 20
387.4685701874211
 30
0.0
 10
25.75392695858884
 20
387.4680761825837
 30
0.0
 10
25.75343459450167
 20
387.4679002892743
 30
0.0
 10
25.75294951422313
 20
387.4678448903147
 30
0.0
 10
25.75247652855925
 20
387.4679082801518
 30
0.0
  0
ARC
  5
FD
330
5E
100
AcDbEntity
  8
$DDT_AUDIT_GENERATED_(8A)
  6
Continuous
 62
     7
100
AcDbCircle
 10
38.4980653202
 20
387.5362941145
 30
0.0
 40
0.1596355828629535
100
AcDbArc
 50
177.9747339338
 51
202.0009025507
  0
ELLIPSE
  5
FE
330
5E
100
AcDbEntity
  8
$DDT_AUDIT_GENERATED_(8A)
  6
Continuous
 62
     7
100
AcDbEllipse
 10
32.0553027415
 20
387.3247129455
 30
0.0
 11
6.545397000318177
 21
-5.113964807179627E-12
 31
0.0
210
0.0
220
0.0
230
1.0
 40
0.5
 41
0.275549942002243
 42
0.3364886514356822
  0
LINE
  5
FF
330
5E
100
AcDbEntity
  8
$DDT_AUDIT_GENERATED_(8A)
  6
Continuous
 62
     7
100
AcDbLine
 10
39.3826155049
 20
388.3529741425
 30
0.0
 11
38.3537793333
 21
388.2151362318
 31
0.0
  0
LINE
  5
100
330
5E
100
AcDbEntity
  8
$DDT_AUDIT_GENERATED_(8A)
  6
Continuous
 62
     7
100
AcDbLine
 10
33.6678459661
 20
390.3716992004
 30
0.0
 11
33.6919299851
 21
389.8282005752
 31
0.0
  0
LINE
  5
101
330
5E
100
AcDbEntity
  8
$DDT_AUDIT_GENERATED_(8A)
  6
Continuous
 62
     7
100
AcDbLine
 10
30.4186754979
 20
389.8282005752
 30
0.0
 11
30.4427595169
 21
390.3716992004
 31
0.0
  0
SPLINE
  5
102
330
5E
100
AcDbEntity
  8
$DDT_AUDIT_GENERATED_(8A)
  6
Continuous
 62
     7
100
AcDbSpline
210
0.0
220
0.0
230
1.0
 70
    12
 71
     2
 72
     6
 73
     3
 74
     0
 42
0.0000000148506042
 43
0.0000000001
 40
0.0
 40
0.0
 40
0.0
 40
1.0
 40
1.0
 40
1.0
 10
38.35377933327349
 20
388.2151362317882
 30
0.0
 41
1.0
 10
38.34619084327522
 20
387.8778763029662
 30
0.0
 41
1.0
 10
38.33852945525364
 20
387.5419356680417
 30
0.0
 41
1.0
  0
ELLIPSE
  5
103
330
5E
100
AcDbEntity
  8
$DDT_AUDIT_GENERATED_(8A)
  6
Continuous
 62
     7
100
AcDbEllipse
 10
32.0553027415
 20
387.3247129455
 30
0.0
 11
6.545397000318254
 21
-8.264222639553509E-12
 31
0.0
210
0.0
220
0.0
230
1.0
 40
0.5
 41
0.5373493298019514
 42
0.6320101493169827
  0
LINE
  5
104
330
5E
100
AcDbEntity
  8
$DDT_AUDIT_GENERATED_(8A)
  6
Continuous
 62
     7
100
AcDbLine
 10
38.1813715909
 20
389.1451182194
 30
0.0
 11
37.6782469384
 21
388.9998786426
 31
0.0
  0
LINE
  5
105
330
5E
100
AcDbEntity
  8
$DDT_AUDIT_GENERATED_(8A)
  6
Continuous
 62
     7
100
AcDbLine
 10
26.4097981054
 20
388.2602021194
 30
0.0
 11
26.4122356444
 21
388.2623130901
 31
0.0
  0
SPLINE
  5
106
330
5E
100
AcDbEntity
  8
$DDT_AUDIT_GENERATED_(8A)
  6
Continuous
 62
     7
100
AcDbSpline
210
0.0
220
0.0
230
1.0
 70
    12
 71
     2
 72
     6
 73
     3
 74
     0
 42
0.0000000148506042
 43
0.0000000001
 40
0.0
 40
0.0
 40
0.0
 40
1.0
 40
1.0
 40
1.0
 10
25.77207602775071
 20
387.5419356680414
 30
0.0
 41
1.0
 10
25.76441463972918
 20
387.8778763029639
 30
0.0
 41
1.0
 10
25.75682614973086
 20
388.2151362317881
 30
0.0
 41
1.0
  0
ARC
  5
107
330
5E
100
AcDbEntity
  8
$DDT_AUDIT_GENERATED_(8A)
  6
Continuous
 62
     7
100
AcDbCircle
 10
40.614108485
 20
386.621440277
 30
0.0
 40
2.041379178282327
100
AcDbArc
 50
177.8164381467
 51
179.6724228008
  0
SPLINE
  5
108
330
5E
100
AcDbEntity
  8
$DDT_AUDIT_GENERATED_(8A)
  6
Continuous
 62
     7
100
AcDbSpline
210
0.0
220
0.0
230
1.0
 70
     8
 71
     3
 72
    14
 73
    10
 74
     0
 42
0.0000001909180096
 43
0.0000000001
 40
0.5497737719319697
 40
0.5497737719319697
 40
0.5497737719319697
 40
0.5497737719319697
 40
0.609644599219719
 40
0.609644599219719
 40
0.609644599219719
 40
0.8315147691063832
 40
0.8315147691063832
 40
0.8315147691063832
 40
1.0
 40
1.0
 40
1.0
 40
1.0
 10
36.68811745341907
 20
388.9339794573612
 30
0.0
 10
36.68726681973173
 20
388.9335541246331
 30
0.0
 10
36.68638818801211
 20
388.9331916602141
 30
0.0
 10
36.68548642208872
 20
388.9328953097352
 30
0.0
 10
36.6821446536586
 20
388.9317970927268
 30
0.0
 10
36.67839294981378
 20
388.9315765153895
 30
0.0
 10
36.67453998193551
 20
388.9322511647748
 30
0.0
 10
36.67161167126094
 20
388.9327639079533
 30
0.0
 10
36.66857169322956
 20
388.9337971340916
 30
0.0
 10
36.66556645372241
 20
388.9353008782295
 30
0.0
  0
SPLINE
  5
109
330
5E
100
AcDbEntity
  8
$DDT_AUDIT_GENERATED_(8A)
  6
Continuous
 62
     7
100
AcDbSpline
210
0.0
220
0.0
230
1.0
 70
     8
 71
     3
 72
    11
 73
     7
 74
     0
 42
0.0000003565994268
 43
0.0000000001
 40
0.6457170119321164
 40
0.6457170119321164
 40
0.6457170119321164
 40
0.6457170119321164
 40
0.8630614828405511
 40
0.8630614828405511
 40
0.8630614828405511
 40
1.0
 40
1.0
 40
1.0
 40
1.0
 10
38.35813884828681
 20
387.4679053478641
 30
0.0
 10
38.35684423624453
 20
387.4677318835214
 30
0.0
 10
38.3554332473779
 20
387.468477443038
 30
0.0
 10
38.35401600321345
 20
387.4700839505603
 30
0.0
 10
38.35312120394897
 20
387.4710982442052
 30
0.0
 10
38.35221167486591
 20
387.4724638193395
 30
0.0
 10
38.35131649017421
 20
387.4741367591909
 30
0.0
  0
ARC
  5
10A
330
5E
100
AcDbEntity
  8
$DDT_AUDIT_GENERATED_(8A)
  6
Continuous
 62
     7
100
AcDbCircle
 10
36.6989842095
 20
388.997901388
 30
0.0
 40
0.0711689757631917
100
AcDbArc
 50
181.2641560486
 51
238.8023484573
  0
LINE
  5
10B
330
5E
100
AcDbEntity
  8
$DDT_AUDIT_GENERATED_(8A)
  6
Continuous
 62
     7
100
AcDbLine
 10
32.0029275855
 20
389.9324859472
 30
0.0
 11
31.973704895
 21
390.4486839884
 31
0.0
  0
ELLIPSE
  5
10C
330
5E
100
AcDbEntity
  8
$DDT_AUDIT_GENERATED_(8A)
  6
Continuous
 62
     7
100
AcDbEllipse
 10
32.0553027415
 20
387.3247129455
 30
0.0
 11
-6.545397000335847
 21
-1.242062008799394E-12
 31
0.0
210
0.0
220
0.0
230
1.0
 40
0.5
 41
-0.632010149315879
 42
-0.5373493298008185
  0
SPLINE
  5
10D
330
5E
100
AcDbEntity
  8
$DDT_AUDIT_GENERATED_(8A)
  6
Continuous
 62
     7
100
AcDbSpline
210
0.0
220
0.0
230
1.0
 70
    12
 71
     2
 72
     6
 73
     3
 74
     0
 42
0.0000000149032915
 43
0.0000000001
 40
0.0
 40
0.0
 40
0.0
 40
1.0
 40
1.0
 40
1.0
 10
25.53639390789662
 20
386.6992191084106
 30
0.0
 41
1.0
 10
25.52343146407824
 20
387.033802153846
 30
0.0
 41
1.0
 10
25.51052452585201
 20
387.3697129455139
 30
0.0
 41
1.0
  0
LINE
  5
10E
330
5E
100
AcDbEntity
  8
$DDT_AUDIT_GENERATED_(8A)
  6
Continuous
 62
     7
100
AcDbLine
 10
38.3500547271
 20
387.4764912411
 30
0.0
 11
38.3513164902
 21
387.4741367592
 31
0.0
  0
ARC
  5
10F
330
5E
100
AcDbEntity
  8
$DDT_AUDIT_GENERATED_(8A)
  6
Continuous
 62
     7
100
AcDbCircle
 10
37.7660320652
 20
388.3237483881
 30
0.0
 40
0.0913918637301727
100
AcDbArc
 50
178.9407770763
 51
222.2385184889
  0
SPLINE
  5
110
330
5E
100
AcDbEntity
  8
$DDT_AUDIT_GENERATED_(8A)
  6
Continuous
 62
     7
100
AcDbSpline
210
0.0
220
0.0
230
1.0
 70
    12
 71
     2
 72
     6
 73
     3
 74
     0
 42
0.000000014826888
 43
0.0000000001
 40
0.0
 40
0.0
 40
0.0
 40
1.0
 40
1.0
 40
1.0
 10
37.67824693839014
 20
388.999878642597
 30
0.0
 41
1.0
 10
37.67649403967248
 20
388.6620038051917
 30
0.0
 41
1.0
 10
37.67465581838049
 20
388.3254378466266
 30
0.0
 41
1.0
  0
SPLINE
  5
111
330
5E
100
AcDbEntity
  8
$DDT_AUDIT_GENERATED_(8A)
  6
Continuous
 62
     7
100
AcDbSpline
210
0.0
220
0.0
230
1.0
 70
    12
 71
     2
 72
     6
 73
     3
 74
     0
 42
0.0000000148700619
 43
0.0000000001
 40
0.0
 40
0.0
 40
0.0
 40
0.9344849482650235
 40
0.9344849482650235
 40
0.9344849482650235
 10
28.84120654028579
 20
389.5088956468478
 30
0.0
 41
1.0
 10
28.85034444914662
 20
389.8224173618132
 30
0.0
 41
1.0
 10
28.8595629404018
 20
390.1370612927865
 30
0.0
 41
1.0
  0
LINE
  5
112
330
5E
100
AcDbEntity
  8
$DDT_AUDIT_GENERATED_(8A)
  6
Continuous
 62
     7
100
AcDbLine
 10
27.4450390293
 20
388.9353008782
 30
0.0
 11
27.44848623
 21
388.9370244786
 31
0.0
  0
SPLINE
  5
113
330
5E
100
AcDbEntity
  8
$DDT_AUDIT_GENERATED_(8A)
  6
Continuous
 62
     7
100
AcDbSpline
210
0.0
220
0.0
230
1.0
 70
    12
 71
     2
 72
     6
 73
     3
 74
     0
 42
0.0000000148328061
 43
0.0000000001
 40
0.0
 40
0.0
 40
0.0
 40
1.0
 40
1.0
 40
1.0
 10
36.61952018884356
 20
389.6704612794917
 30
0.0
 41
1.0
 10
36.62372233855737
 20
389.3327476670959
 30
0.0
 41
1.0
 10
36.62783255573815
 20
388.9963312654933
 30
0.0
 41
1.0
  0
SPLINE
  5
114
330
5E
100
AcDbEntity
  8
$DDT_AUDIT_GENERATED_(8A)
  6
Continuous
 62
     7
100
AcDbSpline
210
0.0
220
0.0
230
1.0
 70
     8
 71
     3
 72
    17
 73
    13
 74
     0
 42
0.0000001607429251
 43
0.0000000001
 40
0.4371627286443733
 40
0.4371627286443733
 40
0.4371627286443733
 40
0.4371627286443733
 40
0.5022986490721952
 40
0.5022986490721952
 40
0.5022986490721952
 40
0.724274791169811
 40
0.724274791169811
 40
0.724274791169811
 40
0.861890409250902
 40
0.861890409250902
 40
0.861890409250902
 40
1.0
 40
1.0
 40
1.0
 40
1.0
 10
35.3490904308352
 20
389.4591209786747
 30
0.0
 10
35.34813575350825
 20
389.4582941797839
 30
0.0
 10
35.34713050627015
 20
389.4575310707585
 30
0.0
 10
35.34608104363777
 20
389.4568382696827
 30
0.0
 10
35.34250461830665
 20
389.4544772982292
 30
0.0
 10
35.33831597269916
 20
389.452867714598
 30
0.0
 10
35.33386027202829
 20
389.452141764845
 30
0.0
 10
35.33107364125008
 20
389.4516877500728
 30
0.0
 10
35.32814544647254
 20
389.4515671959609
 30
0.0
 10
35.32517152863019
 20
389.4517838818733
 30
0.0
 10
35.32220690921208
 20
389.4519998902829
 30
0.0
 10
35.31916457237435
 20
389.4525533601812
 30
0.0
 10
35.31614367667312
 20
389.4534261710299
 30
0.0
  0
LINE
  5
115
330
5E
100
AcDbEntity
  8
$DDT_AUDIT_GENERATED_(8A)
  6
Continuous
 62
     7
100
AcDbLine
 10
36.662119253
 20
388.9370244786
 30
0.0
 11
36.6655664537
 21
388.9353008782
 31
0.0
  0
ARC
  5
116
330
5E
100
AcDbEntity
  8
$DDT_AUDIT_GENERATED_(8A)
  6
Continuous
 62
     7
100
AcDbCircle
 10
30.3645680544
 20
389.8339520366
 30
0.0
 40
0.0544122664813809
100
AcDbArc
 50
276.5919680753
 51
353.932412045
  0
SPLINE
  5
117
330
5E
100
AcDbEntity
  8
$DDT_AUDIT_GENERATED_(8A)
  6
Continuous
 62
     7
100
AcDbSpline
210
0.0
220
0.0
230
1.0
 70
    12
 71
     2
 72
     6
 73
     3
 74
     0
 42
0.0000000148328061
 43
0.0000000001
 40
0.0
 40
0.0
 40
0.0
 40
1.0
 40
1.0
 40
1.0
 10
27.48277292726603
 20
388.9963312654919
 30
0.0
 41
1.0
 10
27.4868831444468
 20
389.3327476670943
 30
0.0
 41
1.0
 10
27.49108529416062
 20
389.6704612794899
 30
0.0
 41
1.0
  0
LINE
  5
118
330
5E
100
AcDbEntity
  8
$DDT_AUDIT_GENERATED_(8A)
  6
Continuous
 62
     7
100
AcDbLine
 10
25.7592889928
 20
387.4741367592
 30
0.0
 11
25.7605507559
 21
387.4764912411
 31
0.0
  0
ELLIPSE
  5
119
330
5E
100
AcDbEntity
  8
$DDT_AUDIT_GENERATED_(8A)
  6
Continuous
 62
     7
100
AcDbEllipse
 10
32.0553027415
 20
386.1988799206
 30
0.0
 11
6.499999999999998
 21
0.0
 31
0.0
210
0.0
220
0.0
230
1.0
 40
0.5
 41
0.0
 42
6.283185307179586
  0
ELLIPSE
  5
11A
330
5E
100
AcDbEntity
  8
$DDT_AUDIT_GENERATED_(8A)
  6
Continuous
 62
     7
100
AcDbEllipse
 10
32.0553027415
 20
386.1988799206
 30
0.0
 11
-5.499999999999999
 21
-6.938893903907228E-15
 31
0.0
210
0.0
220
0.0
230
1.0
 40
0.5
 41
0.0
 42
6.283185307179586
  0
ELLIPSE
  5
11B
330
5E
100
AcDbEntity
  8
$DDT_AUDIT_GENERATED_(8A)
  6
Continuous
 62
     7
100
AcDbEllipse
 10
32.0553027415
 20
387.3247129455
 30
0.0
 11
5.499999999998276
 21
-2.081668171172169E-14
 31
0.0
210
0.0
220
0.0
230
1.0
 40
0.5
 41
3.347746707877747
 42
3.371797067676811
  0
ELLIPSE
  5
11C
330
5E
100
AcDbEntity
  8
$DDT_AUDIT_GENERATED_(8A)
  6
Continuous
 62
     7
100
AcDbEllipse
 10
32.0553027415
 20
387.3247129455
 30
0.0
 11
-5.499999999999026
 21
7.632783294297951E-14
 31
0.0
210
0.0
220
0.0
230
1.0
 40
0.5
 41
-3.371797067676789
 42
-3.347746707877728
  0
SPLINE
  5
11D
330
5E
100
AcDbEntity
  8
$DDT_AUDIT_GENERATED_(8A)
  6
Continuous
 62
     7
100
AcDbSpline
210
0.0
220
0.0
230
1.0
 70
    12
 71
     2
 72
     6
 73
     3
 74
     0
 42
0.0000000141964946
 43
0.0000000001
 40
0.0
 40
0.0
 40
0.0
 40
1.0
 40
1.0
 40
1.0
 10
37.41021149215511
 20
386.6972274332938
 30
0.0
 41
1.0
 10
37.40750146310832
 20
386.3450575072501
 30
0.0
 41
1.0
 10
37.40474151795585
 20
385.992849435961
 30
0.0
 41
1.0
  0
ELLIPSE
  5
11E
330
5E
100
AcDbEntity
  8
$DDT_AUDIT_GENERATED_(8A)
  6
Continuous
 62
     7
100
AcDbEllipse
 10
32.0553027406
 20
386.6318926226
 30
0.0
 11
5.500000000933841
 21
-1.662628368315211E-10
 31
0.0
210
0.0
220
0.0
230
1.0
 40
0.5
 41
-0.2890754970811198
 42
-0.23452327844298
  0
ELLIPSE
  5
11F
330
5E
100
AcDbEntity
  8
$DDT_AUDIT_GENERATED_(8A)
  6
Continuous
 62
     7
100
AcDbEllipse
 10
32.0553027415
 20
387.3247129455
 30
0.0
 11
5.499999999999843
 21
4.163336342344337E-14
 31
0.0
210
0.0
220
0.0
230
1.0
 40
0.5
 41
-0.7538031896852857
 42
-0.5358394303304292
  0
LINE
  5
120
330
5E
100
AcDbEntity
  8
$DDT_AUDIT_GENERATED_(8A)
  6
Continuous
 62
     7
100
AcDbLine
 10
36.0490094314
 20
384.7411052947
 30
0.0
 11
36.0653042423
 21
385.4425673638
 31
0.0
  0
ELLIPSE
  5
121
330
5E
100
AcDbEntity
  8
$DDT_AUDIT_GENERATED_(8A)
  6
Continuous
 62
     7
100
AcDbEllipse
 10
32.0553027471
 20
386.6318926197
 30
0.0
 11
5.499999994058657
 21
2.648457841925023E-9
 31
0.0
210
0.0
220
0.0
230
1.0
 40
0.5
 41
-0.8126742733393986
 42
-0.7581220546571732
  0
ELLIPSE
  5
122
330
5E
100
AcDbEntity
  8
$DDT_AUDIT_GENERATED_(8A)
  6
Continuous
 62
     7
100
AcDbEllipse
 10
32.0553027415
 20
387.3247129455
 30
0.0
 11
5.500000000000466
 21
-2.289834988289385E-13
 31
0.0
210
0.0
220
0.0
230
1.0
 40
0.5
 41
5.005783341896088
 42
5.290896923733624
  0
LINE
  5
123
330
5E
100
AcDbEntity
  8
$DDT_AUDIT_GENERATED_(8A)
  6
Continuous
 62
     7
100
AcDbLine
 10
33.6231668624
 20
383.995996091
 30
0.0
 11
33.6459203287
 21
384.6922266829
 31
0.0
  0
ELLIPSE
  5
124
330
5E
100
AcDbEntity
  8
$DDT_AUDIT_GENERATED_(8A)
  6
Continuous
 62
     7
100
AcDbEllipse
 10
32.0553027416
 20
386.6318926223
 30
0.0
 11
5.499999999777115
 21
7.557843240135753E-11
 31
0.0
210
0.0
220
0.0
230
1.0
 40
0.5
 41
-1.336273048336239
 42
-1.281720829691273
  0
ELLIPSE
  5
125
330
5E
100
AcDbEntity
  8
$DDT_AUDIT_GENERATED_(8A)
  6
Continuous
 62
     7
100
AcDbEllipse
 10
32.0553027415
 20
387.3247129455
 30
0.0
 11
5.499999999999543
 21
-2.081668171172169E-14
 31
0.0
210
0.0
220
0.0
230
1.0
 40
0.5
 41
4.543200134315425
 42
4.881577826453977
  0
ELLIPSE
  5
126
330
5E
100
AcDbEntity
  8
$DDT_AUDIT_GENERATED_(8A)
  6
Continuous
 62
     7
100
AcDbEllipse
 10
32.0553027394
 20
386.6318926185
 30
0.0
 11
-5.499999995600541
 21
1.372228719542790E-9
 31
0.0
210
0.0
220
0.0
230
1.0
 40
0.4999999997
 41
1.281720829966289
 42
1.336273048650133
  0
LINE
  5
127
330
5E
100
AcDbEntity
  8
$DDT_AUDIT_GENERATED_(8A)
  6
Continuous
 62
     7
100
AcDbLine
 10
30.4646851544
 20
384.6922266829
 30
0.0
 11
30.4874386206
 21
383.995996091
 31
0.0
  0
ELLIPSE
  5
128
330
5E
100
AcDbEntity
  8
$DDT_AUDIT_GENERATED_(8A)
  6
Continuous
 62
     7
100
AcDbEllipse
 10
32.0553027415
 20
387.3247129455
 30
0.0
 11
-5.500000000000798
 21
-3.955169525227120E-13
 31
0.0
210
0.0
220
0.0
230
1.0
 40
0.5
 41
0.9922883834459465
 42
1.277401965283472
  0
ELLIPSE
  5
129
330
5E
100
AcDbEntity
  8
$DDT_AUDIT_GENERATED_(8A)
  6
Continuous
 62
     7
100
AcDbEllipse
 10
32.0553027422
 20
386.6318926228
 30
0.0
 11
-5.500000000721513
 21
-3.184882912954379E-10
 31
0.0
210
0.0
220
0.0
230
1.0
 40
0.5
 41
0.7581220540056663
 42
0.8126742726438145
  0
LINE
  5
12A
330
5E
100
AcDbEntity
  8
$DDT_AUDIT_GENERATED_(8A)
  6
Continuous
 62
     7
100
AcDbLine
 10
28.0453012407
 20
385.4425673638
 30
0.0
 11
28.0615960516
 21
384.7411052947
 31
0.0
  0
ELLIPSE
  5
12B
330
5E
100
AcDbEntity
  8
$DDT_AUDIT_GENERATED_(8A)
  6
Continuous
 62
     7
100
AcDbEllipse
 10
32.0553027415
 20
387.3247129455
 30
0.0
 11
-5.500000000000007
 21
-5.551115123125783E-14
 31
0.0
210
0.0
220
0.0
230
1.0
 40
0.5
 41
0.5358394303304239
 42
0.7538031896852796
  0
ELLIPSE
  5
12C
330
5E
100
AcDbEntity
  8
$DDT_AUDIT_GENERATED_(8A)
  6
Continuous
 62
     7
100
AcDbEllipse
 10
32.0553027337
 20
386.6318926214
 30
0.0
 11
-5.499999992187966
 21
1.348594846906082E-9
 31
0.0
210
0.0
220
0.0
230
1.0
 40
0.5000000003
 41
0.2345232787640262
 42
0.289075497447024
  0
SPLINE
  5
12D
330
5E
100
AcDbEntity
  8
$DDT_AUDIT_GENERATED_(8A)
  6
Continuous
 62
     7
100
AcDbSpline
210
0.0
220
0.0
230
1.0
 70
    12
 71
     2
 72
     6
 73
     3
 74
     0
 42
0.0000000141964946
 43
0.0000000001
 40
0.0
 40
0.0
 40
0.0
 40
1.0
 40
1.0
 40
1.0
 10
26.70039399084921
 20
386.6972274332937
 30
0.0
 41
1.0
 10
26.70310401989605
 20
386.3450575072441
 30
0.0
 41
1.0
 10
26.70586396504846
 20
385.992849435961
 30
0.0
 41
1.0
  0
LINE
  5
12E
330
5E
100
AcDbEntity
  8
$DDT_AUDIT_GENERATED_(8A)
  6
Continuous
 62
     7
100
AcDbLine
 10
37.1486628841
 20
387.2366277774
 30
0.0
 11
34.7948341714
 21
386.9212745261
 31
0.0
  0
ELLIPSE
  5
12F
330
5E
100
AcDbEntity
  8
$DDT_AUDIT_GENERATED_(8A)
  6
Continuous
 62
     7
100
AcDbEllipse
 10
32.0553027415
 20
387.3247129455
 30
0.0
 11
-2.799999999998276
 21
-5.967448757360216E-13
 31
0.0
210
0.0
220
0.0
230
1.0
 40
0.5
 41
-0.3700609087490649
 42
-0.3238905074412255
  0
LINE
  5
130
330
5E
100
AcDbEntity
  8
$DDT_AUDIT_GENERATED_(8A)
  6
Continuous
 62
     7
100
AcDbLine
 10
29.4008903829
 20
387.7702729949
 30
0.0
 11
27.8593521492
 21
387.9767999573
 31
0.0
  0
LINE
  5
131
330
5E
100
AcDbEntity
  8
$DDT_AUDIT_GENERATED_(8A)
  6
Continuous
 62
     7
100
AcDbLine
 10
28.8442377848
 20
386.9844480399
 30
0.0
 11
26.7003939908
 21
386.6972274333
 31
0.0
  0
ELLIPSE
  5
132
330
5E
100
AcDbEntity
  8
$DDT_AUDIT_GENERATED_(8A)
  6
Continuous
 62
     7
100
AcDbEllipse
 10
32.0553027415
 20
386.6318926225
 30
0.0
 11
2.799999999973948
 21
-8.132383655379272E-12
 31
0.0
210
0.0
220
0.0
230
1.0
 40
0.5
 41
1.255399853189722
 42
1.362594024809301
  0
LINE
  5
133
330
5E
100
AcDbEntity
  8
$DDT_AUDIT_GENERATED_(8A)
  6
Continuous
 62
     7
100
AcDbLine
 10
33.4070606604
 20
388.864529491
 30
0.0
 11
32.9238442966
 21
387.9628354807
 31
0.0
  0
LINE
  5
134
330
5E
100
AcDbEntity
  8
$DDT_AUDIT_GENERATED_(8A)
  6
Continuous
 62
     7
100
AcDbLine
 10
32.6340665487
 20
388.0016583374
 30
0.0
 11
33.1141147699
 21
388.8974405132
 31
0.0
  0
LINE
  5
135
330
5E
100
AcDbEntity
  8
$DDT_AUDIT_GENERATED_(8A)
  6
Continuous
 62
     7
100
AcDbLine
 10
32.7345373029
 20
388.9278284549
 30
0.0
 11
32.6107762775
 21
388.6968872375
 31
0.0
  0
LINE
  5
136
330
5E
100
AcDbEntity
  8
$DDT_AUDIT_GENERATED_(8A)
  6
Continuous
 62
     7
100
AcDbLine
 10
32.6107762775
 20
388.6968872375
 30
0.0
 11
32.6340665487
 21
388.0016583374
 31
0.0
  0
ELLIPSE
  5
137
330
5E
100
AcDbEntity
  8
$DDT_AUDIT_GENERATED_(8A)
  6
Continuous
 62
     7
100
AcDbEllipse
 10
32.0553027414
 20
386.6318926225
 30
0.0
 11
2.800000000074687
 21
1.319083731132764E-11
 31
0.0
210
0.0
220
0.0
230
1.0
 40
0.5
 41
0.2082023019847291
 42
0.31539647360191
  0
LINE
  5
138
330
5E
100
AcDbEntity
  8
$DDT_AUDIT_GENERATED_(8A)
  6
Continuous
 62
     7
100
AcDbLine
 10
34.7171884579
 20
387.0661634
 30
0.0
 11
37.0264075781
 21
387.3755400992
 31
0.0
  0
ELLIPSE
  5
139
330
5E
100
AcDbEntity
  8
$DDT_AUDIT_GENERATED_(8A)
  6
Continuous
 62
     7
100
AcDbEllipse
 10
32.0553027415
 20
387.3247129455
 30
0.0
 11
2.800000000000443
 21
2.428612866367530E-13
 31
0.0
210
0.0
220
0.0
230
1.0
 40
0.5
 41
0.847489283039249
 42
1.126329131413996
  0
LINE
  5
13A
330
5E
100
AcDbEntity
  8
$DDT_AUDIT_GENERATED_(8A)
  6
Continuous
 62
     7
100
AcDbLine
 10
34.4897895092
 20
388.664811498
 30
0.0
 11
33.9085312268
 21
388.3741823568
 31
0.0
  0
ELLIPSE
  5
13B
330
5E
100
AcDbEntity
  8
$DDT_AUDIT_GENERATED_(8A)
  6
Continuous
 62
     7
100
AcDbEllipse
 10
32.0553027415
 20
386.6318926224
 30
0.0
 11
-2.800000000067277
 21
2.037259250187162E-11
 31
0.0
210
0.0
220
0.0
230
1.0
 40
0.5
 41
-1.36259402479474
 42
-1.255399853178518
  0
LINE
  5
13C
330
5E
100
AcDbEntity
  8
$DDT_AUDIT_GENERATED_(8A)
  6
Continuous
 62
     7
100
AcDbLine
 10
30.9964907131
 20
388.8974405132
 30
0.0
 11
31.4765389343
 21
388.0016583374
 31
0.0
  0
LINE
  5
13D
330
5E
100
AcDbEntity
  8
$DDT_AUDIT_GENERATED_(8A)
  6
Continuous
 62
     7
100
AcDbLine
 10
31.1867611864
 20
387.9628354807
 30
0.0
 11
30.7035448226
 21
388.864529491
 31
0.0
  0
SPLINE
  5
13E
330
5E
100
AcDbEntity
  8
$DDT_AUDIT_GENERATED_(8A)
  6
Continuous
 62
     7
100
AcDbSpline
210
0.0
220
0.0
230
1.0
 70
    12
 71
     2
 72
     6
 73
     3
 74
     0
 42
0.0000000142015345
 43
0.0000000001
 40
0.0
 40
0.0
 40
0.0
 40
1.0
 40
1.0
 40
1.0
 10
29.39341702512557
 20
387.0661634000397
 30
0.0
 41
1.0
 10
29.39710575798071
 20
387.4183113287368
 30
0.0
 41
1.0
 10
29.40089038286904
 20
387.7702729948711
 30
0.0
 41
1.0
  0
LINE
  5
13F
330
5E
100
AcDbEntity
  8
$DDT_AUDIT_GENERATED_(8A)
  6
Continuous
 62
     7
100
AcDbLine
 10
27.084197905
 20
387.3755400992
 30
0.0
 11
29.3934170251
 21
387.0661634
 31
0.0
  0
ELLIPSE
  5
140
330
5E
100
AcDbEntity
  8
$DDT_AUDIT_GENERATED_(8A)
  6
Continuous
 62
     7
100
AcDbEllipse
 10
32.0553027414
 20
386.6318926225
 30
0.0
 11
2.800000000072624
 21
3.194666753358888E-11
 31
0.0
210
0.0
220
0.0
230
1.0
 40
0.5
 41
0.7318010775746647
 42
0.8389952491914587
  0
LINE
  5
141
330
5E
100
AcDbEntity
  8
$DDT_AUDIT_GENERATED_(8A)
  6
Continuous
 62
     7
100
AcDbLine
 10
35.6036761552
 20
388.3000133122
 30
0.0
 11
34.1384246507
 21
387.5673875599
 31
0.0
  0
LINE
  5
142
330
5E
100
AcDbEntity
  8
$DDT_AUDIT_GENERATED_(8A)
  6
Continuous
 62
     7
100
AcDbLine
 10
33.9262926163
 20
387.6734535771
 30
0.0
 11
35.3677684055
 21
388.3941914717
 31
0.0
  0
ELLIPSE
  5
143
330
5E
100
AcDbEntity
  8
$DDT_AUDIT_GENERATED_(8A)
  6
Continuous
 62
     7
100
AcDbEllipse
 10
32.0553027415
 20
387.3247129455
 30
0.0
 11
2.799999999999873
 21
-1.387778780781446E-14
 31
0.0
210
0.0
220
0.0
230
1.0
 40
0.5
 41
1.371088058637631
 42
1.77050459495217
  0
LINE
  5
144
330
5E
100
AcDbEntity
  8
$DDT_AUDIT_GENERATED_(8A)
  6
Continuous
 62
     7
100
AcDbLine
 10
31.4998292055
 20
388.6968872375
 30
0.0
 11
31.3760681801
 21
388.9278284549
 31
0.0
  0
LINE
  5
145
330
5E
100
AcDbEntity
  8
$DDT_AUDIT_GENERATED_(8A)
  6
Continuous
 62
     7
100
AcDbLine
 10
37.4102114922
 20
386.6972274333
 30
0.0
 11
35.2663676982
 21
386.9844480399
 31
0.0
  0
SPLINE
  5
146
330
5E
100
AcDbEntity
  8
$DDT_AUDIT_GENERATED_(8A)
  6
Continuous
 62
     7
100
AcDbSpline
210
0.0
220
0.0
230
1.0
 70
    12
 71
     2
 72
     6
 73
     3
 74
     0
 42
0.0000000142662745
 43
0.0000000001
 40
0.0
 40
0.0
 40
0.0
 40
1.0
 40
1.0
 40
1.0
 10
33.90853122683969
 20
388.3741823568269
 30
0.0
 41
1.0
 10
33.91744550912182
 20
388.0239220216525
 30
0.0
 41
1.0
 10
33.92629261630091
 20
387.6734535770628
 30
0.0
 41
1.0
  0
ELLIPSE
  5
147
330
5E
100
AcDbEntity
  8
$DDT_AUDIT_GENERATED_(8A)
  6
Continuous
 62
     7
100
AcDbEllipse
 10
32.0553027415
 20
387.3247129455
 30
0.0
 11
-2.799999999999605
 21
-2.428612866367530E-13
 31
0.0
210
0.0
220
0.0
230
1.0
 40
0.5
 41
-1.126329131414202
 42
-0.8474892830393914
  0
LINE
  5
148
330
5E
100
AcDbEntity
  8
$DDT_AUDIT_GENERATED_(8A)
  6
Continuous
 62
     7
100
AcDbLine
 10
30.2020742562
 20
388.3741823568
 30
0.0
 11
29.6208159738
 21
388.664811498
 31
0.0
  0
SPLINE
  5
149
330
5E
100
AcDbEntity
  8
$DDT_AUDIT_GENERATED_(8A)
  6
Continuous
 62
     7
100
AcDbSpline
210
0.0
220
0.0
230
1.0
 70
    12
 71
     2
 72
     6
 73
     3
 74
     0
 42
0.0000000142662745
 43
0.0000000001
 40
0.0
 40
0.0
 40
0.0
 40
1.0
 40
1.0
 40
1.0
 10
30.18431286670337
 20
387.6734535770629
 30
0.0
 41
1.0
 10
30.19315997388248
 20
388.0239220216532
 30
0.0
 41
1.0
 10
30.20207425616459
 20
388.3741823568269
 30
0.0
 41
1.0
  0
LINE
  5
14A
330
5E
100
AcDbEntity
  8
$DDT_AUDIT_GENERATED_(8A)
  6
Continuous
 62
     7
100
AcDbLine
 10
28.7428370775
 20
388.3941914717
 30
0.0
 11
30.1843128667
 21
387.6734535771
 31
0.0
  0
LINE
  5
14B
330
5E
100
AcDbEntity
  8
$DDT_AUDIT_GENERATED_(8A)
  6
Continuous
 62
     7
100
AcDbLine
 10
36.2512533338
 20
387.9767999573
 30
0.0
 11
34.7097151001
 21
387.7702729949
 31
0.0
  0
SPLINE
  5
14C
330
5E
100
AcDbEntity
  8
$DDT_AUDIT_GENERATED_(8A)
  6
Continuous
 62
     7
100
AcDbSpline
210
0.0
220
0.0
230
1.0
 70
    12
 71
     2
 72
     6
 73
     3
 74
     0
 42
0.0000000142015345
 43
0.0000000001
 40
0.0
 40
0.0
 40
0.0
 40
1.0
 40
1.0
 40
1.0
 10
34.70971510013525
 20
387.7702729948712
 30
0.0
 41
1.0
 10
34.71349972502358
 20
387.4183113287373
 30
0.0
 41
1.0
 10
34.71718845787873
 20
387.0661634000398
 30
0.0
 41
1.0
  0
ELLIPSE
  5
14D
330
5E
100
AcDbEntity
  8
$DDT_AUDIT_GENERATED_(8A)
  6
Continuous
 62
     7
100
AcDbEllipse
 10
32.0553027415
 20
387.3247129455
 30
0.0
 11
2.799999999999894
 21
4.163336342344337E-14
 31
0.0
210
0.0
220
0.0
230
1.0
 40
0.5
 41
0.3238905074410509
 42
0.3700609087488512
  0
LINE
  5
14E
330
5E
100
AcDbEntity
  8
$DDT_AUDIT_GENERATED_(8A)
  6
Continuous
 62
     7
100
AcDbLine
 10
29.9721808323
 20
387.5673875599
 30
0.0
 11
28.5069293278
 21
388.3000133122
 31
0.0
  0
ELLIPSE
  5
14F
330
5E
100
AcDbEntity
  8
$DDT_AUDIT_GENERATED_(8A)
  6
Continuous
 62
     7
100
AcDbEllipse
 10
32.0553027415
 20
386.6318926225
 30
0.0
 11
-2.799999999966906
 21
-5.412337245047638E-12
 31
0.0
210
0.0
220
0.0
230
1.0
 40
0.5
 41
-0.3153964736112771
 42
-0.2082023019919825
  0
LINE
  5
150
330
5E
100
AcDbEntity
  8
$DDT_AUDIT_GENERATED_(8A)
  6
Continuous
 62
     7
100
AcDbLine
 10
29.3157713116
 20
386.9212745261
 30
0.0
 11
26.9619425989
 21
387.2366277774
 31
0.0
  0
LINE
  5
151
330
5E
100
AcDbEntity
  8
$DDT_AUDIT_GENERATED_(8A)
  6
Continuous
 62
     7
100
AcDbLine
 10
31.4765389343
 20
388.0016583374
 30
0.0
 11
31.4998292055
 21
388.6968872375
 31
0.0
  0
ELLIPSE
  5
152
330
5E
100
AcDbEntity
  8
$DDT_AUDIT_GENERATED_(8A)
  6
Continuous
 62
     7
100
AcDbEllipse
 10
32.0553027416
 20
386.6318926225
 30
0.0
 11
-2.800000000072936
 21
3.316097396677264E-11
 31
0.0
210
0.0
220
0.0
230
1.0
 40
0.5
 41
-0.8389952491912496
 42
-0.7318010775744543
  0
LINE
  5
153
330
5E
100
AcDbEntity
  8
$DDT_AUDIT_GENERATED_(8A)
  6
Continuous
 62
     7
100
AcDbLine
 10
36.0653042423
 20
385.4425673638
 30
0.0
 11
34.8404732146
 21
386.0549828776
 31
0.0
  0
LINE
  5
154
330
5E
100
AcDbEntity
  8
$DDT_AUDIT_GENERATED_(8A)
  6
Continuous
 62
     7
100
AcDbLine
 10
34.4994783438
 20
385.5158708385
 30
0.0
 11
36.0490094314
 21
384.7411052947
 31
0.0
  0
LINE
  5
155
330
5E
100
AcDbEntity
  8
$DDT_AUDIT_GENERATED_(8A)
  6
Continuous
 62
     7
100
AcDbLine
 10
30.6268220705
 20
384.9947782874
 30
0.0
 11
30.4646851544
 21
384.6922266829
 31
0.0
  0
LINE
  5
156
330
5E
100
AcDbEntity
  8
$DDT_AUDIT_GENERATED_(8A)
  6
Continuous
 62
     7
100
AcDbLine
 10
30.4874386206
 20
383.995996091
 30
0.0
 11
30.9757130501
 21
384.9071285805
 31
0.0
  0
LINE
  5
157
330
5E
100
AcDbEntity
  8
$DDT_AUDIT_GENERATED_(8A)
  6
Continuous
 62
     7
100
AcDbLine
 10
35.836877397
 20
384.6350392775
 30
0.0
 11
34.3349669852
 21
385.3859944834
 31
0.0
  0
LINE
  5
158
330
5E
100
AcDbEntity
  8
$DDT_AUDIT_GENERATED_(8A)
  6
Continuous
 62
     7
100
AcDbLine
 10
31.2592460559
 20
384.8566528763
 30
0.0
 11
30.7772163685
 21
383.9571732343
 31
0.0
  0
LINE
  5
159
330
5E
100
AcDbEntity
  8
$DDT_AUDIT_GENERATED_(8A)
  6
Continuous
 62
     7
100
AcDbLine
 10
34.8553027415
 20
386.3344094666
 30
0.0
 11
37.404741518
 21
385.992849436
 31
0.0
  0
LINE
  5
15A
330
5E
100
AcDbEntity
  8
$DDT_AUDIT_GENERATED_(8A)
  6
Continuous
 62
     7
100
AcDbLine
 10
29.7756384978
 20
385.3859944834
 30
0.0
 11
28.273728086
 21
384.6350392775
 31
0.0
  0
LINE
  5
15B
330
5E
100
AcDbEntity
  8
$DDT_AUDIT_GENERATED_(8A)
  6
Continuous
 62
     7
100
AcDbLine
 10
33.6459203287
 20
384.6922266829
 30
0.0
 11
33.4837834125
 21
384.9947782874
 31
0.0
  0
LINE
  5
15C
330
5E
100
AcDbEntity
  8
$DDT_AUDIT_GENERATED_(8A)
  6
Continuous
 62
     7
100
AcDbLine
 10
33.1348924329
 20
384.9071285805
 30
0.0
 11
33.6231668624
 21
383.995996091
 31
0.0
  0
LINE
  5
15D
330
5E
100
AcDbEntity
  8
$DDT_AUDIT_GENERATED_(8A)
  6
Continuous
 62
     7
100
AcDbLine
 10
37.3270958044
 20
385.847960562
 30
0.0
 11
34.8550248265
 21
386.1791552731
 31
0.0
  0
LINE
  5
15E
330
5E
100
AcDbEntity
  8
$DDT_AUDIT_GENERATED_(8A)
  6
Continuous
 62
     7
100
AcDbLine
 10
33.3333891146
 20
383.9571732343
 30
0.0
 11
32.8513594271
 21
384.8566528763
 31
0.0
  0
LINE
  5
15F
330
5E
100
AcDbEntity
  8
$DDT_AUDIT_GENERATED_(8A)
  6
Continuous
 62
     7
100
AcDbLine
 10
28.0615960516
 20
384.7411052947
 30
0.0
 11
29.6111271392
 21
385.5158708385
 31
0.0
  0
LINE
  5
160
330
5E
100
AcDbEntity
  8
$DDT_AUDIT_GENERATED_(8A)
  6
Continuous
 62
     7
100
AcDbLine
 10
29.2555806565
 20
386.1791552731
 30
0.0
 11
26.7835096786
 21
385.847960562
 31
0.0
  0
LINE
  5
161
330
5E
100
AcDbEntity
  8
$DDT_AUDIT_GENERATED_(8A)
  6
Continuous
 62
     7
100
AcDbLine
 10
29.2701322684
 20
386.0549828776
 30
0.0
 11
28.0453012407
 21
385.4425673638
 31
0.0
  0
LINE
  5
162
330
5E
100
AcDbEntity
  8
$DDT_AUDIT_GENERATED_(8A)
  6
Continuous
 62
     7
100
AcDbLine
 10
26.705863965
 20
385.992849436
 30
0.0
 11
29.2553027415
 21
386.3344094666
 31
0.0
  0
ELLIPSE
  5
163
330
5E
100
AcDbEntity
  8
$DDT_AUDIT_GENERATED_(8A)
  6
Continuous
 62
     7
100
AcDbEllipse
 10
32.0553027415
 20
386.1988799206
 30
0.0
 11
2.800000000000002
 21
0.0
 31
0.0
210
0.0
220
0.0
230
1.0
 40
0.5
 41
0.0
 42
6.283185307179586
  0
ELLIPSE
  5
164
330
5E
100
AcDbEntity
  8
$DDT_AUDIT_GENERATED_(8A)
  6
Continuous
 62
     7
100
AcDbEllipse
 10
32.0553027415
 20
386.1988799206
 30
0.0
 11
2.300000000000002
 21
0.0
 31
0.0
210
0.0
220
0.0
230
1.0
 40
0.5
 41
0.0
 42
6.283185307179586
  0
ELLIPSE
  5
165
330
5E
100
AcDbEntity
  8
$DDT_AUDIT_GENERATED_(8A)
  6
Continuous
 62
     7
100
AcDbEllipse
 10
32.0553027415
 20
387.3247129455
 30
0.0
 11
-2.300000000000001
 21
-1.387778780781446E-14
 31
0.0
210
0.0
220
0.0
230
1.0
 40
0.5
 41
2.2033059358139
 42
2.63008484911385
  0
LINE
  5
166
330
5E
100
AcDbEntity
  8
$DDT_AUDIT_GENERATED_(8A)
  6
Continuous
 62
     7
100
AcDbLine
 10
33.414995429
 20
386.3971845368
 30
0.0
 11
33.414995429
 21
385.7043642138
 31
0.0
  0
ELLIPSE
  5
167
330
5E
100
AcDbEntity
  8
$DDT_AUDIT_GENERATED_(8A)
  6
Continuous
 62
     7
100
AcDbEllipse
 10
32.0553027415
 20
386.6318926225
 30
0.0
 11
2.300000000009273
 21
-4.232725281383409E-12
 31
0.0
210
0.0
220
0.0
230
1.0
 40
0.5
 41
-1.156108384614598
 42
-0.9382867177739334
  0
ELLIPSE
  5
168
330
5E
100
AcDbEntity
  8
$DDT_AUDIT_GENERATED_(8A)
  6
Continuous
 62
     7
100
AcDbEllipse
 10
32.0553027415
 20
387.3247129455
 30
0.0
 11
2.300000000000002
 21
6.938893903907228E-15
 31
0.0
210
0.0
220
0.0
230
1.0
 40
0.5
 41
3.932722572585322
 42
4.813619342474096
  0
LINE
  5
169
330
5E
100
AcDbEntity
  8
$DDT_AUDIT_GENERATED_(8A)
  6
Continuous
 62
     7
100
AcDbLine
 10
31.3481959603
 20
386.7568926225
 30
0.0
 11
30.0442116699
 21
386.7568926225
 31
0.0
  0
LINE
  5
16A
330
5E
100
AcDbEntity
  8
$DDT_AUDIT_GENERATED_(8A)
  6
Continuous
 62
     7
100
AcDbLine
 10
31.3481959603
 20
387.293183352
 30
0.0
 11
31.3481959603
 21
386.7568926225
 31
0.0
  0
ELLIPSE
  5
16B
330
5E
100
AcDbEntity
  8
$DDT_AUDIT_GENERATED_(8A)
  6
Continuous
 62
     7
100
AcDbEllipse
 10
32.0553027415
 20
386.6318926225
 30
0.0
 11
-0.7500000000000033
 21
1.387778780781446E-14
 31
0.0
210
0.0
220
0.0
230
1.0
 40
0.5
 41
4.528627114240542
 42
5.943348397725484
  0
LINE
  5
16C
330
5E
100
AcDbEntity
  8
$DDT_AUDIT_GENERATED_(8A)
  6
Continuous
 62
     7
100
AcDbLine
 10
29.8393350743
 20
386.5068926225
 30
0.0
 11
31.3481959603
 21
386.5068926225
 31
0.0
  0
ELLIPSE
  5
16D
330
5E
100
AcDbEntity
  8
$DDT_AUDIT_GENERATED_(8A)
  6
Continuous
 62
     7
100
AcDbEllipse
 10
32.0553027415
 20
386.6318926225
 30
0.0
 11
0.750000000000006
 21
1.387778780781446E-14
 31
0.0
210
0.0
220
0.0
230
1.0
 40
0.5
 41
3.481429563043877
 42
4.896150846528837
  0
LINE
  5
16E
330
5E
100
AcDbEntity
  8
$DDT_AUDIT_GENERATED_(8A)
  6
Continuous
 62
     7
100
AcDbLine
 10
32.1923497811
 20
386.2632064046
 30
0.0
 11
32.9819827271
 21
385.5793642138
 31
0.0
  0
LINE
  5
16F
330
5E
100
AcDbEntity
  8
$DDT_AUDIT_GENERATED_(8A)
  6
Continuous
 62
     7
100
AcDbLine
 10
33.414995429
 20
385.7043642138
 30
0.0
 11
32.625362483
 21
386.3882064046
 31
0.0
  0
ELLIPSE
  5
170
330
5E
100
AcDbEntity
  8
$DDT_AUDIT_GENERATED_(8A)
  6
Continuous
 62
     7
100
AcDbEllipse
 10
32.0553027415
 20
386.6318926225
 30
0.0
 11
-0.7500000000000017
 21
2.775557561562891E-14
 31
0.0
210
0.0
220
0.0
230
1.0
 40
0.5
 41
2.434232011847388
 42
3.848953295332323
  0
LINE
  5
171
330
5E
100
AcDbEntity
  8
$DDT_AUDIT_GENERATED_(8A)
  6
Continuous
 62
     7
100
AcDbLine
 10
32.625362483
 20
386.8755788403
 30
0.0
 11
33.0431626975
 21
387.2374044397
 31
0.0
  0
LINE
  5
172
330
5E
100
AcDbEntity
  8
$DDT_AUDIT_GENERATED_(8A)
  6
Continuous
 62
     7
100
AcDbLine
 10
32.5619190669
 20
387.3206352302
 30
0.0
 11
32.1923497811
 21
387.0005788403
 31
0.0
  0
LINE
  5
173
330
5E
100
AcDbEntity
  8
$DDT_AUDIT_GENERATED_(8A)
  6
Continuous
 62
     7
100
AcDbLine
 10
32.1923497811
 20
387.3468365954
 30
0.0
 11
32.1923497811
 21
387.0005788403
 31
0.0
  0
LINE
  5
174
330
5E
100
AcDbEntity
  8
$DDT_AUDIT_GENERATED_(8A)
  6
Continuous
 62
     7
100
AcDbLine
 10
32.8053027415
 20
386.9251938927
 30
0.0
 11
33.414995429
 21
386.3971845368
 31
0.0
  0
LINE
  5
175
330
5E
100
AcDbEntity
  8
$DDT_AUDIT_GENERATED_(8A)
  6
Continuous
 62
     7
100
AcDbLine
 10
23.0553027415
 20
388.4505459704
 30
0.0
 11
23.0553027415
 21
386.4586875417
 31
0.0
  0
LINE
  5
176
330
5E
100
AcDbEntity
  8
$DDT_AUDIT_GENERATED_(8A)
  6
Continuous
 62
     7
100
AcDbLine
 10
41.0553027415
 20
386.4586875417
 30
0.0
 11
41.0553027415
 21
388.4505459704
 31
0.0
  0
SPLINE
  5
177
330
5E
100
AcDbEntity
  8
$DDT_AUDIT_GENERATED_(8A)
  6
Continuous
 62
     7
100
AcDbSpline
210
0.0
220
0.0
230
1.0
 70
     8
 71
     3
 72
    55
 73
    51
 74
     0
 42
0.0000000004553792
 43
0.0000000001
 40
0.0
 40
0.0
 40
0.0
 40
0.0
 40
0.0099044730113477
 40
0.0304850833182157
 40
0.0511069930439932
 40
0.0718558359656638
 40
0.0927879159007186
 40
0.113922301785673
 40
0.1352440105425336
 40
0.1567156545346201
 40
0.178291724931151
 40
0.1999298815358129
 40
0.2215968002896627
 40
0.2432667547462234
 40
0.2649247852032864
 40
0.2865647137137987
 40
0.3081841456039146
 40
0.3297830189051505
 40
0.351362624099915
 40
0.372924980103211
 40
0.3944724560049933
 40
0.4160075534739145
 40
0.4375327906418688
 40
0.459050648548565
 40
0.4805635553901523
 40
0.5020738931343517
 40
0.5235840169337446
 40
0.5450957344647114
 40
0.5666111851564851
 40
0.5881327914719499
 40
0.609663047874477
 40
0.6312045375746803
 40
0.6527599337152604
 40
0.6743319730915658
 40
0.6959233832822038
 40
0.7175367325869367
 40
0.7391741549010176
 40
0.7608368773271837
 40
0.7825244481134451
 40
0.8042335354252941
 40
0.8259561720811338
 40
0.8476712458177398
 40
0.8693499771772181
 40
0.890952840832857
 40
0.9124312917585454
 40
0.9337362746752312
 40
0.9548329270334898
 40
0.9757168101912486
 40
0.9952303323981293
 40
1.0
 40
1.0
 40
1.0
 40
1.0
 10
23.0612240195756
 20
386.3917071764776
 30
0.0
 10
23.06144541114831
 20
386.3361371903225
 30
0.0
 10
23.06271695025547
 20
386.1906781328119
 30
0.0
 10
23.10740911218046
 20
385.924554304989
 30
0.0
 10
23.19312101925131
 20
385.6162841165933
 30
0.0
 10
23.32016119478797
 20
385.3096139977318
 30
0.0
 10
23.48560783262516
 20
385.0089408208304
 30
0.0
 10
23.68989231227712
 20
384.7144404462818
 30
0.0
 10
23.93224056668619
 20
384.4277148462469
 30
0.0
 10
24.21174139167095
 20
384.1501732416563
 30
0.0
 10
24.52702764620426
 20
383.8833165216205
 30
0.0
 10
24.87644672887357
 20
383.6285186064608
 30
0.0
 10
25.25812664852009
 20
383.3870143376545
 30
0.0
 10
25.67007044773057
 20
383.1598769898857
 30
0.0
 10
26.11021506626699
 20
382.9480336232764
 30
0.0
 10
26.5764690429554
 20
382.75228885429
 30
0.0
 10
27.06670118413361
 20
382.5733586069307
 30
0.0
 10
27.57871598227302
 20
382.411891955338
 30
0.0
 10
28.11024994359629
 20
382.268475849321
 30
0.0
 10
28.65897113644118
 20
382.1436355527961
 30
0.0
 10
29.22248200108972
 20
382.0378327092304
 30
0.0
 10
29.79832493706328
 20
381.9514623405319
 30
0.0
 10
30.3839900575566
 20
381.8848496072516
 30
0.0
 10
30.97692455330662
 20
381.838246818155
 30
0.0
 10
31.57454320765235
 20
381.8118309643813
 30
0.0
 10
32.17423969885817
 20
381.8057019272454
 30
0.0
 10
32.77339333221548
 20
381.8198813194012
 30
0.0
 10
33.3693840534343
 20
381.8543114601565
 30
0.0
 10
33.95960710682682
 20
381.9088557502598
 30
0.0
 10
34.5414901686464
 20
381.983300991571
 30
0.0
 10
35.11250211542225
 20
382.0773600124722
 30
0.0
 10
35.67016206848066
 20
382.1906747163448
 30
0.0
 10
36.21204981408316
 20
382.3228201397847
 30
0.0
 10
36.73581505461694
 20
382.473309344031
 30
0.0
 10
37.23918500744513
 20
382.6415989917344
 30
0.0
 10
37.71996971847075
 20
382.8270952724326
 30
0.0
 10
38.17606429252614
 20
383.0291595113326
 30
0.0
 10
38.60544712161923
 20
383.2471121957245
 30
0.0
 10
39.0061732921214
 20
383.4802333624752
 30
0.0
 10
39.37636294225272
 20
383.7277556252887
 30
0.0
 10
39.71415424383522
 20
383.9888214838966
 30
0.0
 10
40.0177165716364
 20
384.262445903901
 30
0.0
 10
40.28526911943586
 20
384.5474696591337
 30
0.0
 10
40.51514537987891
 20
384.8424847144588
 30
0.0
 10
40.70588330599556
 20
385.145922310366
 30
0.0
 10
40.85631318193582
 20
385.4555491512181
 30
0.0
 10
40.96583700327171
 20
385.7704687988761
 30
0.0
 10
41.03261428055883
 20
386.0783264907506
 30
0.0
 10
41.0538707789569
 20
386.3153648230224
 30
0.0
 10
41.05510524463774
 20
386.4319295724503
 30
0.0
 10
41.05530274150215
 20
386.4586875417286
 30
0.0
  0
LINE
  5
178
330
5E
100
AcDbEntity
  8
$DDT_AUDIT_GENERATED_(8A)
  6
Continuous
 62
     7
100
AcDbLine
 10
23.8522502348
 20
385.5244847482
 30
0.0
 11
25.6146769248
 21
385.7606051524
 31
0.0
  0
LINE
  5
179
330
5E
100
AcDbEntity
  8
$DDT_AUDIT_GENERATED_(8A)
  6
Continuous
 62
     7
100
AcDbLine
 10
29.9018003558
 20
382.5461404975
 30
0.0
 11
30.1908173662
 21
383.0854535811
 31
0.0
  0
LINE
  5
17A
330
5E
100
AcDbEntity
  8
$DDT_AUDIT_GENERATED_(8A)
  6
Continuous
 62
     7
100
AcDbLine
 10
38.0148290426
 20
384.9013778718
 30
0.0
 11
39.4013846771
 21
384.5011137374
 31
0.0
  0
LINE
  5
17B
330
5E
100
AcDbEntity
  8
$DDT_AUDIT_GENERATED_(8A)
  6
Continuous
 62
     7
100
AcDbLine
 10
23.5979286647
 20
386.6239751232
 30
0.0
 11
25.5376530753
 21
386.6239751232
 31
0.0
  0
LINE
  5
17C
330
5E
100
AcDbEntity
  8
$DDT_AUDIT_GENERATED_(8A)
  6
Continuous
 62
     7
100
AcDbLine
 10
24.7092206748
 20
384.5011136995
 30
0.0
 11
26.0957764404
 21
384.9013778718
 31
0.0
  0
LINE
  5
17D
330
5E
100
AcDbEntity
  8
$DDT_AUDIT_GENERATED_(8A)
  6
Continuous
 62
     7
100
AcDbLine
 10
38.4959285582
 20
385.7606051524
 30
0.0
 11
40.2583552597
 21
385.5244847467
 31
0.0
  0
LINE
  5
17E
330
5E
100
AcDbEntity
  8
$DDT_AUDIT_GENERATED_(8A)
  6
Continuous
 62
     7
100
AcDbLine
 10
26.0690275978
 20
383.624431021
 30
0.0
 11
27.0595298668
 21
384.1196821555
 31
0.0
  0
LINE
  5
17F
330
5E
100
AcDbEntity
  8
$DDT_AUDIT_GENERATED_(8A)
  6
Continuous
 62
     7
100
AcDbLine
 10
33.9197881168
 20
383.0854535811
 30
0.0
 11
34.2088051132
 21
382.5461405236
 31
0.0
  0
LINE
  5
180
330
5E
100
AcDbEntity
  8
$DDT_AUDIT_GENERATED_(8A)
  6
Continuous
 62
     7
100
AcDbLine
 10
38.5729573683
 20
386.6239751232
 30
0.0
 11
40.5126768183
 21
386.6239751232
 31
0.0
  0
LINE
  5
181
330
5E
100
AcDbEntity
  8
$DDT_AUDIT_GENERATED_(8A)
  6
Continuous
 62
     7
100
AcDbLine
 10
27.840193717
 20
382.9562210759
 30
0.0
 11
28.4585962843
 21
383.491773409
 31
0.0
  0
LINE
  5
182
330
5E
100
AcDbEntity
  8
$DDT_AUDIT_GENERATED_(8A)
  6
Continuous
 62
     7
100
AcDbLine
 10
37.0510756162
 20
384.1196821555
 30
0.0
 11
38.0415778364
 21
383.6244310454
 31
0.0
  0
LINE
  5
183
330
5E
100
AcDbEntity
  8
$DDT_AUDIT_GENERATED_(8A)
  6
Continuous
 62
     7
100
AcDbLine
 10
35.6520091987
 20
383.491773409
 30
0.0
 11
36.2704118397
 21
382.9562210121
 31
0.0
  0
LINE
  5
184
330
5E
100
AcDbEntity
  8
$DDT_AUDIT_GENERATED_(8A)
  6
Continuous
 62
     7
100
AcDbLine
 10
37.7148739841
 20
388.2555224191
 30
0.0
 11
39.0229280058
 21
388.6331250899
 31
0.0
  0
LINE
  5
185
330
5E
100
AcDbEntity
  8
$DDT_AUDIT_GENERATED_(8A)
  6
Continuous
 62
     7
100
AcDbLine
 10
33.7887931473
 20
389.7993677908
 30
0.0
 11
34.0718434689
 21
390.3275468815
 31
0.0
  0
LINE
  5
186
330
5E
100
AcDbEntity
  8
$DDT_AUDIT_GENERATED_(8A)
  6
Continuous
 62
     7
100
AcDbLine
 10
30.0387620141
 20
390.3275468815
 30
0.0
 11
30.3218101325
 21
389.7993719021
 31
0.0
  0
LINE
  5
187
330
5E
100
AcDbEntity
  8
$DDT_AUDIT_GENERATED_(8A)
  6
Continuous
 62
     7
100
AcDbLine
 10
28.1633019763
 20
389.9771841051
 30
0.0
 11
28.7614816163
 21
389.4591453409
 31
0.0
  0
LINE
  5
188
330
5E
100
AcDbEntity
  8
$DDT_AUDIT_GENERATED_(8A)
  6
Continuous
 62
     7
100
AcDbLine
 10
25.0876774772
 20
388.6331250899
 30
0.0
 11
26.3957207262
 21
388.2555255289
 31
0.0
  0
LINE
  5
189
330
5E
100
AcDbEntity
  8
$DDT_AUDIT_GENERATED_(8A)
  6
Continuous
 62
     7
100
AcDbLine
 10
26.4781845627
 20
389.4061276823
 30
0.0
 11
27.4224567059
 21
388.9339916107
 31
0.0
  0
LINE
  5
18A
330
5E
100
AcDbEntity
  8
$DDT_AUDIT_GENERATED_(8A)
  6
Continuous
 62
     7
100
AcDbLine
 10
24.0955561989
 20
387.6898892246
 30
0.0
 11
25.7524522392
 21
387.4679072466
 31
0.0
  0
LINE
  5
18B
330
5E
100
AcDbEntity
  8
$DDT_AUDIT_GENERATED_(8A)
  6
Continuous
 62
     7
100
AcDbLine
 10
36.6881526904
 20
388.9339935673
 30
0.0
 11
37.6324209203
 21
389.4061276823
 31
0.0
  0
LINE
  5
18C
330
5E
100
AcDbEntity
  8
$DDT_AUDIT_GENERATED_(8A)
  6
Continuous
 62
     7
100
AcDbLine
 10
38.3581382177
 20
387.4679052335
 30
0.0
 11
40.0150492841
 21
387.6898892246
 31
0.0
  0
LINE
  5
18D
330
5E
100
AcDbEntity
  8
$DDT_AUDIT_GENERATED_(8A)
  6
Continuous
 62
     7
100
AcDbLine
 10
35.3491228251
 20
389.4591444388
 30
0.0
 11
35.9473035067
 21
389.9771841051
 31
0.0
  0
LINE
  5
18E
330
5E
100
AcDbEntity
  8
$DDT_AUDIT_GENERATED_(8A)
  6
Continuous
 62
     7
100
AcDbLine
 10
25.5368366447
 20
386.6239751232
 30
0.0
 11
25.5566239576
 21
386.1333549947
 31
0.0
  0
LINE
  5
18F
330
5E
100
AcDbEntity
  8
$DDT_AUDIT_GENERATED_(8A)
  6
Continuous
 62
     7
100
AcDbLine
 10
38.5539815254
 20
386.1333549947
 30
0.0
 11
38.5737688383
 21
386.6239751232
 31
0.0
  0
LINE
  5
190
330
5E
100
AcDbEntity
  8
$DDT_AUDIT_GENERATED_(8A)
  6
Continuous
 62
     7
100
AcDbLine
 10
29.2553027415
 20
386.9293757784
 30
0.0
 11
29.2553027415
 21
386.1988799206
 31
0.0
  0
LINE
  5
191
330
5E
100
AcDbEntity
  8
$DDT_AUDIT_GENERATED_(8A)
  6
Continuous
 62
     7
100
AcDbLine
 10
34.8553027415
 20
386.1988799206
 30
0.0
 11
34.8553027415
 21
386.9293757784
 31
0.0
  0
LINE
  5
192
330
5E
100
AcDbEntity
  8
$DDT_AUDIT_GENERATED_(8A)
  6
Continuous
 62
     7
100
AcDbLine
 10
32.8053027415
 20
386.6318926225
 30
0.0
 11
32.8053027415
 21
387.0314116753
 31
0.0
  0
SPLINE
  5
194
330
5E
100
AcDbEntity
  8
$DDT_AUDIT_GENERATED_(193)
  6
Continuous
 62
     7
100
AcDbSpline
210
0.0
220
0.0
230
1.0
 70
     8
 71
     3
 72
     8
 73
     4
 74
     0
 42
0.0000000063251721
 43
0.0000000001
 40
0.198704234149776
 40
0.198704234149776
 40
0.198704234149776
 40
0.198704234149776
 40
0.2097810856130353
 40
0.2097810856130353
 40
0.2097810856130353
 40
0.2097810856130353
 10
19.68911034839352
 20
459.268765543217
 30
0.0
 10
19.68338934425188
 20
459.270030625563
 30
0.0
 10
19.67769552545102
 20
459.2713180991645
 30
0.0
 10
19.67202944737466
 20
459.2726281713685
 30
0.0
  0
SPLINE
  5
195
330
5E
100
AcDbEntity
  8
$DDT_AUDIT_GENERATED_(193)
  6
Continuous
 62
     7
100
AcDbSpline
210
0.0
220
0.0
230
1.0
 70
     8
 71
     3
 72
    37
 73
    33
 74
     0
 42
0.0000000003709299
 43
0.0000000001
 40
0.5115478807588303
 40
0.5115478807588303
 40
0.5115478807588303
 40
0.5115478807588303
 40
0.514570913238687
 40
0.5309102920664458
 40
0.5437174059504088
 40
0.5591489788733549
 40
0.5917414584123878
 40
0.6054804926921125
 40
0.6212121143407319
 40
0.6307087114971875
 40
0.6362985770435647
 40
0.6494056880067041
 40
0.6715544989915555
 40
0.6843904616699436
 40
0.7147040897297332
 40
0.7465095644217511
 40
0.8117879733162222
 40
0.8197543861351566
 40
0.8277839016706917
 40
0.8411163997398969
 40
0.8473269947294141
 40
0.853219107736124
 40
0.8604965127375747
 40
0.8678442699220122
 40
0.8823069689225296
 40
0.901877624361651
 40
0.9205876218781831
 40
0.9380452608143391
 40
0.9543069716777662
 40
0.9696480468892816
 40
0.9842143116814142
 40
1.0
 40
1.0
 40
1.0
 40
1.0
 10
17.75969012439626
 20
469.5446938921214
 30
0.0
 10
17.75073094557132
 20
469.5498743077727
 30
0.0
 10
17.69280301535751
 20
469.5825067834687
 30
0.0
 10
17.58986077420569
 20
469.6310441857693
 30
0.0
 10
17.43165525134059
 20
469.682385876621
 30
0.0
 10
17.17331605538032
 20
469.7384434039806
 30
0.0
 10
16.81731055080239
 20
469.7688472233666
 30
0.0
 10
16.34270718912394
 20
469.7910544069667
 30
0.0
 10
16.00406270797285
 20
469.8074475112724
 30
0.0
 10
15.72074362105046
 20
469.8212050500039
 30
0.0
 10
15.46245758768784
 20
469.8270043631707
 30
0.0
 10
15.07947963569385
 20
469.8350226115507
 30
0.0
 10
14.6351248052617
 20
469.8217035993396
 30
0.0
 10
14.04313690337577
 20
469.7655578344165
 30
0.0
 10
13.3763705685584
 20
469.646954190441
 30
0.0
 10
12.26589487807153
 20
469.2861221928645
 30
0.0
 10
11.33003127330852
 20
468.848416196819
 30
0.0
 10
10.56545812979665
 20
468.4262325558719
 30
0.0
 10
10.28544234687828
 20
468.2699488332815
 30
0.0
 10
10.01771929216002
 20
468.106522690502
 30
0.0
 10
9.766676652926757
 20
467.9478201308999
 30
0.0
 10
9.574767972028127
 20
467.8195443077225
 30
0.0
 10
9.369895027026676
 20
467.687664494771
 30
0.0
 10
9.081012520284416
 20
467.4920055530284
 30
0.0
 10
8.676730598473236
 20
467.1987365174853
 30
0.0
 10
8.188072693878553
 20
466.8274770284348
 30
0.0
 10
7.72966178237422
 20
466.4107764568744
 30
0.0
 10
7.364756148862905
 20
466.0089617224764
 30
0.0
 10
7.090724367150778
 20
465.6261457624136
 30
0.0
 10
6.898711894101933
 20
465.2631905806656
 30
0.0
 10
6.766662780856764
 20
464.9044053033585
 30
0.0
 10
6.732886347191353
 20
464.6659426682094
 30
0.0
 10
6.716058633869697
 20
464.5419512977089
 30
0.0
  0
SPLINE
  5
196
330
5E
100
AcDbEntity
  8
$DDT_AUDIT_GENERATED_(193)
  6
Continuous
 62
     7
100
AcDbSpline
210
0.0
220
0.0
230
1.0
 70
    12
 71
     3
 72
   236
 73
   232
 74
     0
 42
0.0000000003704483
 43
0.0000000001
 40
0.512646819734712
 40
0.512646819734712
 40
0.512646819734712
 40
0.512646819734712
 40
0.5156253678479865
 40
0.5156253678479865
 40
0.5312504193474125
 40
0.5312504193474125
 40
0.5351566822222691
 40
0.5351566822222691
 40
0.5371098136596971
 40
0.5371098136596971
 40
0.5372318843745365
 40
0.5372318843745365
 40
0.5373539550893757
 40
0.5373539550893757
 40
0.5375980965190543
 40
0.5375980965190543
 40
0.5380863793784113
 40
0.5380863793784113
 40
0.5390629450971254
 40
0.5390629450971254
 40
0.5468754708468386
 40
0.5468754708468386
 40
0.5625005223462645
 40
0.5625005223462645
 40
0.5664067852211211
 40
0.5664067852211211
 40
0.5683599166585491
 40
0.5683599166585491
 40
0.5693364823772633
 40
0.5693364823772633
 40
0.5703130480959775
 40
0.5703130480959775
 40
0.5781255738456904
 40
0.5781255738456904
 40
0.5937506253451166
 40
0.5937506253451166
 40
0.6015631510948295
 40
0.6015631510948295
 40
0.6020514339541867
 40
0.6020514339541867
 40
0.6025397168135437
 40
0.6025397168135437
 40
0.6035162825322578
 40
0.6035162825322578
 40
0.6054694139696861
 40
0.6054694139696861
 40
0.6093756768445424
 40
0.6093756768445424
 40
0.6250007283439684
 40
0.6250007283439684
 40
0.6328132540936813
 40
0.6328132540936813
 40
0.6337898198123955
 40
0.6337898198123955
 40
0.634033961242074
 40
0.634033961242074
 40
0.6342781026717527
 40
0.6342781026717527
 40
0.6347663855311096
 40
0.6347663855311096
 40
0.6367195169685379
 40
0.6367195169685379
 40
0.6406257798433943
 40
0.6406257798433943
 40
0.6562508313428204
 40
0.6562508313428204
 40
0.6640633570925334
 40
0.6640633570925334
 40
0.6660164885299616
 40
0.6660164885299616
 40
0.6665047713893189
 40
0.6665047713893189
 40
0.6667489128189972
 40
0.6667489128189972
 40
0.6669930542486758
 40
0.6669930542486758
 40
0.6679696199673899
 40
0.6679696199673899
 40
0.6718758828422463
 40
0.6718758828422463
 40
0.6875009343416723
 40
0.6875009343416723
 40
0.6953134600913852
 40
0.6953134600913852
 40
0.6972665915288134
 40
0.6972665915288134
 40
0.6982431572475276
 40
0.6982431572475276
 40
0.6987314401068846
 40
0.6987314401068846
 40
0.6989755815365631
 40
0.6989755815365631
 40
0.6992197229662418
 40
0.6992197229662418
 40
0.7031259858410981
 40
0.7031259858410981
 40
0.7187510373405243
 40
0.7187510373405243
 40
0.7265635630902372
 40
0.7265635630902372
 40
0.7304698259650938
 40
0.7304698259650938
 40
0.7343760888399502
 40
0.7343760888399502
 40
0.750001140339376
 40
0.750001140339376
 40
0.7812512433382282
 40
0.7812512433382282
 40
0.7890637690879411
 40
0.7890637690879411
 40
0.7929700319627977
 40
0.7929700319627977
 40
0.7949231634002257
 40
0.7949231634002257
 40
0.7958997291189399
 40
0.7958997291189399
 40
0.796876294837654
 40
0.796876294837654
 40
0.8125013463370799
 40
0.8125013463370799
 40
0.8203138720867929
 40
0.8203138720867929
 40
0.8281263978365061
 40
0.8281263978365061
 40
0.82910296355522
 40
0.82910296355522
 40
0.8300795292739341
 40
0.8300795292739341
 40
0.8320326607113624
 40
0.8320326607113624
 40
0.835938923586219
 40
0.835938923586219
 40
0.8437514493359319
 40
0.8437514493359319
 40
0.8442397321952891
 40
0.8442397321952891
 40
0.8444838736249676
 40
0.8444838736249676
 40
0.8447280150546461
 40
0.8447280150546461
 40
0.8457045807733603
 40
0.8457045807733603
 40
0.8476577122107886
 40
0.8476577122107886
 40
0.851563975085645
 40
0.851563975085645
 40
0.8593765008353579
 40
0.8593765008353579
 40
0.8603530665540721
 40
0.8603530665540721
 40
0.8605972079837506
 40
0.8605972079837506
 40
0.8608413494134292
 40
0.8608413494134292
 40
0.8613296322727861
 40
0.8613296322727861
 40
0.8632827637102145
 40
0.8632827637102145
 40
0.8671890265850708
 40
0.8671890265850708
 40
0.875001552334784
 40
0.875001552334784
 40
0.8906266038342099
 40
0.8906266038342099
 40
0.8925797352716383
 40
0.8925797352716383
 40
0.8930680181309955
 40
0.8930680181309955
 40
0.8935563009903523
 40
0.8935563009903523
 40
0.8945328667090665
 40
0.8945328667090665
 40
0.8984391295839229
 40
0.8984391295839229
 40
0.9023453924587794
 40
0.9023453924587794
 40
0.9042985238962076
 40
0.9042985238962076
 40
0.9062516553336358
 40
0.9062516553336358
 40
0.9218767068330619
 40
0.9218767068330619
 40
0.92382983827049
 40
0.92382983827049
 40
0.9248064039892042
 40
0.9248064039892042
 40
0.9252946868485612
 40
0.9252946868485612
 40
0.9257829697079183
 40
0.9257829697079183
 40
0.9296892325827749
 40
0.9296892325827749
 40
0.9375017583324878
 40
0.9375017583324878
 40
0.9414080212073443
 40
0.9414080212073443
 40
0.9423845869260584
 40
0.9423845869260584
 40
0.9433611526447725
 40
0.9433611526447725
 40
0.9453142840822009
 40
0.9453142840822009
 40
0.9531268098319138
 40
0.9531268098319138
 40
0.9570330727067703
 40
0.9570330727067703
 40
0.9575213555661273
 40
0.9575213555661273
 40
0.9580096384254843
 40
0.9580096384254843
 40
0.9589862041441984
 40
0.9589862041441984
 40
0.9609393355816267
 40
0.9609393355816267
 40
0.9687518613313398
 40
0.9687518613313398
 40
0.9843769128307658
 40
0.9843769128307658
 40
0.9882831757056223
 40
0.9882831757056223
 40
0.9892597414243364
 40
0.9892597414243364
 40
0.9897480242836934
 40
0.9897480242836934
 40
0.9899921657133719
 40
0.9899921657133719
 40
0.9902363071430504
 40
0.9902363071430504
 40
0.9921894385804788
 40
0.9921894385804788
 40
1.0
 40
1.0
 40
1.0
 40
1.0
 10
46.35141807729866
 20
469.5449784960711
 30
0.0
 41
0.9999999999999547
 10
46.36014634445046
 20
469.5500234925668
 30
0.0
 41
0.9999999999999547
 10
46.36902436167969
 20
469.5550263827909
 30
0.0
 41
0.9999999999999547
 10
46.42546760857237
 20
469.5859705217513
 30
0.0
 41
0.9999999999999547
 10
46.47717975947093
 20
469.6106094658849
 30
0.0
 41
0.9999999999999547
 10
46.54976048796067
 20
469.6387263090434
 30
0.0
 41
0.9999999999999549
 10
46.56467881324274
 20
469.6442167476022
 30
0.0
 41
0.9999999999999549
 10
46.58772347752028
 20
469.6522384519329
 30
0.0
 41
0.9999999999999549
 10
46.59551629751257
 20
469.6548767153278
 30
0.0
 41
0.9999999999999549
 10
46.60392049149473
 20
469.6576408609826
 30
0.0
 41
0.9999999999999549
 10
46.60427601369921
 20
469.6577560767375
 30
0.0
 41
0.9999999999999549
 10
46.60471132240746
 20
469.6578931041436
 30
0.0
 41
0.9999999999999549
 10
46.60492988656999
 20
469.6579618600824
 30
0.0
 41
0.9999999999999549
 10
46.6055883109929
 20
469.6581688513295
 30
0.0
 41
0.9999999999999549
 10
46.60603090315119
 20
469.6583078100337
 30
0.0
 41
0.9999999999999549
 10
46.60736962794495
 20
469.6587275532517
 30
0.0
 41
0.9999999999999549
 10
46.60827670855718
 20
469.6590112048358
 30
0.0
 41
0.9999999999999549
 10
46.61104191891066
 20
469.659873413975
 30
0.0
 41
0.9999999999999549
 10
46.61294401253254
 20
469.6604632264968
 30
0.0
 41
0.9999999999999549
 10
46.63059516842737
 20
469.6659013856017
 30
0.0
 41
0.9999999999999549
 10
46.65004779645473
 20
469.6716630206853
 30
0.0
 41
0.9999999999999549
 10
46.72097338797032
 20
469.6907523425955
 30
0.0
 41
0.9999999999999551
 10
46.78463294210441
 20
469.7058569197861
 30
0.0
 41
0.9999999999999551
 10
46.89375858808198
 20
469.724161555174
 30
0.0
 41
0.9999999999999554
 10
46.91709109283742
 20
469.7277961722249
 30
0.0
 41
0.9999999999999554
 10
46.95461573107485
 20
469.7331591357603
 30
0.0
 41
0.9999999999999556
 10
46.96754534508368
 20
469.7349321012513
 30
0.0
 41
0.9999999999999556
 10
46.98760867546089
 20
469.7375648507247
 30
0.0
 41
0.9999999999999556
 10
46.99440796216359
 20
469.738437996022
 30
0.0
 41
0.9999999999999556
 10
47.0082359840839
 20
469.740174790975
 30
0.0
 41
0.9999999999999556
 10
47.01358329159685
 20
469.7408093363968
 30
0.0
 41
0.9999999999999558
 10
47.0661191135754
 20
469.7470126756744
 30
0.0
 41
0.9999999999999558
 10
47.11330674809518
 20
469.7516898625171
 30
0.0
 41
0.999999999999956
 10
47.25555166352544
 20
469.7639957856969
 30
0.0
 41
0.9999999999999565
 10
47.35132835999259
 20
469.7699627436859
 30
0.0
 41
0.9999999999999569
 10
47.49204740367237
 20
469.7775869127978
 30
0.0
 41
0.9999999999999576
 10
47.53844992610796
 20
469.7798910052991
 30
0.0
 41
0.9999999999999578
 10
47.58680386596691
 20
469.7821714820557
 30
0.0
 41
0.999999999999958
 10
47.58975967278111
 20
469.7823128070696
 30
0.0
 41
0.999999999999958
 10
47.59678175249109
 20
469.7826692547553
 30
0.0
 41
0.999999999999958
 10
47.60030473691635
 20
469.7828477327478
 30
0.0
 41
0.999999999999958
 10
47.61090956052256
 20
469.7833839896643
 30
0.0
 41
0.9999999999999583
 10
47.61802727243372
 20
469.7837425920346
 30
0.0
 41
0.9999999999999583
 10
47.63952410269272
 20
469.7848221585428
 30
0.0
 41
0.9999999999999583
 10
47.65404695693634
 20
469.7855468930949
 30
0.0
 41
0.9999999999999585
 10
47.69819062244471
 20
469.7877395493986
 30
0.0
 41
0.9999999999999587
 10
47.72838725409652
 20
469.7892261869617
 30
0.0
 41
0.9999999999999587
 10
47.88316943392361
 20
469.7968159201079
 30
0.0
 41
0.9999999999999596
 10
48.01935666015449
 20
469.8035358174155
 30
0.0
 41
0.9999999999999605
 10
48.23881228195293
 20
469.8137163612213
 30
0.0
 41
0.9999999999999618
 10
48.31444770812796
 20
469.8170942383896
 30
0.0
 41
0.9999999999999623
 10
48.40186966352403
 20
469.8205860583172
 30
0.0
 41
0.9999999999999627
 10
48.41161562745019
 20
469.8209696241887
 30
0.0
 41
0.9999999999999629
 10
48.42383764519935
 20
469.8214428017636
 30
0.0
 41
0.9999999999999629
 10
48.4262840269985
 20
469.8215371232224
 30
0.0
 41
0.9999999999999629
 10
48.43118072356288
 20
469.8217251185491
 30
0.0
 41
0.9999999999999629
 10
48.43374339999622
 20
469.8218243481654
 30
0.0
 41
0.9999999999999629
 10
48.43687372951791
 20
469.8218916119544
 30
0.0
 41
0.9999999999999629
 10
48.43899788118353
 20
469.8219380328209
 30
0.0
 41
0.9999999999999629
 10
48.44980538050675
 20
469.8221778578759
 30
0.0
 41
0.9999999999999631
 10
48.45904908262163
 20
469.8223944812242
 30
0.0
 41
0.9999999999999631
 10
48.48858561876045
 20
469.8231107240953
 30
0.0
 41
0.9999999999999634
 10
48.51068481956464
 20
469.8236776005284
 30
0.0
 41
0.9999999999999634
 10
48.63330915859032
 20
469.8268052256671
 30
0.0
 41
0.9999999999999643
 10
48.77041559738845
 20
469.8306807567018
 30
0.0
 41
0.9999999999999649
 10
49.03331827827211
 20
469.8310719980884
 30
0.0
 41
0.9999999999999665
 10
49.13043156123482
 20
469.8302015303927
 30
0.0
 41
0.9999999999999669
 10
49.26361999381532
 20
469.8264054467547
 30
0.0
 41
0.9999999999999676
 10
49.29084684390042
 20
469.8255092707833
 30
0.0
 41
0.9999999999999678
 10
49.32561572456517
 20
469.8241916183172
 30
0.0
 41
0.999999999999968
 10
49.33260627259703
 20
469.8239182119535
 30
0.0
 41
0.999999999999968
 10
49.3431472497549
 20
469.823492784089
 30
0.0
 41
0.999999999999968
 10
49.34505227677474
 20
469.8234016964855
 30
0.0
 41
0.999999999999968
 10
49.34988990534909
 20
469.8231844662347
 30
0.0
 41
0.999999999999968
 10
49.35230609571106
 20
469.8230748743695
 30
0.0
 41
0.999999999999968
 10
49.3643739346995
 20
469.8225220558161
 30
0.0
 41
0.999999999999968
 10
49.37398624414858
 20
469.822064250338
 30
0.0
 41
0.9999999999999682
 10
49.42183844320869
 20
469.8196990722317
 30
0.0
 41
0.9999999999999685
 10
49.45945020936439
 20
469.8175630613899
 30
0.0
 41
0.9999999999999685
 10
49.64419287373935
 20
469.8057745385141
 30
0.0
 41
0.9999999999999694
 10
49.78139737082573
 20
469.7927907786762
 30
0.0
 41
0.99999999999997
 10
49.97185275479384
 20
469.7703450322131
 30
0.0
 41
0.9999999999999707
 10
50.03277444401201
 20
469.7623689432098
 30
0.0
 41
0.9999999999999711
 10
50.10573539054176
 20
469.7520156260804
 30
0.0
 41
0.9999999999999714
 10
50.12017342174445
 20
469.7499346971446
 30
0.0
 41
0.9999999999999714
 10
50.14155649944595
 20
469.7467330917713
 30
0.0
 41
0.9999999999999714
 10
50.14863953183552
 20
469.7456540880772
 30
0.0
 41
0.9999999999999716
 10
50.15919730539309
 20
469.7440185812086
 30
0.0
 41
0.9999999999999716
 10
50.16270543384704
 20
469.743470578519
 30
0.0
 41
0.9999999999999716
 10
50.16795095751815
 20
469.7426444105851
 30
0.0
 41
0.9999999999999716
 10
50.1697149621888
 20
469.7423659663834
 30
0.0
 41
0.9999999999999716
 10
50.17440867783543
 20
469.7416456574095
 30
0.0
 41
0.9999999999999716
 10
50.17675421240413
 20
469.7412841569617
 30
0.0
 41
0.9999999999999716
 10
50.21660588478379
 20
469.7351158649806
 30
0.0
 41
0.9999999999999718
 10
50.25377606270287
 20
469.7289674087876
 30
0.0
 41
0.9999999999999718
 10
50.43802794442709
 20
469.6966231856485
 30
0.0
 41
0.9999999999999725
 10
50.58035848720342
 20
469.6656428795317
 30
0.0
 41
0.9999999999999729
 10
50.78729668058042
 20
469.6134141818586
 30
0.0
 41
0.9999999999999736
 10
50.85517398783166
 20
469.5950406110894
 30
0.0
 41
0.9999999999999738
 10
50.95540282518687
 20
469.5662386819953
 30
0.0
 41
0.9999999999999742
 10
50.98854755480016
 20
469.5564309120758
 30
0.0
 41
0.9999999999999742
 10
51.05431437607167
 20
469.5364330298681
 30
0.0
 41
0.9999999999999745
 10
51.09084839749606
 20
469.525309366346
 30
0.0
 41
0.9999999999999747
 10
51.26851983601975
 20
469.4694748365407
 30
0.0
 41
0.9999999999999751
 10
51.41121231426195
 20
469.4203361501433
 30
0.0
 41
0.9999999999999756
 10
51.84239952202263
 20
469.2604044402563
 30
0.0
 41
0.9999999999999767
 10
52.13404591545561
 20
469.1371853279434
 30
0.0
 41
0.9999999999999774
 10
52.50746188744758
 20
468.9638036544604
 30
0.0
 41
0.9999999999999782
 10
52.58258406274651
 20
468.9281522747419
 30
0.0
 41
0.9999999999999785
 10
52.69598358596797
 20
468.8732188419366
 30
0.0
 41
0.9999999999999787
 10
52.73390277016931
 20
468.8546648981439
 30
0.0
 41
0.9999999999999789
 10
52.7909674884156
 20
468.8264699407379
 30
0.0
 41
0.9999999999999789
 10
52.81002004946966
 20
468.8170109438632
 30
0.0
 41
0.9999999999999791
 10
52.83864622112666
 20
468.8027314156632
 30
0.0
 41
0.9999999999999791
 10
52.84819616656916
 20
468.7979564005341
 30
0.0
 41
0.9999999999999791
 10
52.86731197363112
 20
468.7883760198916
 30
0.0
 41
0.9999999999999791
 10
52.87555472583459
 20
468.7841016977834
 30
0.0
 41
0.9999999999999791
 10
53.02670480123296
 20
468.7068490213566
 30
0.0
 41
0.9999999999999796
 10
53.17182506536128
 20
468.6303258231094
 30
0.0
 41
0.9999999999999798
 10
53.39432464313697
 20
468.5095603306611
 30
0.0
 41
0.9999999999999802
 10
53.46929428045791
 20
468.4683072227979
 30
0.0
 41
0.9999999999999805
 10
53.62092626442237
 20
468.3837486325751
 30
0.0
 41
0.9999999999999807
 10
53.69786682199339
 20
468.3404146924233
 30
0.0
 41
0.9999999999999809
 10
53.784666222616
 20
468.2908994167879
 30
0.0
 41
0.9999999999999811
 10
53.79574816772241
 20
468.2847118878177
 30
0.0
 41
0.9999999999999811
 10
53.81640528777223
 20
468.2730206466307
 30
0.0
 41
0.9999999999999811
 10
53.8265662884789
 20
468.2672424097502
 30
0.0
 41
0.9999999999999811
 10
53.85655146290401
 20
468.2501100563089
 30
0.0
 41
0.9999999999999811
 10
53.87587781626068
 20
468.2389582776237
 30
0.0
 41
0.9999999999999813
 10
53.93190299986998
 20
468.2063154562546
 30
0.0
 41
0.9999999999999813
 10
53.96664669616834
 20
468.1856376864089
 30
0.0
 41
0.9999999999999813
 10
54.06337437415539
 20
468.1268762667858
 30
0.0
 41
0.9999999999999816
 10
54.11775503384436
 20
468.0921248009896
 30
0.0
 41
0.9999999999999816
 10
54.16635336796576
 20
468.0595532123254
 30
0.0
 41
0.9999999999999818
 10
54.16917895841507
 20
468.0576528738798
 30
0.0
 41
0.9999999999999818
 10
54.17336866853317
 20
468.0548254219889
 30
0.0
 41
0.9999999999999818
 10
54.17445332570411
 20
468.0540398928579
 30
0.0
 41
0.9999999999999818
 10
54.17851544733024
 20
468.0515145356205
 30
0.0
 41
0.9999999999999818
 10
54.1805440690278
 20
468.0502525289857
 30
0.0
 41
0.9999999999999818
 10
54.19067501068205
 20
468.0439458565635
 30
0.0
 41
0.9999999999999818
 10
54.19874082916397
 20
468.038911272968
 30
0.0
 41
0.9999999999999818
 10
54.22282258204134
 20
468.0238398206472
 30
0.0
 41
0.9999999999999818
 10
54.23872280544632
 20
468.0138352520396
 30
0.0
 41
0.9999999999999818
 10
54.28596968034123
 20
467.9839510212672
 30
0.0
 41
0.999999999999982
 10
54.31686235524814
 20
467.9642009260324
 30
0.0
 41
0.999999999999982
 10
54.40780230266877
 20
467.9054690476115
 30
0.0
 41
0.9999999999999822
 10
54.46610739731089
 20
467.8670086779692
 30
0.0
 41
0.9999999999999822
 10
54.52936768198774
 20
467.8244935996639
 30
0.0
 41
0.9999999999999822
 10
54.53636428407273
 20
467.8197800974983
 30
0.0
 41
0.9999999999999822
 10
54.54507033947554
 20
467.8139010820921
 30
0.0
 41
0.9999999999999822
 10
54.54680956573764
 20
467.8127259220611
 30
0.0
 41
0.9999999999999822
 10
54.55028406669279
 20
467.8103768844761
 30
0.0
 41
0.9999999999999822
 10
54.55322735469753
 20
467.8085465850501
 30
0.0
 41
0.9999999999999822
 10
54.56042918880427
 20
467.803937002409
 30
0.0
 41
0.9999999999999825
 10
54.56522423016855
 20
467.80086370764
 30
0.0
 41
0.9999999999999825
 10
54.58916869064615
 20
467.785496027807
 30
0.0
 41
0.9999999999999825
 10
54.60822586876554
 20
467.7731980285246
 30
0.0
 41
0.9999999999999825
 10
54.66510840002846
 20
467.7362920956843
 30
0.0
 41
0.9999999999999825
 10
54.70264472163979
 20
467.7116723120798
 30
0.0
 41
0.9999999999999825
 10
54.81414769067007
 20
467.637760131661
 30
0.0
 41
0.9999999999999827
 10
54.88700794899543
 20
467.5884168116186
 30
0.0
 41
0.9999999999999827
 10
55.10157900326925
 20
467.4400811150631
 30
0.0
 41
0.9999999999999831
 10
55.24278462103763
 20
467.338706323536
 30
0.0
 41
0.9999999999999831
 10
55.39812895145005
 20
467.2222977373025
 30
0.0
 41
0.9999999999999833
 10
55.4153434094128
 20
467.2093286478545
 30
0.0
 41
0.9999999999999833
 10
55.43680242668264
 20
467.1930733331197
 30
0.0
 41
0.9999999999999833
 10
55.44053920764488
 20
467.1901890244092
 30
0.0
 41
0.9999999999999833
 10
55.45260834393751
 20
467.1813454266457
 30
0.0
 41
0.9999999999999833
 10
55.45863735324971
 20
467.1769184313818
 30
0.0
 41
0.9999999999999833
 10
55.47670748918961
 20
467.163621807837
 30
0.0
 41
0.9999999999999833
 10
55.48873172566233
 20
467.1547365418354
 30
0.0
 41
0.9999999999999833
 10
55.54873731159059
 20
467.1102053118367
 30
0.0
 41
0.9999999999999836
 10
55.59637251203549
 20
467.0742446251084
 30
0.0
 41
0.9999999999999836
 10
55.69081756377115
 20
467.0016354762465
 30
0.0
 41
0.9999999999999836
 10
55.73762741492958
 20
466.9649869806836
 30
0.0
 41
0.9999999999999838
 10
55.80714570799893
 20
466.9094869569414
 30
0.0
 41
0.9999999999999838
 10
55.83020226265151
 20
466.8908990813708
 30
0.0
 41
0.9999999999999838
 10
55.8760685155532
 20
466.8535458796284
 30
0.0
 41
0.9999999999999838
 10
55.90007234420249
 20
466.8338563062192
 30
0.0
 41
0.9999999999999838
 10
56.08028782818652
 20
466.6825650186435
 30
0.0
 41
0.999999999999984
 10
56.23445426481226
 20
466.5434351191125
 30
0.0
 41
0.9999999999999842
 10
56.39707445353776
 20
466.3816150417273
 30
0.0
 41
0.9999999999999842
 10
56.41499185633897
 20
466.3635618886828
 30
0.0
 41
0.9999999999999845
 10
56.44162868762253
 20
466.3363728772377
 30
0.0
 41
0.9999999999999845
 10
56.45046774983194
 20
466.3272916613561
 30
0.0
 41
0.9999999999999845
 10
56.46366499603431
 20
466.3136425882674
 30
0.0
 41
0.9999999999999845
 10
56.46812957413701
 20
466.3090147721246
 30
0.0
 41
0.9999999999999845
 10
56.4767351422383
 20
466.300044404334
 30
0.0
 41
0.9999999999999845
 10
56.4800457989238
 20
466.2965124416125
 30
0.0
 41
0.9999999999999845
 10
56.5141043358494
 20
466.2604851072756
 30
0.0
 41
0.9999999999999845
 10
56.54388684280942
 20
466.2282428334015
 30
0.0
 41
0.9999999999999845
 10
56.63161897434857
 20
466.1308755798743
 30
0.0
 41
0.9999999999999847
 10
56.68795486632202
 20
466.0651030822353
 30
0.0
 41
0.9999999999999847
 10
56.76864903359552
 20
465.9652579979174
 30
0.0
 41
0.9999999999999847
 10
56.79491151719677
 20
465.9317821678633
 30
0.0
 41
0.9999999999999847
 10
56.8268878366644
 20
465.8897081902637
 30
0.0
 41
0.9999999999999849
 10
56.83217643793119
 20
465.8826099051341
 30
0.0
 41
0.9999999999999849
 10
56.84362804707472
 20
465.867227084024
 30
0.0
 41
0.9999999999999849
 10
56.84931540096899
 20
465.8595307331906
 30
0.0
 41
0.9999999999999849
 10
56.86626278309897
 20
465.83642493049
 30
0.0
 41
0.9999999999999849
 10
56.87740816765523
 20
465.8209987224328
 30
0.0
 41
0.9999999999999849
 10
56.93237752373815
 20
465.7437306215367
 30
0.0
 41
0.9999999999999849
 10
56.97394007564602
 20
465.6814749205345
 30
0.0
 41
0.9999999999999849
 10
57.03265778341214
 20
465.5869715228888
 30
0.0
 41
0.9999999999999851
 10
57.05162372418002
 20
465.5552842814008
 30
0.0
 41
0.9999999999999851
 10
57.07226268566792
 20
465.5193877724529
 30
0.0
 41
0.9999999999999851
 10
57.07454620251042
 20
465.5153958252105
 30
0.0
 41
0.9999999999999851
 10
57.07909376325809
 20
465.5074049082326
 30
0.0
 41
0.9999999999999851
 10
57.08106527725624
 20
465.5038980528137
 30
0.0
 41
0.9999999999999851
 10
57.08712961474953
 20
465.4930821728572
 30
0.0
 41
0.9999999999999851
 10
57.09114243490733
 20
465.4858586690032
 30
0.0
 41
0.9999999999999851
 10
57.10308977021895
 20
465.4641483085535
 30
0.0
 41
0.9999999999999851
 10
57.11093317734307
 20
465.4496216015793
 30
0.0
 41
0.9999999999999851
 10
57.14952961193498
 20
465.3767078772338
 30
0.0
 41
0.9999999999999851
 10
57.17842620200891
 20
465.3174796981741
 30
0.0
 41
0.9999999999999853
 10
57.25853759863346
 20
465.1365599372945
 30
0.0
 41
0.9999999999999853
 10
57.30323299150377
 20
465.0116262389442
 30
0.0
 41
0.9999999999999856
 10
57.34512773815592
 20
464.8483579666924
 30
0.0
 41
0.9999999999999856
 10
57.35280335137411
 20
464.8153497730704
 30
0.0
 41
0.9999999999999858
 10
57.36145955517424
 20
464.7736208879762
 30
0.0
 41
0.9999999999999858
 10
57.3631438648022
 20
464.7652516799288
 30
0.0
 41
0.9999999999999858
 10
57.36559877786608
 20
464.752662246593
 30
0.0
 41
0.9999999999999858
 10
57.36640515680214
 20
464.7484598319681
 30
0.0
 41
0.9999999999999858
 10
57.36759669108657
 20
464.7421472454675
 30
0.0
 41
0.9999999999999858
 10
57.36803956741171
 20
464.7397819164194
 30
0.0
 41
0.9999999999999858
 10
57.3687187374633
 20
464.736117360281
 30
0.0
 41
0.9999999999999858
 10
57.36894606530612
 20
464.7348740340844
 30
0.0
 41
0.9999999999999858
 10
57.3714230133161
 20
464.7213105330023
 30
0.0
 41
0.9999999999999858
 10
57.37353099922939
 20
464.7091925822747
 30
0.0
 41
0.9999999999999858
 10
57.38361771518959
 20
464.648067440702
 30
0.0
 41
0.9999999999999858
 10
57.39032201252441
 20
464.5974228328616
 30
0.0
 41
0.9999999999999858
 10
57.39454684913561
 20
464.5419512977089
 30
0.0
 41
0.9999999999999858
  0
SPLINE
  5
197
330
5E
100
AcDbEntity
  8
$DDT_AUDIT_GENERATED_(193)
  6
Continuous
 62
     7
100
AcDbSpline
210
0.0
220
0.0
230
1.0
 70
     8
 71
     3
 72
     8
 73
     4
 74
     0
 42
0.0000000049507503
 43
0.0000000001
 40
0.1325603166345825
 40
0.1325603166345825
 40
0.1325603166345825
 40
0.1325603166345825
 40
0.1424807396392754
 40
0.1424807396392754
 40
0.1424807396392754
 40
0.1424807396392754
 10
44.42182663829751
 20
459.2688229328727
 30
0.0
 10
44.42843043684238
 20
459.270284494503
 30
0.0
 10
44.43494313764515
 20
459.271762569547
 30
0.0
 10
44.44136802669217
 20
459.2732565373933
 30
0.0
  0
ARC
  5
198
330
5E
100
AcDbEntity
  8
$DDT_AUDIT_GENERATED_(193)
  6
Continuous
 62
     7
100
AcDbCircle
 10
5893.6030699754
 20
384.0220802325
 30
0.0
 40
5887.437654356766
100
AcDbArc
 50
179.2163666293
 51
179.2722407527
  0
SPLINE
  5
199
330
5E
100
AcDbEntity
  8
$DDT_AUDIT_GENERATED_(193)
  6
Continuous
 62
     7
100
AcDbSpline
210
0.0
220
0.0
230
1.0
 70
     8
 71
     3
 72
     8
 73
     4
 74
     0
 42
0.0000000026781067
 43
0.0000000001
 40
0.0
 40
0.0
 40
0.0
 40
0.0
 40
0.3024533473336972
 40
0.3024533473336972
 40
0.3024533473336972
 40
0.3024533473336972
 10
6.363494287883801
 20
432.3161005315976
 30
0.0
 10
6.355331502803121
 20
431.8951148229874
 30
0.0
 10
6.369906600248526
 20
431.5200648578562
 30
0.0
 10
6.413023715124387
 20
431.1899112423454
 30
0.0
  0
ARC
  5
19A
330
5E
100
AcDbEntity
  8
$DDT_AUDIT_GENERATED_(193)
  6
Continuous
 62
     7
100
AcDbCircle
 10
-3655.150791969
 20
408.0731579873
 30
0.0
 40
3712.974766598659
100
AcDbArc
 50
0.7858543725
 51
0.8140167854
  0
SPLINE
  5
19B
330
5E
100
AcDbEntity
  8
$DDT_AUDIT_GENERATED_(193)
  6
Continuous
 62
     7
100
AcDbSpline
210
0.0
220
0.0
230
1.0
 70
     8
 71
     3
 72
    10
 73
     6
 74
     0
 42
0.0000000027012541
 43
0.0000000001
 40
0.6741152543492821
 40
0.6741152543492821
 40
0.6741152543492821
 40
0.6741152543492821
 40
0.7500000000000002
 40
0.7500000000000002
 40
0.9690959465936667
 40
0.9690959465936667
 40
0.9690959465936667
 40
0.9690959465936667
 10
57.68815781266339
 20
431.122347136436
 30
0.0
 10
57.70012173650092
 20
431.2047910515408
 30
0.0
 10
57.71019955246231
 20
431.290043162231
 30
0.0
 10
57.7424540310946
 20
431.6323258337637
 30
0.0
 10
57.75158301315533
 20
431.909830508588
 30
0.0
 10
57.74826587248618
 20
432.2112191107416
 30
0.0
  0
ARC
  5
19C
330
5E
100
AcDbEntity
  8
$DDT_AUDIT_GENERATED_(193)
  6
Continuous
 62
     7
100
AcDbCircle
 10
1558.5479778561
 20
440.675244731
 30
0.0
 40
1552.017371059469
100
AcDbArc
 50
179.1217858706
 51
179.2726284561
  0
ARC
  5
19D
330
5E
100
AcDbEntity
  8
$DDT_AUDIT_GENERATED_(193)
  6
Continuous
 62
     7
100
AcDbCircle
 10
8164.2822287113
 20
361.6926680986
 30
0.0
 40
8158.2247198658
100
AcDbArc
 50
179.3179760663
 51
179.504635078
  0
ARC
  5
19E
330
5E
100
AcDbEntity
  8
$DDT_AUDIT_GENERATED_(193)
  6
Continuous
 62
     7
100
AcDbCircle
 10
32.0526393539
 20
525.4209555414
 30
0.0
 40
67.34254179435425
100
AcDbArc
 50
262.7058100673
 51
277.4590662663
  0
ARC
  5
19F
330
5E
100
AcDbEntity
  8
$DDT_AUDIT_GENERATED_(193)
  6
Continuous
 62
     7
100
AcDbCircle
 10
32.0565991039
 20
390.3515836085
 30
0.0
 40
83.34415695453929
100
AcDbArc
 50
79.0300129038
 51
100.9714337048
  0
ARC
  5
1A0
330
5E
100
AcDbEntity
  8
$DDT_AUDIT_GENERATED_(193)
  6
Continuous
 62
     7
100
AcDbCircle
 10
31.2756358116
 20
515.6217241063
 30
0.0
 40
57.53116516732486
100
AcDbArc
 50
258.3827301313
 51
262.7249302524
  0
ARC
  5
1A1
330
5E
100
AcDbEntity
  8
$DDT_AUDIT_GENERATED_(193)
  6
Continuous
 62
     7
100
AcDbCircle
 10
9.6383554737
 20
464.4509804911
 30
0.0
 40
2.923728986440397
100
AcDbArc
 50
174.2586678686
 51
179.2348592838
  0
SPLINE
  5
1A2
330
5E
100
AcDbEntity
  8
$DDT_AUDIT_GENERATED_(193)
  6
Continuous
 62
     7
100
AcDbSpline
210
0.0
220
0.0
230
1.0
 70
     8
 71
     3
 72
    61
 73
    57
 74
     0
 42
0.000000001129355
 43
0.0000000001
 40
0.0
 40
0.0
 40
0.0
 40
0.0
 40
0.0223226447272911
 40
0.0491893855414099
 40
0.0744292542554412
 40
0.0857078381285858
 40
0.0932210560410514
 40
0.10035774876388
 40
0.1072213856162239
 40
0.1137965178118353
 40
0.1247436151504786
 40
0.1346186516273929
 40
0.1428452331752096
 40
0.1487335360813368
 40
0.1540085833959159
 40
0.1592419627528923
 40
0.1833041297684685
 40
0.194458438133134
 40
0.2076683143495463
 40
0.2196970108548494
 40
0.2303475337193799
 40
0.240493504976255
 40
0.2527579244515039
 40
0.2698365269988565
 40
0.2875655066410508
 40
0.3059459635416705
 40
0.3255148588917712
 40
0.3495825440477597
 40
0.3721036987480235
 40
0.3928037680979924
 40
0.410842726847281
 40
0.4255997895827749
 40
0.4405086389014765
 40
0.4562242195053414
 40
0.4722602737414389
 40
0.487908039811506
 40
0.5049326365324387
 40
0.5267383849261688
 40
0.5503757321310819
 40
0.575795546753331
 40
0.604427775579704
 40
0.6438928490550639
 40
0.6865851405896839
 40
0.732250835264145
 40
0.780520226542888
 40
0.7980404401168304
 40
0.8204109194563859
 40
0.8454816905070675
 40
0.8707415277894179
 40
0.8961160104440058
 40
0.9127541451562555
 40
0.9293826667278953
 40
0.9459760163793772
 40
0.963405986579824
 40
0.9816494269506797
 40
1.0
 40
1.0
 40
1.0
 40
1.0
 10
17.75928434915391
 20
469.5443303622043
 30
0.0
 10
17.76923939996456
 20
469.5371671603525
 30
0.0
 10
17.78748603009395
 20
469.5239554025578
 30
0.0
 10
17.82494322984366
 20
469.4890426491112
 30
0.0
 10
17.85067018358462
 20
469.4621445291867
 30
0.0
 10
17.8814580300799
 20
469.4321296624655
 30
0.0
 10
17.88203134075507
 20
469.4296415901532
 30
0.0
 10
17.88596716868404
 20
469.4251874117528
 30
0.0
 10
17.88970058481813
 20
469.4211101354871
 30
0.0
 10
17.89490954156124
 20
469.4156468069393
 30
0.0
 10
17.90140385679177
 20
469.408731066589
 30
0.0
 10
17.908882376324
 20
469.4002243195633
 30
0.0
 10
17.91541266242353
 20
469.3918881854146
 30
0.0
 10
17.91476787607272
 20
469.3925303137908
 30
0.0
 10
17.91583525940536
 20
469.3910574045591
 30
0.0
 10
17.9184885981333
 20
469.3871281502963
 30
0.0
 10
17.92416203693717
 20
469.3779566148552
 30
0.0
 10
17.93597129931166
 20
469.3532077517383
 30
0.0
 10
17.95081770958528
 20
469.3181768011761
 30
0.0
 10
17.96022733556604
 20
469.2890527942601
 30
0.0
 10
17.96767392471963
 20
469.2611212914165
 30
0.0
 10
17.96997103928277
 20
469.2437428540098
 30
0.0
 10
17.97949459771735
 20
469.2017605276174
 30
0.0
 10
17.9953061489612
 20
469.1273165657373
 30
0.0
 10
18.00956209417766
 20
469.0400238602712
 30
0.0
 10
18.02332946386954
 20
468.9375848305029
 30
0.0
 10
18.03692601846402
 20
468.812116249156
 30
0.0
 10
18.04960394396635
 20
468.6652015560514
 30
0.0
 10
18.06008361557253
 20
468.5069671463332
 30
0.0
 10
18.06856230515184
 20
468.3534922189727
 30
0.0
 10
18.07505269935472
 20
468.2135612914892
 30
0.0
 10
18.08093578991347
 20
468.0811485799638
 30
0.0
 10
18.08671345538375
 20
467.9482844944517
 30
0.0
 10
18.09268112443513
 20
467.8055621489955
 30
0.0
 10
18.09828181964434
 20
467.6573154848344
 30
0.0
 10
18.10339151561056
 20
467.501163380505
 30
0.0
 10
18.10893325350908
 20
467.3217139530969
 30
0.0
 10
18.11482810807601
 20
467.1098771893506
 30
0.0
 10
18.12101274845106
 20
466.8617460673996
 30
0.0
 10
18.12717689186789
 20
466.5807336160744
 30
0.0
 10
18.13432696371608
 20
466.2308527902969
 30
0.0
 10
18.14216736185505
 20
465.7994902041826
 30
0.0
 10
18.1511921605279
 20
465.2788972174303
 30
0.0
 10
18.16169145298608
 20
464.6968989468284
 30
0.0
 10
18.17198750528496
 20
464.2002960229593
 30
0.0
 10
18.1815519099991
 20
463.7953303197078
 30
0.0
 10
18.18966512038588
 20
463.4925337177258
 30
0.0
 10
18.19987289331092
 20
463.146921233347
 30
0.0
 10
18.21193681164213
 20
462.7794477273988
 30
0.0
 10
18.22414666175267
 20
462.4462210605487
 30
0.0
 10
18.23600655407751
 20
462.1508987397
 30
0.0
 10
18.246980468794
 20
461.8966839396097
 30
0.0
 10
18.25913232978541
 20
461.6346572301303
 30
0.0
 10
18.27270608044385
 20
461.3627454179389
 30
0.0
 10
18.28835548452296
 20
461.0711039775577
 30
0.0
 10
18.29908459795184
 20
460.8887009910384
 30
0.0
 10
18.30550635755409
 20
460.7800260109166
 30
0.0
  0
SPLINE
  5
1A3
330
5E
100
AcDbEntity
  8
$DDT_AUDIT_GENERATED_(193)
  6
Continuous
 62
     7
100
AcDbSpline
210
0.0
220
0.0
230
1.0
 70
     8
 71
     3
 72
    61
 73
    57
 74
     0
 42
0.000000000788542
 43
0.0000000001
 40
0.0
 40
0.0
 40
0.0
 40
0.0
 40
0.012647133427637
 40
0.0279971943805293
 40
0.0460543904040771
 40
0.0668578486497797
 40
0.0797352578542351
 40
0.0896456842795925
 40
0.0992706409105078
 40
0.108610191858116
 40
0.1176641477311585
 40
0.1306076524902586
 40
0.1429154485259303
 40
0.1545843838698467
 40
0.1675397196394704
 40
0.1819832181804472
 40
0.1960426758038981
 40
0.2318507264504578
 40
0.2663579055360056
 40
0.3012011738073728
 40
0.33473540316052
 40
0.3721785811461202
 40
0.4068570848516533
 40
0.4386998757650925
 40
0.466817270212266
 40
0.4958228237691381
 40
0.5258057747720857
 40
0.5472623325289802
 40
0.5636509448892929
 40
0.5804017381434609
 40
0.5974643757596191
 40
0.6182642998843616
 40
0.6402916687030449
 40
0.6551119584512994
 40
0.6700365848056326
 40
0.685209256015998
 40
0.706583102680719
 40
0.7283528214166761
 40
0.7474364276929858
 40
0.7641552138199883
 40
0.7808527793605623
 40
0.7946599758638437
 40
0.8081118349816652
 40
0.8243214008977857
 40
0.8429311496137967
 40
0.8604473367135763
 40
0.8698455018162935
 40
0.8793628356699739
 40
0.8890290520242414
 40
0.9003548072066553
 40
0.9148134139222427
 40
0.928529659796798
 40
0.9444889811238316
 40
0.962889789191501
 40
0.9820235592588629
 40
1.0
 40
1.0
 40
1.0
 40
1.0
 10
16.21924521675304
 20
472.1779224265651
 30
0.0
 10
16.16787943568688
 20
472.1680899707716
 30
0.0
 10
16.07194779183122
 20
472.1496518714854
 30
0.0
 10
15.90918547012173
 20
472.1151682974528
 30
0.0
 10
15.72763004023894
 20
472.0740222804039
 30
0.0
 10
15.55731758050463
 20
472.0324593397451
 30
0.0
 10
15.41557726289991
 20
471.9958463759779
 30
0.0
 10
15.30528333833625
 20
471.9659800048685
 30
0.0
 10
15.2084448443878
 20
471.9389228486423
 30
0.0
 10
15.1145608622095
 20
471.9118831771675
 30
0.0
 10
15.01009882956921
 20
471.8809440646543
 30
0.0
 10
14.89634559765498
 20
471.8461518252498
 30
0.0
 10
14.77514437048263
 20
471.807775455049
 30
0.0
 10
14.65437215735713
 20
471.768291831391
 30
0.0
 10
14.53100760594332
 20
471.7267676784597
 30
0.0
 10
14.40152979704232
 20
471.6815873464546
 30
0.0
 10
14.19972093838717
 20
471.6083461070462
 30
0.0
 10
13.93409093399678
 20
471.505490317932
 30
0.0
 10
13.60021175728982
 20
471.3647217632732
 30
0.0
 10
13.26996396645947
 20
471.2148787868256
 30
0.0
 10
12.9265734089484
 20
471.0480198970639
 30
0.0
 10
12.58271913395217
 20
470.8699703154591
 30
0.0
 10
12.24099254082248
 20
470.6823634421701
 30
0.0
 10
11.92669758357098
 20
470.5017435317517
 30
0.0
 10
11.62650958486912
 20
470.3212947208885
 30
0.0
 10
11.32917114520737
 20
470.137053460675
 30
0.0
 10
11.04988730476671
 20
469.9582077148509
 30
0.0
 10
10.81093504941423
 20
469.8030226564106
 30
0.0
 10
10.61319632133608
 20
469.6689307568847
 30
0.0
 10
10.42993787447616
 20
469.5438731602642
 30
0.0
 10
10.22539160945088
 20
469.4010517561463
 30
0.0
 10
10.00075024982893
 20
469.2434939949493
 30
0.0
 10
9.783606028275074
 20
469.0865471129628
 30
0.0
 10
9.587028162864602
 20
468.9399937735807
 30
0.0
 10
9.414698405954821
 20
468.8081668631531
 30
0.0
 10
9.213641756385945
 20
468.6486964483181
 30
0.0
 10
8.99943896304645
 20
468.4757727651427
 30
0.0
 10
8.773348814018519
 20
468.2823159637263
 30
0.0
 10
8.566235810887598
 20
468.0937071051368
 30
0.0
 10
8.382956946144434
 20
467.9172506081862
 30
0.0
 10
8.221787016117862
 20
467.7528080941306
 30
0.0
 10
8.074974712525236
 20
467.5945499778023
 30
0.0
 10
7.92502849090878
 20
467.42231389302
 30
0.0
 10
7.767611475234828
 20
467.228580846969
 30
0.0
 10
7.608864982209925
 20
467.0160333597785
 30
0.0
 10
7.473908000359384
 20
466.8151886370587
 30
0.0
 10
7.373820285080039
 20
466.6530921773173
 30
0.0
 10
7.298920092762795
 20
466.523904730527
 30
0.0
 10
7.223311023424595
 20
466.384486702539
 30
0.0
 10
7.136807226010382
 20
466.2109537526084
 30
0.0
 10
7.051150391066206
 20
466.0189193333804
 30
0.0
 10
6.966796128281719
 20
465.8032823675796
 30
0.0
 10
6.888401998453482
 20
465.5683555582546
 30
0.0
 10
6.819607347222228
 20
465.3128005015571
 30
0.0
 10
6.762677356184691
 20
465.0345193575379
 30
0.0
 10
6.74034862006714
 20
464.8501933304842
 30
0.0
 10
6.727941466984702
 20
464.7441957369855
 30
0.0
  0
ARC
  5
1A4
330
5E
100
AcDbEntity
  8
$DDT_AUDIT_GENERATED_(193)
  6
Continuous
 62
     7
100
AcDbCircle
 10
19.9600089412
 20
460.9043463361
 30
0.0
 40
1.659176189190468
100
AcDbArc
 50
184.2293014414
 51
261.4165917246
  0
ARC
  5
1A5
330
5E
100
AcDbEntity
  8
$DDT_AUDIT_GENERATED_(193)
  6
Continuous
 62
     7
100
AcDbCircle
 10
32.8349696715
 20
515.6217241063
 30
0.0
 40
57.53116516733631
100
AcDbArc
 50
277.2903708899
 51
281.6172698687
  0
ARC
  5
1A6
330
5E
100
AcDbEntity
  8
$DDT_AUDIT_GENERATED_(193)
  6
Continuous
 62
     7
100
AcDbCircle
 10
54.4722500093
 20
464.4509804911
 30
0.0
 40
2.923728986446916
100
AcDbArc
 50
0.2547214998
 51
5.7413321314
  0
SPLINE
  5
1A7
330
5E
100
AcDbEntity
  8
$DDT_AUDIT_GENERATED_(193)
  6
Continuous
 62
     7
100
AcDbSpline
210
0.0
220
0.0
230
1.0
 70
     8
 71
     3
 72
    60
 73
    56
 74
     0
 42
0.0000000011295065
 43
0.0000000001
 40
0.0
 40
0.0
 40
0.0
 40
0.0
 40
0.0442387066501138
 40
0.0844728515075133
 40
0.1244273203306336
 40
0.1639640528090461
 40
0.1884674310598921
 40
0.2078336999896127
 40
0.2248226253157611
 40
0.2414948317919645
 40
0.2578276717874001
 40
0.292960998124137
 40
0.3261204764476766
 40
0.3571698549616055
 40
0.3860139645066989
 40
0.4125938783181458
 40
0.4363222745614456
 40
0.4576111614508853
 40
0.4783489437226605
 40
0.4912652477151815
 40
0.5040767343956927
 40
0.5167731816735185
 40
0.5293448674872638
 40
0.5435152610008208
 40
0.5651008472044196
 40
0.5859751079815818
 40
0.6069671110681607
 40
0.6308962301271084
 40
0.6565267102123391
 40
0.6821142740875179
 40
0.7043183358919126
 40
0.7246033801686863
 40
0.7431484612641409
 40
0.7519736053596032
 40
0.7577667624012254
 40
0.7624868290916602
 40
0.7679179877340903
 40
0.7747353269010009
 40
0.7830140367808478
 40
0.7930579670768916
 40
0.8050458279105702
 40
0.8162178637046384
 40
0.8261562245066014
 40
0.8369590134746369
 40
0.8489326990188322
 40
0.862719964680111
 40
0.8799671713483653
 40
0.8911153428992536
 40
0.9025151054814563
 40
0.914289806094405
 40
0.9318092316338586
 40
0.9497686714411963
 40
0.9681273286416159
 40
0.9866432124329891
 40
1.0
 40
1.0
 40
1.0
 40
1.0
 10
45.80509912545103
 20
460.7800260109166
 30
0.0
 10
45.82010751737271
 20
461.0415185978636
 30
0.0
 10
45.84396986073451
 20
461.460728056566
 30
0.0
 10
45.87375471055468
 20
462.1162226267013
 30
0.0
 10
45.89678980663054
 20
462.7136932525712
 30
0.0
 10
45.91315153238375
 20
463.2198834221979
 30
0.0
 10
45.92443504183264
 20
463.6141077480108
 30
0.0
 10
45.93164480906951
 20
463.8974457236856
 30
0.0
 10
45.93727460945853
 20
464.1406787748152
 30
0.0
 10
45.94218163852994
 20
464.3664252152768
 30
0.0
 10
45.94837706909532
 20
464.6694490745885
 30
0.0
 10
45.95528064446412
 20
465.0365867822678
 30
0.0
 10
45.96262996430918
 20
465.4530564585508
 30
0.0
 10
45.96922136578699
 20
465.8302544713836
 30
0.0
 10
45.97537902899106
 20
466.169190255542
 30
0.0
 10
45.98129047116322
 20
466.4693820062852
 30
0.0
 10
45.98688789012409
 20
466.732339590075
 30
0.0
 10
45.99233764080734
 20
466.9666682792681
 30
0.0
 10
45.99720499609801
 20
467.1552210180113
 30
0.0
 10
46.00153079430367
 20
467.3096669776954
 30
0.0
 10
46.00522727264374
 20
467.4341479576827
 30
0.0
 10
46.00903189694044
 20
467.5544237982576
 30
0.0
 10
46.01295019149617
 20
467.6752748978227
 30
0.0
 10
46.01840469592543
 20
467.8209239463928
 30
0.0
 10
46.02516369001567
 20
467.9861165909468
 30
0.0
 10
46.03261497329268
 20
468.1624192709996
 30
0.0
 10
46.04028785912602
 20
468.3363135412619
 30
0.0
 10
46.0503491359026
 20
468.5173455892043
 30
0.0
 10
46.06326964776962
 20
468.7001341924093
 30
0.0
 10
46.07937469268827
 20
468.8673411640322
 30
0.0
 10
46.09612300419609
 20
469.0041981609316
 30
0.0
 10
46.1138616824313
 20
469.1150097478699
 30
0.0
 10
46.12798098328047
 20
469.1871074009864
 30
0.0
 10
46.14033755847739
 20
469.2373886720933
 30
0.0
 10
46.1440103914574
 20
469.2537282577772
 30
0.0
 10
46.1441758894752
 20
469.2586695993539
 30
0.0
 10
46.14580322046952
 20
469.2678122343974
 30
0.0
 10
46.14815741328231
 20
469.2792295658078
 30
0.0
 10
46.15246995208061
 20
469.2956182548953
 30
0.0
 10
46.15898095767167
 20
469.3163372073936
 30
0.0
 10
46.17058756185712
 20
469.3445331296662
 30
0.0
 10
46.1773740519566
 20
469.3598235769786
 30
0.0
 10
46.18187204179117
 20
469.369544049529
 30
0.0
 10
46.18604660615955
 20
469.377555007069
 30
0.0
 10
46.18897026707486
 20
469.3828735711107
 30
0.0
 10
46.1925114168183
 20
469.3890715473449
 30
0.0
 10
46.2077056871527
 20
469.4070658217449
 30
0.0
 10
46.21684460498612
 20
469.4169386550391
 30
0.0
 10
46.22517883054632
 20
469.4257819800519
 30
0.0
 10
46.22687415455972
 20
469.4302901432224
 30
0.0
 10
46.26067490929536
 20
469.4633163421527
 30
0.0
 10
46.28437879431115
 20
469.4874982712147
 30
0.0
 10
46.31020950017572
 20
469.5120811184518
 30
0.0
 10
46.33452746980704
 20
469.5326552250852
 30
0.0
 10
46.34597826047626
 20
469.5407643032782
 30
0.0
 10
46.35165121331963
 20
469.5447372868173
 30
0.0
  0
SPLINE
  5
1A8
330
5E
100
AcDbEntity
  8
$DDT_AUDIT_GENERATED_(193)
  6
Continuous
 62
     7
100
AcDbSpline
210
0.0
220
0.0
230
1.0
 70
     8
 71
     3
 72
    62
 73
    58
 74
     0
 42
0.0000000007894629
 43
0.0000000001
 40
0.0
 40
0.0
 40
0.0
 40
0.0
 40
0.0214173507120442
 40
0.0443190710969706
 40
0.0631343525948784
 40
0.0776878361667638
 40
0.0884378510301417
 40
0.0980247357408129
 40
0.1073826807151282
 40
0.1206486529157375
 40
0.1345095154807603
 40
0.1490549863741907
 40
0.1649299928638569
 40
0.1858195767153276
 40
0.2043816495230046
 40
0.2214007375572167
 40
0.2350800572292789
 40
0.2489074778205987
 40
0.2641313836924583
 40
0.2794121680755833
 40
0.2965507888913634
 40
0.3146662525167908
 40
0.328528394719739
 40
0.3427706192203911
 40
0.3577247120931464
 40
0.3735136526097767
 40
0.3889914979865861
 40
0.4036796478198882
 40
0.4163964837728419
 40
0.4299673973302217
 40
0.4417351396353077
 40
0.4555460317570903
 40
0.4932003083164535
 40
0.5304713266729607
 40
0.5660151622638424
 40
0.6013094251877613
 40
0.6341482866514706
 40
0.6645576568564687
 40
0.6933174259854021
 40
0.7215788293812201
 40
0.7379369433450083
 40
0.7538636893142507
 40
0.7690230454463576
 40
0.7867010395784774
 40
0.8083138878394239
 40
0.834126344071129
 40
0.847470076030456
 40
0.8604977115440338
 40
0.8751581438021565
 40
0.891587976288248
 40
0.9099310187234457
 40
0.9230502581197233
 40
0.9414270271836643
 40
0.9591894494194704
 40
0.9752340674393403
 40
0.9893904269139603
 40
1.0
 40
1.0
 40
1.0
 40
1.0
 10
57.3826640160206
 20
464.7441957369854
 30
0.0
 10
57.36735200718095
 20
464.8705788211825
 30
0.0
 10
57.33935290100172
 20
465.0919619011968
 30
0.0
 10
57.27191579050701
 20
465.3930825200663
 30
0.0
 10
57.1914965637364
 20
465.6662662301945
 30
0.0
 10
57.11366969423831
 20
465.8827741649193
 30
0.0
 10
57.04307742647903
 20
466.0555721659136
 30
0.0
 10
56.97618182764843
 20
466.2044043514239
 30
0.0
 10
56.89577161373708
 20
466.3687325164113
 30
0.0
 10
56.79701258363919
 20
466.5517815276061
 30
0.0
 10
56.67553563617789
 20
466.7540875468363
 30
0.0
 10
56.54486135803484
 20
466.9521126428323
 30
0.0
 10
56.39264218373753
 20
467.1635244076657
 30
0.0
 10
56.23135662614269
 20
467.3681175153345
 30
0.0
 10
56.05077852478878
 20
467.5784479434193
 30
0.0
 10
55.88970705479885
 20
467.7519385920009
 30
0.0
 10
55.73439750483707
 20
467.9101104059044
 30
0.0
 10
55.58355554867453
 20
468.0563713837969
 30
0.0
 10
55.42420702102513
 20
468.20397458736
 30
0.0
 10
55.25297737173393
 20
468.3550193915242
 30
0.0
 10
55.06787495558093
 20
468.511360858794
 30
0.0
 10
54.88795839821088
 20
468.6560827170097
 30
0.0
 10
54.70918847287276
 20
468.7978678740072
 30
0.0
 10
54.54508190820366
 20
468.9238470790852
 30
0.0
 10
54.3743581736632
 20
469.0515613190215
 30
0.0
 10
54.20066038954969
 20
469.1782269448889
 30
0.0
 10
54.03013265302582
 20
469.2995061842703
 30
0.0
 10
53.87277306834184
 20
469.4096430210411
 30
0.0
 10
53.72141531414482
 20
469.5157283563898
 30
0.0
 10
53.58277536654682
 20
469.6101553636158
 30
0.0
 10
53.43953013939906
 20
469.7088204925456
 30
0.0
 10
53.21227655884926
 20
469.8607259896086
 30
0.0
 10
52.90202473707233
 20
470.0608561386126
 30
0.0
 10
52.52274464540986
 20
470.2983589476713
 30
0.0
 10
52.15798439435998
 20
470.5173489613258
 30
0.0
 10
51.81384366194442
 20
470.7136885799439
 30
0.0
 10
51.48947429144494
 20
470.889964621976
 30
0.0
 10
51.18763526515708
 20
471.0456419260323
 30
0.0
 10
50.90241478553141
 20
471.1850952147512
 30
0.0
 10
50.66710940487228
 20
471.293927748124
 30
0.0
 10
50.47493404077499
 20
471.3788068374164
 30
0.0
 10
50.32520239865919
 20
471.4426703908503
 30
0.0
 10
50.17279640643924
 20
471.5055449679484
 30
0.0
 10
49.99999763912999
 20
471.5740299812928
 30
0.0
 10
49.78935486774873
 20
471.6535288848415
 30
0.0
 10
49.5917589547971
 20
471.7235354957141
 30
0.0
 10
49.41696354269655
 20
471.7822769750126
 30
0.0
 10
49.27644675496677
 20
471.8277835465348
 30
0.0
 10
49.1273642299665
 20
471.8741181730301
 30
0.0
 10
48.96094565394478
 20
471.9234473857747
 30
0.0
 10
48.8015881722914
 20
471.9681328215587
 30
0.0
 10
48.63509349198508
 20
472.0124023008103
 30
0.0
 10
48.47960531952489
 20
472.0514342134672
 30
0.0
 10
48.31171608062204
 20
472.090972862303
 30
0.0
 10
48.15792604092006
 20
472.1248268997654
 30
0.0
 10
48.02209730259175
 20
472.1529591494455
 30
0.0
 10
47.94504105815921
 20
472.1676713333276
 30
0.0
 10
47.90599515074518
 20
472.1750982904643
 30
0.0
  0
ARC
  5
1A9
330
5E
100
AcDbEntity
  8
$DDT_AUDIT_GENERATED_(193)
  6
Continuous
 62
     7
100
AcDbCircle
 10
44.1471582606
 20
460.9075327781
 30
0.0
 40
1.662842673197692
100
AcDbArc
 50
278.6841660241
 51
355.6699408099
  0
ARC
  5
1AA
330
5E
100
AcDbEntity
  8
$DDT_AUDIT_GENERATED_(193)
  6
Continuous
 62
     7
100
AcDbCircle
 10
-1498.1761239033
 20
440.7956454289
 30
0.0
 40
1555.754142667735
100
AcDbArc
 50
0.7375436628
 51
0.8716152995
  0
ARC
  5
1AB
330
5E
100
AcDbEntity
  8
$DDT_AUDIT_GENERATED_(193)
  6
Continuous
 62
     7
100
AcDbCircle
 10
-7200.8633599423
 20
370.9297253522
 30
0.0
 40
7258.870330890912
100
AcDbArc
 50
0.4837394984
 51
0.6951504356
  0
SPLINE
  5
1AC
330
5E
100
AcDbEntity
  8
$DDT_AUDIT_GENERATED_(193)
  6
Continuous
 62
     7
100
AcDbSpline
210
0.0
220
0.0
230
1.0
 70
     8
 71
     3
 72
    15
 73
    11
 74
     0
 42
0.0000000050427629
 43
0.0000000001
 40
0.0
 40
0.0
 40
0.0
 40
0.0
 40
0.124551970508964
 40
0.2647316682256676
 40
0.4049636900530242
 40
0.5462066806517033
 40
0.6887224863613753
 40
0.8329458437585174
 40
0.9831770080961196
 40
1.0
 40
1.0
 40
1.0
 40
1.0
 10
56.76820796761533
 20
429.4097484993246
 30
0.0
 10
56.83640578790798
 20
429.4528649385803
 30
0.0
 10
56.95790200361868
 20
429.5314749312013
 30
0.0
 10
57.13638687933652
 20
429.7040558751523
 30
0.0
 10
57.29395972503569
 20
429.9084767268228
 30
0.0
 10
57.42769591463068
 20
430.1450079798128
 30
0.0
 10
57.53657592933614
 20
430.4123618874407
 30
0.0
 10
57.61892666005404
 20
430.7098936230831
 30
0.0
 10
57.66780007208364
 20
430.9437868732534
 30
0.0
 10
57.68202625844484
 20
431.0711801649996
 30
0.0
 10
57.68368353255029
 20
431.0861117133972
 30
0.0
  0
SPLINE
  5
1AD
330
5E
100
AcDbEntity
  8
$DDT_AUDIT_GENERATED_(193)
  6
Continuous
 62
     7
100
AcDbSpline
210
0.0
220
0.0
230
1.0
 70
     8
 71
     3
 72
    15
 73
    11
 74
     0
 42
0.000000004869671
 43
0.0000000001
 40
0.0
 40
0.0
 40
0.0
 40
0.0
 40
0.0204042089642262
 40
0.1737566914384273
 40
0.3251909140045815
 40
0.4727149832567135
 40
0.6131497501912291
 40
0.7519285597584539
 40
0.8890186551989627
 40
1.0
 40
1.0
 40
1.0
 40
1.0
 10
6.418367207780305
 20
431.1555854361172
 30
0.0
 10
6.420277577793461
 20
431.1366893452223
 30
0.0
 10
6.434361048440349
 20
430.9985589474471
 30
0.0
 10
6.483621511489891
 20
430.7442732651812
 30
0.0
 10
6.568925336434283
 20
430.4248993726819
 30
0.0
 10
6.683717828559966
 20
430.1420463753768
 30
0.0
 10
6.823093482837446
 20
429.8979635786798
 30
0.0
 10
6.984694277853879
 20
429.6919127878045
 30
0.0
 10
7.161858013651194
 20
429.5238571216018
 30
0.0
 10
7.279950916947272
 20
429.4491771063645
 30
0.0
 10
7.342876845582231
 20
429.4102484584183
 30
0.0
  0
ARC
  5
1AE
330
5E
100
AcDbEntity
  8
$DDT_AUDIT_GENERATED_(193)
  6
Continuous
 62
     7
100
AcDbCircle
 10
36.1784629092
 20
488.8815067657
 30
0.0
 40
62.93749415574873
100
AcDbArc
 50
266.2437501802
 51
289.0963805722
  0
ARC
  5
1AF
330
5E
100
AcDbEntity
  8
$DDT_AUDIT_GENERATED_(193)
  6
Continuous
 62
     7
100
AcDbCircle
 10
27.9823422057
 20
489.2588073705
 30
0.0
 40
63.31120262455842
100
AcDbArc
 50
250.9713016542
 51
273.6885067092
  0
ARC
  5
1B1
330
5E
100
AcDbEntity
  8
$DDT_AUDIT_GENERATED_(1B0)
  6
Continuous
 62
     7
100
AcDbCircle
 10
32.0553027415
 20
421.9617930966
 30
0.0
 40
24.5
100
AcDbArc
 50
15.3820638059
 51
16.2814854079
  0
ARC
  5
1B2
330
5E
100
AcDbEntity
  8
$DDT_AUDIT_GENERATED_(1B0)
  6
Continuous
 62
     7
100
AcDbCircle
 10
32.0553027415
 20
421.9617930966
 30
0.0
 40
24.49999999999999
100
AcDbArc
 50
163.6792412566
 51
164.6179361941
  0
ELLIPSE
  5
1B4
330
5E
100
AcDbEntity
  8
$DDT_AUDIT_GENERATED_(1B3)
  6
Continuous
 62
     7
100
AcDbEllipse
 10
32.0553027415
 20
438.1301363473
 30
0.0
 11
-5.689475528755810E-15
 21
3.796017758701961
 31
0.0
210
0.0
220
0.0
230
1.0
 40
0.9088471707
 41
0.0
 42
6.283185307179586
  0
LINE
  5
1B5
330
5E
100
AcDbEntity
  8
$DDT_AUDIT_GENERATED_(1B3)
  6
Continuous
 62
     7
100
AcDbLine
 10
28.6053027415
 20
438.4454678825
 30
0.0
 11
28.6053027415
 21
438.1301363473
 31
0.0
  0
LINE
  5
1B6
330
5E
100
AcDbEntity
  8
$DDT_AUDIT_GENERATED_(1B3)
  6
Continuous
 62
     7
100
AcDbLine
 10
35.5053027415
 20
438.1301363473
 30
0.0
 11
35.5053027415
 21
438.4454678825
 31
0.0
  0
LINE
  5
1B9
330
5E
100
AcDbEntity
  8
DV1_Default
  6
CENTER2
 62
     7
100
AcDbLine
 10
52.055302281
 20
328.2188613889
 30
0.0
 11
12.0553031751
 21
328.2188613889
 31
0.0
  0
LINE
  5
1BA
330
5E
100
AcDbEntity
  8
DV1_Default
  6
CENTER2
 62
     7
100
AcDbLine
 10
32.0553027281
 20
348.2188609419
 30
0.0
 11
32.0553027281
 21
308.218861836
 31
0.0
  0
LINE
  5
1BB
330
5E
100
AcDbEntity
  8
DV1_Default
  6
CENTER2
 62
     7
100
AcDbLine
 10
57.0553021693
 20
328.2188613889
 30
0.0
 11
35.5553027281
 21
328.2188613889
 31
0.0
  0
LINE
  5
1BC
330
5E
100
AcDbEntity
  8
DV1_Default
  6
CENTER2
 62
     7
100
AcDbLine
 10
32.0553027281
 20
353.2188608301
 30
0.0
 11
32.0553027281
 21
331.7188613889
 31
0.0
  0
LINE
  5
1BD
330
5E
100
AcDbEntity
  8
DV1_Default
  6
CENTER2
 62
     7
100
AcDbLine
 10
7.0553032869
 20
328.2188613889
 30
0.0
 11
28.5553027281
 21
328.2188613889
 31
0.0
  0
LINE
  5
1BE
330
5E
100
AcDbEntity
  8
DV1_Default
  6
CENTER2
 62
     7
100
AcDbLine
 10
32.0553027281
 20
303.2188619477
 30
0.0
 11
32.0553027281
 21
324.7188613889
 31
0.0
  0
ENDBLK
  5
1C0
330
5E
100
AcDbEntity
  8
0
100
AcDbBlockEnd
  0
BLOCK
  5
200
330
1C1
100
AcDbEntity
  8
0
100
AcDbBlockBegin
  2
SE1
 70
     0
 10
0.0
 20
0.0
 30
0.0
  3
SE1
  1

  0
SPLINE
  5
1C3
330
1C1
100
AcDbEntity
  8
$DDT_AUDIT_GENERATED_(60)
  6
Continuous
 62
     7
100
AcDbSpline
210
0.0
220
0.0
230
1.0
 70
     8
 71
     3
 72
    34
 73
    30
 74
     0
 42
0.0000000001969615
 43
0.0000000001
 40
0.0
 40
0.0
 40
0.0
 40
0.0
 40
0.0162526049411198
 40
0.0325541332463999
 40
0.0489524177610775
 40
0.0677271482347509
 40
0.0865521205354305
 40
0.124503752712002
 40
0.1859011967624686
 40
0.2492906420928301
 40
0.3101777264018335
 40
0.3419325547145953
 40
0.3738512890547774
 40
0.405814184395186
 40
0.4376671275973519
 40
0.4989458428949177
 40
0.5302076537990873
 40
0.5617824451209653
 40
0.6252478667524247
 40
0.6572753032538207
 40
0.6891275980071198
 40
0.7506375154479176
 40
0.7822341937070132
 40
0.8141129500979485
 40
0.8755144182215863
 40
0.9071749215137824
 40
0.938675769076963
 40
0.9696399794696242
 40
1.0
 40
1.0
 40
1.0
 40
1.0
 10
156.3439116556836
 20
328.2188613889175
 30
0.0
 10
156.3507151250613
 20
328.2188540146789
 30
0.0
 10
156.3643425435249
 20
328.2188392440037
 30
0.0
 10
156.4738267834805
 20
328.2187823276446
 30
0.0
 10
156.6556131568134
 20
328.2188587339011
 30
0.0
 10
156.9274576461931
 20
328.2188385266793
 30
0.0
 10
157.4228375181688
 20
328.2187723859289
 30
0.0
 10
158.4643711751048
 20
328.2189114006501
 30
0.0
 10
160.5087135244919
 20
328.2188506546547
 30
0.0
 10
163.6428643912711
 20
328.2188535995913
 30
0.0
 10
166.8738672161497
 20
328.2188935297797
 30
0.0
 10
169.7049811865707
 20
328.2188027523338
 30
0.0
 10
171.9923348875636
 20
328.2188858804791
 30
0.0
 10
174.3735058563518
 20
328.2188222945362
 30
0.0
 10
177.5744122616304
 20
328.2188840861579
 30
0.0
 10
180.858114233357
 20
328.218852483508
 30
0.0
 10
184.1286182634273
 20
328.2188715163898
 30
0.0
 10
187.4247114008337
 20
328.2188598469501
 30
0.0
 10
190.6547063114658
 20
328.2188310595362
 30
0.0
 10
193.7026775018005
 20
328.2189153402457
 30
0.0
 10
196.5561899058886
 20
328.2188379622925
 30
0.0
 10
199.1475059419429
 20
328.2188172731682
 30
0.0
 10
201.3766456664044
 20
328.2189474910629
 30
0.0
 10
203.3449439610673
 20
328.2188181105702
 30
0.0
 10
204.9156664950627
 20
328.2188136863437
 30
0.0
 10
206.0435433833437
 20
328.2189593013669
 30
0.0
 10
206.6578390969691
 20
328.218889918171
 30
0.0
 10
207.0431619160323
 20
328.2186449895302
 30
0.0
 10
207.0913740593807
 20
328.2187897302246
 30
0.0
 10
207.1152426210355
 20
328.2188613889175
 30
0.0
  0
ARC
  5
1C4
330
1C1
100
AcDbEntity
  8
$DDT_AUDIT_GENERATED_(60)
  6
Continuous
 62
     7
100
AcDbCircle
 10
175.721096214
 20
431.2017862992
 30
0.0
 40
1.200000000000024
100
AcDbArc
 50
80.0834425493
 51
169.9999976252
  0
ARC
  5
1C5
330
1C1
100
AcDbEntity
  8
$DDT_AUDIT_GENERATED_(60)
  6
Continuous
 62
     7
100
AcDbCircle
 10
296.4260083073
 20
401.8870594923
 30
0.0
 40
2.000000000033846
100
AcDbArc
 50
307.7089415469
 51
70.5520396549
  0
ARC
  5
1C6
330
1C1
100
AcDbEntity
  8
$DDT_AUDIT_GENERATED_(60)
  6
Continuous
 62
     7
100
AcDbCircle
 10
271.4222354971
 20
386.590149809
 30
0.0
 40
1.99999942326871
100
AcDbArc
 50
255.4641538834
 51
295.8953917356
  0
ARC
  5
1C7
330
1C1
100
AcDbEntity
  8
$DDT_AUDIT_GENERATED_(60)
  6
Continuous
 62
     7
100
AcDbCircle
 10
434.1069411012
 20
1780.7105937117
 30
0.0
 40
1372.81593329684
100
AcDbArc
 50
259.1771742473
 51
260.8859289393
  0
ARC
  5
1C8
330
1C1
100
AcDbEntity
  8
$DDT_AUDIT_GENERATED_(60)
  6
Continuous
 62
     7
100
AcDbCircle
 10
326.1628469088
 20
321.6907948384
 30
0.0
 40
82.6609912396733
100
AcDbArc
 50
112.2869843329
 51
129.6384801569
  0
ARC
  5
1C9
330
1C1
100
AcDbEntity
  8
$DDT_AUDIT_GENERATED_(60)
  6
Continuous
 62
     7
100
AcDbCircle
 10
202.0109902822
 20
127.4330539394
 30
0.0
 40
266.2625092365442
100
AcDbArc
 50
75.002578486
 51
85.4295479008
  0
LINE
  5
1CA
330
1C1
100
AcDbEntity
  8
$DDT_AUDIT_GENERATED_(60)
  6
Continuous
 62
     7
100
AcDbLine
 10
176.3482945799
 20
432.3104725853
 30
0.0
 11
175.9275972262
 21
432.3840086802
 31
0.0
  0
SPLINE
  5
1CB
330
1C1
100
AcDbEntity
  8
$DDT_AUDIT_GENERATED_(60)
  6
Continuous
 62
     7
100
AcDbSpline
210
0.0
220
0.0
230
1.0
 70
     8
 71
     3
 72
    34
 73
    30
 74
     0
 42
0.0000000001288616
 43
0.0000000001
 40
0.0
 40
0.0
 40
0.0
 40
0.0
 40
0.065098824640629
 40
0.1372542584619535
 40
0.2026049630519001
 40
0.2617567559134142
 40
0.3152651939902766
 40
0.3636387622276897
 40
0.4146875476653751
 40
0.459934721533343
 40
0.4999948984060842
 40
0.535415736619701
 40
0.5752830776888344
 40
0.6090665605048308
 40
0.6375507850263826
 40
0.6613951924509347
 40
0.6811486896860401
 40
0.6996535286708184
 40
0.7193856021963202
 40
0.7685219746410389
 40
0.8189772492160902
 40
0.8682136801397256
 40
0.8819608306278288
 40
0.8981607357517969
 40
0.918192389460476
 40
0.936695595831858
 40
0.9590385100738955
 40
0.9860865470413418
 40
1.0
 40
1.0
 40
1.0
 40
1.0
 10
297.0910370726112
 20
403.7705046134051
 30
0.0
 10
295.3441305024807
 20
404.3864633972556
 30
0.0
 10
292.236498878131
 20
405.4808035246238
 30
0.0
 10
287.1780322408706
 20
407.2232159516072
 30
0.0
 10
282.3848535804938
 20
408.8446810724037
 30
0.0
 10
278.008425543103
 20
410.2963376703646
 30
0.0
 10
274.0483933410301
 20
411.5839003145271
 30
0.0
 10
270.2788193593491
 20
412.7848571581202
 30
0.0
 10
266.7060671603543
 20
413.89799099293
 30
0.0
 10
263.3313389290435
 20
414.9238515427155
 30
0.0
 10
260.3372915728415
 20
415.8117349062424
 30
0.0
 10
257.4710710519773
 20
416.6409704968204
 30
0.0
 10
254.7551605885531
 20
417.4053092051874
 30
0.0
 10
252.2063644993895
 20
418.1007833899084
 30
0.0
 10
250.0531378231227
 20
418.671202014694
 30
0.0
 10
248.2475360370798
 20
419.1364502302011
 30
0.0
 10
246.6895075300911
 20
419.5278320649204
 30
0.0
 10
245.2326040738212
 20
419.8850638981929
 30
0.0
 10
243.0343323856049
 20
420.4101519641552
 30
0.0
 10
240.0240977951016
 20
421.0931777932091
 30
0.0
 10
236.2541035953848
 20
421.8739505090682
 30
0.0
 10
233.3701171549091
 20
422.4162586995403
 30
0.0
 10
231.353614781201
 20
422.775294337323
 30
0.0
 10
230.0799500259739
 20
422.9977395171542
 30
0.0
 10
228.6853391933572
 20
423.2384449036728
 30
0.0
 10
227.1310263083281
 20
423.5054065720536
 30
0.0
 10
225.4109617407628
 20
423.8003245020793
 30
0.0
 10
223.7548906978679
 20
424.0842045364957
 30
0.0
 10
222.77908053348
 20
424.2517527360351
 30
0.0
 10
222.3888972855818
 20
424.3187468069502
 30
0.0
  0
LINE
  5
1CC
330
1C1
100
AcDbEntity
  8
$DDT_AUDIT_GENERATED_(60)
  6
Continuous
 62
     7
100
AcDbLine
 10
294.7508100554
 20
398.1937554626
 30
0.0
 11
297.6465179308
 21
400.308628983
 31
0.0
  0
LINE
  5
1CD
330
1C1
100
AcDbEntity
  8
$DDT_AUDIT_GENERATED_(60)
  6
Continuous
 62
     7
100
AcDbLine
 10
272.2944513289
 20
384.7952122619
 30
0.0
 11
273.4219936986
 21
385.3740665196
 31
0.0
  0
LINE
  5
1CE
330
1C1
100
AcDbEntity
  8
$DDT_AUDIT_GENERATED_(60)
  6
Continuous
 62
     7
100
AcDbLine
 10
174.5393269191
 20
431.4101641614
 30
0.0
 11
156.3439116557
 21
328.2188613889
 31
0.0
  0
LINE
  5
1CF
330
1C1
100
AcDbEntity
  8
$DDT_AUDIT_GENERATED_(60)
  6
Continuous
 62
     7
100
AcDbLine
 10
207.115242697
 20
328.2188617742
 30
0.0
 11
217.7727028156
 21
388.6603069388
 31
0.0
  0
ARC
  5
1D0
330
1C1
100
AcDbEntity
  8
$DDT_AUDIT_GENERATED_(60)
  6
Continuous
 62
     7
100
AcDbCircle
 10
222.8195537795
 20
387.7679153415
 30
0.0
 40
5.125031995410326
100
AcDbArc
 50
85.3765724347
 51
170.0004527217
  0
LINE
  5
1D1
330
1C1
100
AcDbEntity
  8
$DDT_AUDIT_GENERATED_(77)
  6
Continuous
 62
     7
100
AcDbLine
 10
277.8191098723
 20
381.1702900821
 30
0.0
 11
296.4386560536
 21
391.9202900821
 31
0.0
  0
SPLINE
  5
1D2
330
1C1
100
AcDbEntity
  8
$DDT_AUDIT_GENERATED_(77)
  6
Continuous
 62
     7
100
AcDbSpline
210
0.0
220
0.0
230
1.0
 70
     8
 71
     3
 72
    10
 73
     6
 74
     0
 42
0.0000000019260148
 43
0.0000000001
 40
0.0
 40
0.0
 40
0.0
 40
0.0
 40
0.5
 40
0.5
 40
1.0
 40
1.0
 40
1.0
 40
1.0
 10
289.210089317377
 20
388.1135417977449
 30
0.0
 10
288.5205163074063
 20
387.5838756428644
 30
0.0
 10
287.8035618823852
 20
387.1014944838248
 30
0.0
 10
286.3102535659356
 20
386.2393091697764
 30
0.0
 10
285.5338988743716
 20
385.8595063965228
 30
0.0
 10
284.7301339604564
 20
385.5270383664693
 30
0.0
  0
LINE
  5
1D3
330
1C1
100
AcDbEntity
  8
$DDT_AUDIT_GENERATED_(77)
  6
Continuous
 62
     7
100
AcDbLine
 10
289.3275313647
 20
391.2787819439
 30
0.0
 11
281.9302345612
 21
387.0079506431
 31
0.0
  0
LINE
  5
1D4
330
1C1
100
AcDbEntity
  8
$DDT_AUDIT_GENERATED_(77)
  6
Continuous
 62
     7
100
AcDbLine
 10
289.3275313647
 20
391.2787819439
 30
0.0
 11
290.2357473388
 21
389.7057057325
 31
0.0
  0
SPLINE
  5
1D5
330
1C1
100
AcDbEntity
  8
$DDT_AUDIT_GENERATED_(77)
  6
Continuous
 62
     7
100
AcDbSpline
210
0.0
220
0.0
230
1.0
 70
     8
 71
     3
 72
    14
 73
    10
 74
     0
 42
0.0000000049321089
 43
0.0000000001
 40
0.0
 40
0.0
 40
0.0
 40
0.0
 40
0.1250000000000004
 40
0.1250000000000004
 40
0.2500000000000009
 40
0.2500000000000009
 40
0.5000000000000008
 40
0.5000000000000008
 40
1.0
 40
1.0
 40
1.0
 40
1.0
 10
290.2357473388059
 20
389.7057057325134
 30
0.0
 10
290.2778679882686
 20
389.6327506275962
 30
0.0
 10
290.2921099277084
 20
389.5438198823283
 30
0.0
 10
290.2787457237787
 20
389.3753721640751
 30
0.0
 10
290.2535839571113
 20
389.2926998937656
 30
0.0
 10
290.1539388546738
 20
389.0606703723511
 30
0.0
 10
290.0545502499312
 20
388.920837264955
 30
0.0
 10
289.7325409193947
 20
388.5370416170868
 30
0.0
 10
289.4755069103772
 20
388.3174110239028
 30
0.0
 10
289.210089317377
 20
388.1135417977449
 30
0.0
  0
SPLINE
  5
1D6
330
1C1
100
AcDbEntity
  8
$DDT_AUDIT_GENERATED_(77)
  6
Continuous
 62
     7
100
AcDbSpline
210
0.0
220
0.0
230
1.0
 70
     8
 71
     3
 72
    18
 73
    14
 74
     0
 42
0.0000000049401632
 43
0.0000000001
 40
0.0
 40
0.0
 40
0.0
 40
0.0
 40
0.2499999999999998
 40
0.2499999999999998
 40
0.4999999999999997
 40
0.4999999999999997
 40
0.6249999999999992
 40
0.6249999999999992
 40
0.7499999999999989
 40
0.7499999999999989
 40
0.8749999999999994
 40
0.8749999999999994
 40
1.0
 40
1.0
 40
1.0
 40
1.0
 10
284.7301339604564
 20
385.5270383664693
 30
0.0
 10
284.5750390102114
 20
385.4628851399639
 30
0.0
 10
284.418129162065
 20
385.4035558567277
 30
0.0
 10
284.098396709267
 20
385.3006132167136
 30
0.0
 10
283.9357073435019
 20
385.256859468753
 30
0.0
 10
283.6888178191479
 20
385.2135407532526
 30
0.0
 10
283.6059032325466
 20
385.2028151460426
 30
0.0
 10
283.4381979093192
 20
385.1926375077275
 30
0.0
 10
283.3529159177448
 20
385.1932090642075
 30
0.0
 10
283.1867033420423
 20
385.213061324577
 30
0.0
 10
283.103627493719
 20
385.2321961470054
 30
0.0
 10
282.9499909071861
 20
385.3053351748266
 30
0.0
 10
282.8813260268556
 20
385.3606119018283
 30
0.0
 10
282.8384505352431
 20
385.4348744317008
 30
0.0
  0
LINE
  5
1D7
330
1C1
100
AcDbEntity
  8
$DDT_AUDIT_GENERATED_(77)
  6
Continuous
 62
     7
100
AcDbLine
 10
282.8384505352
 20
385.4348744317
 30
0.0
 11
281.9302345612
 21
387.0079506431
 31
0.0
  0
LINE
  5
1D8
330
1C1
100
AcDbEntity
  8
$DDT_AUDIT_GENERATED_(77)
  6
Continuous
 62
     7
100
AcDbLine
 10
277.1840245762
 20
381.1702900821
 30
0.0
 11
277.8191098723
 21
381.1702900821
 31
0.0
  0
LINE
  5
1D9
330
1C1
100
AcDbEntity
  8
$DDT_AUDIT_GENERATED_(77)
  6
Continuous
 62
     7
100
AcDbLine
 10
296.4386560536
 20
391.9202900821
 30
0.0
 11
296.7561987017
 21
392.4702900821
 31
0.0
  0
ARC
  5
1DA
330
1C1
100
AcDbEntity
  8
$DDT_AUDIT_GENERATED_(77)
  6
Continuous
 62
     7
100
AcDbCircle
 10
277.1840245762
 20
382.1702900821
 30
0.0
 40
0.9999999999999952
100
AcDbArc
 50
210.0
 51
270.0
  0
ARC
  5
1DB
330
1C1
100
AcDbEntity
  8
$DDT_AUDIT_GENERATED_(77)
  6
Continuous
 62
     7
100
AcDbCircle
 10
295.8901732979
 20
392.9702900821
 30
0.0
 40
1.000000000000004
100
AcDbArc
 50
330.0
 51
30.0
  0
LINE
  5
1DC
330
1C1
100
AcDbEntity
  8
$DDT_AUDIT_GENERATED_(77)
  6
Continuous
 62
     7
100
AcDbLine
 10
273.9432236652
 20
385.7835219171
 30
0.0
 11
276.3179991724
 21
381.6702900821
 31
0.0
  0
LINE
  5
1DD
330
1C1
100
AcDbEntity
  8
$DDT_AUDIT_GENERATED_(77)
  6
Continuous
 62
     7
100
AcDbLine
 10
296.7561987017
 20
393.4702900821
 30
0.0
 11
294.1983360923
 21
397.9006380803
 31
0.0
  0
LINE
  5
1DE
330
1C1
100
AcDbEntity
  8
$DDT_AUDIT_GENERATED_(8A)
  6
Continuous
 62
     7
100
AcDbLine
 10
294.8633039759
 20
390.5488799206
 30
0.0
 11
279.79446195
 21
381.8488799206
 31
0.0
  0
LINE
  5
1DF
330
1C1
100
AcDbEntity
  8
$DDT_AUDIT_GENERATED_(8A)
  6
Continuous
 62
     7
100
AcDbLine
 10
279.3346543289
 20
382.0452900821
 30
0.0
 11
279.3846543289
 21
381.9586875417
 31
0.0
  0
LINE
  5
1E0
330
1C1
100
AcDbEntity
  8
$DDT_AUDIT_GENERATED_(8A)
  6
Continuous
 62
     7
100
AcDbLine
 10
294.973111597
 20
390.9586875417
 30
0.0
 11
294.923111597
 21
391.0452900821
 31
0.0
  0
ARC
  5
1E1
330
1C1
100
AcDbEntity
  8
$DDT_AUDIT_GENERATED_(8A)
  6
Continuous
 62
     7
100
AcDbCircle
 10
279.64446195
 20
382.1086875417
 30
0.0
 40
0.299999999999996
100
AcDbArc
 50
210.0
 51
300.0
  0
ARC
  5
1E2
330
1C1
100
AcDbEntity
  8
$DDT_AUDIT_GENERATED_(8A)
  6
Continuous
 62
     7
100
AcDbCircle
 10
294.7133039759
 20
390.8086875417
 30
0.0
 40
0.2999999999999926
100
AcDbArc
 50
300.0
 51
30.0
  0
ARC
  5
1E3
330
1C1
100
AcDbEntity
  8
$DDT_AUDIT_GENERATED_(193)
  6
Continuous
 62
     7
100
AcDbCircle
 10
293.9087274155
 20
464.8154930452
 30
0.0
 40
6.751757830969559
100
AcDbArc
 50
251.19418787
 51
268.2289672745
  0
ARC
  5
1E4
330
1C1
100
AcDbEntity
  8
$DDT_AUDIT_GENERATED_(193)
  6
Continuous
 62
     7
100
AcDbCircle
 10
181.8059361128
 20
457.3641078804
 30
0.0
 40
3.000697060805491
100
AcDbArc
 50
120.0901628322
 51
167.3803837943
  0
ELLIPSE
  5
1E5
330
1C1
100
AcDbEntity
  8
$DDT_AUDIT_GENERATED_(193)
  6
Continuous
 62
     7
100
AcDbEllipse
 10
304.7558159251
 20
460.2850482307
 30
0.0
 11
-0.04013657789798952
 21
1.299372605090332
 31
0.0
210
0.0
220
0.0
230
1.0
 40
0.9999899518
 41
3.304771394238844
 42
5.892730159955345
  0
SPLINE
  5
1E6
330
1C1
100
AcDbEntity
  8
$DDT_AUDIT_GENERATED_(193)
  6
Continuous
 62
     7
100
AcDbSpline
210
0.0
220
0.0
230
1.0
 70
     8
 71
     3
 72
    10
 73
     6
 74
     0
 42
0.0000000016178976
 43
0.0000000001
 40
0.0
 40
0.0
 40
0.0
 40
0.0
 40
0.5
 40
0.5
 40
1.0
 40
1.0
 40
1.0
 40
1.0
 10
249.8705103028549
 20
468.3073092040338
 30
0.0
 10
248.8426429524726
 20
468.4000083268965
 30
0.0
 10
247.8145697410002
 20
468.4751135266801
 30
0.0
 10
245.7576878643647
 20
468.562468358676
 30
0.0
 10
244.7288848238283
 20
468.5751986997518
 30
0.0
 10
243.6994213605398
 20
468.5314859942371
 30
0.0
  0
SPLINE
  5
1E7
330
1C1
100
AcDbEntity
  8
$DDT_AUDIT_GENERATED_(193)
  6
Continuous
 62
     7
100
AcDbSpline
210
0.0
220
0.0
230
1.0
 70
     8
 71
     3
 72
    12
 73
     8
 74
     0
 42
0.000000002047393
 43
0.0000000001
 40
0.0
 40
0.0
 40
0.0
 40
0.0
 40
0.2500000000000004
 40
0.2500000000000004
 40
0.5000000000000008
 40
0.5000000000000008
 40
1.0
 40
1.0
 40
1.0
 40
1.0
 10
243.6994213605398
 20
468.5314859942371
 30
0.0
 10
243.2939957983365
 20
468.5142709605416
 30
0.0
 10
242.8884658212926
 20
468.4881321099605
 30
0.0
 10
242.0771423800296
 20
468.4133354709395
 30
0.0
 10
241.6702610352326
 20
468.3644660228902
 30
0.0
 10
240.4615019356776
 20
468.1776658024448
 30
0.0
 10
239.6695090936343
 20
467.9997202864236
 30
0.0
 10
238.8960384333902
 20
467.750326872648
 30
0.0
  0
SPLINE
  5
1E8
330
1C1
100
AcDbEntity
  8
$DDT_AUDIT_GENERATED_(193)
  6
Continuous
 62
     7
100
AcDbSpline
210
0.0
220
0.0
230
1.0
 70
     8
 71
     3
 72
    18
 73
    14
 74
     0
 42
0.0000000003377134
 43
0.0000000001
 40
0.0
 40
0.0
 40
0.0
 40
0.0
 40
0.1250000000000001
 40
0.1250000000000001
 40
0.2500000000000002
 40
0.2500000000000002
 40
0.3750000000000002
 40
0.3750000000000002
 40
0.5000000000000003
 40
0.5000000000000003
 40
0.7500000000000001
 40
0.7500000000000001
 40
1.0
 40
1.0
 40
1.0
 40
1.0
 10
238.8960384333902
 20
467.750326872648
 30
0.0
 10
237.7302920668877
 20
467.3744503450925
 30
0.0
 10
236.6097731505398
 20
466.8275165624817
 30
0.0
 10
234.6532979906667
 20
465.3869126668263
 30
0.0
 10
233.7932050949387
 20
464.4698433767838
 30
0.0
 10
232.4240346787787
 20
462.4413330341668
 30
0.0
 10
231.8944070030738
 20
461.3133340335376
 30
0.0
 10
231.0610189786174
 20
458.9875875252139
 30
0.0
 10
230.7425242491003
 20
457.7927575311799
 30
0.0
 10
229.8703634463622
 20
454.1938127614501
 30
0.0
 10
229.4135379771044
 20
451.7653593873427
 30
0.0
 10
228.5195639668798
 20
446.9082009237076
 30
0.0
 10
228.0885811486777
 20
444.4766983638967
 30
0.0
 10
227.6601748031705
 20
442.0447843697819
 30
0.0
  0
LINE
  5
1E9
330
1C1
100
AcDbEntity
  8
$DDT_AUDIT_GENERATED_(193)
  6
Continuous
 62
     7
100
AcDbLine
 10
225.355690739
 20
428.8078940407
 30
0.0
 11
224.927322034
 21
426.3270793391
 31
0.0
  0
LINE
  5
1EA
330
1C1
100
AcDbEntity
  8
$DDT_AUDIT_GENERATED_(193)
  6
Continuous
 62
     7
100
AcDbLine
 10
224.579441607
 20
426.0826724014
 30
0.0
 11
205.9974032906
 21
429.369186165
 31
0.0
  0
LINE
  5
1EB
330
1C1
100
AcDbEntity
  8
$DDT_AUDIT_GENERATED_(193)
  6
Continuous
 62
     7
100
AcDbLine
 10
200.1631912717
 20
432.0828336986
 30
0.0
 11
200.1345895401
 21
432.1067861336
 31
0.0
  0
ARC
  5
1EC
330
1C1
100
AcDbEntity
  8
$DDT_AUDIT_GENERATED_(193)
  6
Continuous
 62
     7
100
AcDbCircle
 10
208.1744289837
 20
441.6781487179
 30
0.0
 40
12.49999999994336
100
AcDbArc
 50
230.1411501371
 51
259.9701013887
  0
LINE
  5
1ED
330
1C1
100
AcDbEntity
  8
$DDT_AUDIT_GENERATED_(193)
  6
Continuous
 62
     7
100
AcDbLine
 10
177.410888354
 20
451.4045728286
 30
0.0
 11
178.8777298328
 21
458.0196922244
 31
0.0
  0
LINE
  5
1EE
330
1C1
100
AcDbEntity
  8
$DDT_AUDIT_GENERATED_(193)
  6
Continuous
 62
     7
100
AcDbLine
 10
200.1345895401
 20
432.1067861336
 30
0.0
 11
177.5109286403
 21
451.110412802
 31
0.0
  0
ARC
  5
1EF
330
1C1
100
AcDbEntity
  8
$DDT_AUDIT_GENERATED_(193)
  6
Continuous
 62
     7
100
AcDbCircle
 10
177.7038846627
 20
451.3401266806
 30
0.0
 40
0.3000002381320075
100
AcDbArc
 50
167.5950137378
 51
229.9702723943
  0
ARC
  5
1F0
330
1C1
100
AcDbEntity
  8
$DDT_AUDIT_GENERATED_(193)
  6
Continuous
 62
     7
100
AcDbCircle
 10
224.6316902237
 20
426.3780875026
 30
0.0
 40
0.2999999999999892
100
AcDbArc
 50
259.9701013886
 51
350.2105987885
  0
SPLINE
  5
1F1
330
1C1
100
AcDbEntity
  8
$DDT_AUDIT_GENERATED_(193)
  6
Continuous
 62
     7
100
AcDbSpline
210
0.0
220
0.0
230
1.0
 70
     8
 71
     3
 72
     8
 73
     4
 74
     0
 42
0.0000000015907446
 43
0.0000000001
 40
0.0
 40
0.0
 40
0.0
 40
0.0
 40
1.0
 40
1.0
 40
1.0
 40
1.0
 10
226.4289367392518
 20
435.0019647430456
 30
0.0
 10
226.0700870800947
 20
432.937467233535
 30
0.0
 10
225.7125266805305
 20
430.872742866269
 30
0.0
 10
225.3556907389835
 20
428.8078940406751
 30
0.0
  0
ARC
  5
1F2
330
1C1
100
AcDbEntity
  8
$DDT_AUDIT_GENERATED_(193)
  6
Continuous
 62
     7
100
AcDbCircle
 10
255.818683273
 20
433.4930311835
 30
0.0
 40
29.42845700686344
100
AcDbArc
 50
163.1064377207
 51
177.0608906676
  0
ARC
  5
1F3
330
1C1
100
AcDbEntity
  8
$DDT_AUDIT_GENERATED_(193)
  6
Continuous
 62
     7
100
AcDbCircle
 10
236.4053682024
 20
317.5384980434
 30
0.0
 40
151.3689162631716
100
AcDbArc
 50
68.545603144
 51
84.9030375219
  0
SPLINE
  5
1F4
330
1C1
100
AcDbEntity
  8
$DDT_AUDIT_GENERATED_(193)
  6
Continuous
 62
     7
100
AcDbSpline
210
0.0
220
0.0
230
1.0
 70
     8
 71
     3
 72
    15
 73
    11
 74
     0
 42
0.0000000008689845
 43
0.0000000001
 40
0.0
 40
0.0
 40
0.0
 40
0.0
 40
0.1502938505062459
 40
0.2727224496887339
 40
0.3647819672437628
 40
0.4338978515279481
 40
0.5262630266377374
 40
0.6498085443350682
 40
0.8067524845526469
 40
1.0
 40
1.0
 40
1.0
 40
1.0
 10
293.6385257317682
 20
458.0688584455542
 30
0.0
 10
294.2724329525
 20
458.0544374750124
 30
0.0
 10
295.2388820072443
 20
458.0346303372912
 30
0.0
 10
296.6637438054752
 20
458.0608528577322
 30
0.0
 10
297.7460454856483
 20
458.1066024431393
 30
0.0
 10
298.7173664321108
 20
458.1658123160477
 30
0.0
 10
299.8079610553414
 20
458.2525931346923
 30
0.0
 10
301.2243405480388
 20
458.4005739931567
 30
0.0
 10
303.0582709600367
 20
458.6490497977862
 30
0.0
 10
304.279078045789
 20
458.8740145997271
 30
0.0
 10
305.0804426502083
 20
459.0240425984003
 30
0.0
  0
SPLINE
  5
1F5
330
1C1
100
AcDbEntity
  8
$DDT_AUDIT_GENERATED_(193)
  6
Continuous
 62
     7
100
AcDbSpline
210
0.0
220
0.0
230
1.0
 70
     8
 71
     3
 72
    25
 73
    21
 74
     0
 42
0.0000000000777132
 43
0.0000000001
 40
0.0
 40
0.0
 40
0.0
 40
0.0
 40
0.0491928998290729
 40
0.1059870404562485
 40
0.1647367387269816
 40
0.2248506554805592
 40
0.2858120732846939
 40
0.3460719645930063
 40
0.4063365583647967
 40
0.466275271776152
 40
0.5255983368617123
 40
0.5919429828098337
 40
0.6568516889907249
 40
0.7200646780507752
 40
0.7813782062611262
 40
0.8289645356829988
 40
0.8751945475189346
 40
0.9200487318670386
 40
0.9635365106203895
 40
1.0
 40
1.0
 40
1.0
 40
1.0
 10
305.2096988092674
 20
461.4920311879258
 30
0.0
 10
303.0329930540634
 20
462.2949569984182
 30
0.0
 10
299.0696555732992
 20
463.7458563752826
 30
0.0
 10
292.1935156544072
 20
465.9221525613435
 30
0.0
 10
284.9739728938981
 20
467.9177565744346
 30
0.0
 10
277.4533768471416
 20
469.6789119211266
 30
0.0
 10
269.8187286990143
 20
471.1427996347815
 30
0.0
 10
262.1198570898735
 20
472.2930480224607
 30
0.0
 10
254.4242314830234
 20
473.1157902482259
 30
0.0
 10
246.7400807690797
 20
473.6055027340188
 30
0.0
 10
238.7811069317573
 20
473.76103479003
 30
0.0
 10
230.6096978599336
 20
473.5235541889825
 30
0.0
 10
222.2963315934071
 20
472.8315450185088
 30
0.0
 10
214.2492741634962
 20
471.6991772939343
 30
0.0
 10
207.0111088791455
 20
470.232294536331
 30
0.0
 10
200.579776029508
 20
468.5354543777902
 30
0.0
 10
194.9100130316324
 20
466.7041004547773
 30
0.0
 10
189.5612028914363
 20
464.6230414795092
 30
0.0
 10
184.5879313653733
 20
462.3471514900568
 30
0.0
 10
181.8087376765587
 20
460.7881428848353
 30
0.0
 10
180.3120840095846
 20
459.9411126481058
 30
0.0
  0
ARC
  5
1F6
330
1C1
100
AcDbEntity
  8
$DDT_AUDIT_GENERATED_(1B0)
  6
Continuous
 62
     7
100
AcDbCircle
 10
198.2023312665
 20
421.9617930966
 30
0.0
 40
24.49999999999999
100
AcDbArc
 50
118.3384668235
 51
154.8572685595
  0
ARC
  5
1F7
330
1C1
100
AcDbEntity
  8
$DDT_AUDIT_GENERATED_(1B0)
  6
Continuous
 62
     7
100
AcDbCircle
 10
198.2023312665
 20
421.9617930966
 30
0.0
 40
24.5
100
AcDbArc
 50
5.1427314405
 51
10.7031902426
  0
LINE
  5
1F8
330
1C1
100
AcDbEntity
  8
$DDT_AUDIT_GENERATED_(1B3)
  6
Continuous
 62
     7
100
AcDbLine
 10
228.1854257026
 20
441.926154106
 30
0.0
 11
227.0467378421
 21
434.3341185886
 31
0.0
  0
LINE
  5
1F9
330
1C1
100
AcDbEntity
  8
$DDT_AUDIT_GENERATED_(1B3)
  6
Continuous
 62
     7
100
AcDbLine
 10
226.5884401306
 20
434.6494501238
 30
0.0
 11
227.0467378421
 21
434.3341185886
 31
0.0
  0
LINE
  5
1FA
330
1C1
100
AcDbEntity
  8
$DDT_AUDIT_GENERATED_(1B3)
  6
Continuous
 62
     7
100
AcDbLine
 10
228.1854257026
 20
441.926154106
 30
0.0
 11
227.727127991
 21
442.2414856412
 31
0.0
  0
LINE
  5
1FB
330
1C1
100
AcDbEntity
  8
$DDT_AUDIT_GENERATED_(1B3)
  6
Continuous
 62
     7
100
AcDbLine
 10
226.4289367393
 20
435.001964743
 30
0.0
 11
226.6214455758
 21
434.8695091243
 31
0.0
  0
LINE
  5
1FD
330
1C1
100
AcDbEntity
  8
DV2_Default
  6
Continuous
 62
     7
100
AcDbLine
 10
156.3439116557
 20
328.2188613889
 30
0.0
 11
207.115242621
 21
328.2188613889
 31
0.0
  0
LINE
  5
1FE
330
1C1
100
AcDbEntity
  8
DV2_Default
  6
CENTER2
 62
     7
100
AcDbLine
 10
201.7295766913
 20
328.2188613889
 30
0.0
 11
161.7295775854
 21
328.2188613889
 31
0.0
  0
LINE
  5
1FF
330
1C1
100
AcDbEntity
  8
DV2_Default
  6
CENTER2
 62
     7
100
AcDbLine
 10
181.7295771384
 20
348.2188609419
 30
0.0
 11
181.7295771384
 21
308.218861836
 31
0.0
  0
ENDBLK
  5
201
330
1C1
100
AcDbEntity
  8
0
100
AcDbBlockEnd
  0
BLOCK
  5
234
330
202
100
AcDbEntity
  8
0
100
AcDbBlockBegin
  2
SE2
 70
     0
 10
0.0
 20
0.0
 30
0.0
  3
SE2
  1

  0
ARC
  5
204
330
202
100
AcDbEntity
  8
$DDT_AUDIT_GENERATED_(60)
  6
Continuous
 62
     7
100
AcDbCircle
 10
31.8193635149
 20
230.5282550076
 30
0.0
 40
25.2368607558264
100
AcDbArc
 50
0.3404819581
 51
0.524241535
  0
ARC
  5
205
330
202
100
AcDbEntity
  8
$DDT_AUDIT_GENERATED_(60)
  6
Continuous
 62
     7
100
AcDbCircle
 10
32.4676993309
 20
230.6781626555
 30
0.0
 40
25.38901500559867
100
AcDbArc
 50
90.9307026567
 51
179.9998594179
  0
ARC
  5
206
330
202
100
AcDbEntity
  8
$DDT_AUDIT_GENERATED_(60)
  6
Continuous
 62
     7
100
AcDbCircle
 10
31.8335461735
 20
230.8430418331
 30
0.0
 40
25.22176119583548
100
AcDbArc
 50
359.809452665
 51
89.4962334898
  0
ARC
  5
207
330
202
100
AcDbEntity
  8
$DDT_AUDIT_GENERATED_(60)
  6
Continuous
 62
     7
100
AcDbCircle
 10
891.7790988821
 20
98.379492619
 30
0.0
 40
842.4141996477492
100
AcDbArc
 50
175.8566384697
 51
175.8799885332
  0
SPLINE
  5
208
330
202
100
AcDbEntity
  8
$DDT_AUDIT_GENERATED_(60)
  6
Continuous
 62
     7
100
AcDbSpline
210
0.0
220
0.0
230
1.0
 70
     8
 71
     3
 72
     9
 73
     5
 74
     0
 42
0.0000000003266705
 43
0.0000000001
 40
0.0
 40
0.0
 40
0.0
 40
0.0
 40
0.0586153462544775
 40
0.0901231097257525
 40
0.0901231097257525
 40
0.0901231097257525
 40
0.0901231097257525
 10
49.63142143934153
 20
119.5684790482405
 30
0.0
 10
49.6803927805199
 20
120.1653746701471
 30
0.0
 10
49.75568790093551
 20
121.0831222066774
 30
0.0
 10
49.78482710258609
 20
122.0009577027093
 30
0.0
 10
49.78968548938274
 20
122.3217291710101
 30
0.0
  0
SPLINE
  5
209
330
202
100
AcDbEntity
  8
$DDT_AUDIT_GENERATED_(60)
  6
Continuous
 62
     7
100
AcDbSpline
210
0.0
220
0.0
230
1.0
 70
     8
 71
     3
 72
     9
 73
     5
 74
     0
 42
0.0000000003268415
 43
0.0000000001
 40
0.9098120828559132
 40
0.9098120828559132
 40
0.9098120828559132
 40
0.9098120828559132
 40
0.9413851740299237
 40
1.0
 40
1.0
 40
1.0
 40
1.0
 10
14.32092169968537
 20
122.3217756878362
 30
0.0
 10
14.32578543506844
 20
122.0005071982335
 30
0.0
 10
14.35494431677791
 20
121.0824918675046
 30
0.0
 10
14.43027307052487
 20
120.1645663362209
 30
0.0
 10
14.47923064634256
 20
119.5679892450377
 30
0.0
  0
ARC
  5
20A
330
202
100
AcDbEntity
  8
$DDT_AUDIT_GENERATED_(60)
  6
Continuous
 62
     7
100
AcDbCircle
 10
-824.9911597195
 20
98.5678447203
 30
0.0
 40
839.7330185071032
100
AcDbArc
 50
4.1458744487
 51
4.2692015283
  0
ELLIPSE
  5
20B
330
202
100
AcDbEntity
  8
$DDT_AUDIT_GENERATED_(60)
  6
Continuous
 62
     7
100
AcDbEllipse
 10
16.4715688834
 20
119.652201983
 30
0.0
 11
1.991406022184001
 21
0.1852081391558319
 31
0.0
210
0.0
220
0.0
230
1.0
 40
0.5488618286
 41
3.049776005894406
 42
3.141111098916091
  0
ELLIPSE
  5
20C
330
202
100
AcDbEntity
  8
$DDT_AUDIT_GENERATED_(60)
  6
Continuous
 62
     7
100
AcDbEllipse
 10
47.6390810486
 20
119.6526826484
 30
0.0
 11
-1.99140831657923
 21
0.1851834675639791
 31
0.0
210
0.0
220
0.0
230
1.0
 40
0.5488607198
 41
3.14180443218741
 42
3.233395421098431
  0
ARC
  5
20D
330
202
100
AcDbEntity
  8
$DDT_AUDIT_GENERATED_(60)
  6
Continuous
 62
     7
100
AcDbCircle
 10
651.5480297048
 20
111.8845466468
 30
0.0
 40
601.8500848568083
100
AcDbArc
 50
175.519103475
 51
179.0063585856
  0
ARC
  5
20E
330
202
100
AcDbEntity
  8
$DDT_AUDIT_GENERATED_(60)
  6
Continuous
 62
     7
100
AcDbCircle
 10
-595.1976013397
 20
111.5747573908
 30
0.0
 40
609.6144741005616
100
AcDbArc
 50
1.0101119623
 51
4.6579226861
  0
LINE
  5
20F
330
202
100
AcDbEntity
  8
$DDT_AUDIT_GENERATED_(60)
  6
Continuous
 62
     7
100
AcDbLine
 10
57.0553026802
 20
217.3198934001
 30
0.0
 11
57.0553026802
 21
230.6781173428
 31
0.0
  0
LINE
  5
210
330
202
100
AcDbEntity
  8
$DDT_AUDIT_GENERATED_(60)
  6
Continuous
 62
     7
100
AcDbLine
 10
7.0553026999
 20
230.6781109348
 30
0.0
 11
7.0553026999
 21
217.2961466461
 31
0.0
  0
ARC
  5
211
330
202
100
AcDbEntity
  8
$DDT_AUDIT_GENERATED_(60)
  6
Continuous
 62
     7
100
AcDbCircle
 10
-1067.5083479839
 20
74.8616277795
 30
0.0
 40
1083.346474237907
100
AcDbArc
 50
4.4619547541
 51
6.3187939825
  0
ARC
  5
212
330
202
100
AcDbEntity
  8
$DDT_AUDIT_GENERATED_(60)
  6
Continuous
 62
     7
100
AcDbCircle
 10
32.1689653171
 20
151.3813731636
 30
0.0
 40
37.39981316106522
100
AcDbArc
 50
243.6613632011
 51
248.1266089328
  0
ARC
  5
213
330
202
100
AcDbEntity
  8
$DDT_AUDIT_GENERATED_(60)
  6
Continuous
 62
     7
100
AcDbCircle
 10
31.9309716943
 20
151.422679146
 30
0.0
 40
37.44115485149014
100
AcDbArc
 50
291.8643176321
 51
296.3254507453
  0
ARC
  5
214
330
202
100
AcDbEntity
  8
$DDT_AUDIT_GENERATED_(60)
  6
Continuous
 62
     7
100
AcDbCircle
 10
1140.9758140888
 20
73.9695203288
 30
0.0
 40
1092.744445575526
100
AcDbArc
 50
173.6890166641
 51
175.5313364978
  0
ARC
  5
215
330
202
100
AcDbEntity
  8
$DDT_AUDIT_GENERATED_(60)
  6
Continuous
 62
     7
100
AcDbCircle
 10
16.4715688834
 20
119.652201983
 30
0.0
 40
1.999999999999999
100
AcDbArc
 50
185.2966513332
 51
243.3861902759
  0
ARC
  5
216
330
202
100
AcDbEntity
  8
$DDT_AUDIT_GENERATED_(60)
  6
Continuous
 62
     7
100
AcDbCircle
 10
47.6390810486
 20
119.6526826484
 30
0.0
 40
1.999999999999995
100
AcDbArc
 50
296.6087687882
 51
354.6949974513
  0
ARC
  5
217
330
202
100
AcDbEntity
  8
$DDT_AUDIT_GENERATED_(60)
  6
Continuous
 62
     7
100
AcDbCircle
 10
48.8950744348
 20
122.9296780007
 30
0.0
 40
34.57820069662471
100
AcDbArc
 50
181.0093153259
 51
181.0526169127
  0
ARC
  5
218
330
202
100
AcDbEntity
  8
$DDT_AUDIT_GENERATED_(60)
  6
Continuous
 62
     7
100
AcDbCircle
 10
15.218535492
 20
122.9295635413
 30
0.0
 40
34.5751948400495
100
AcDbArc
 50
354.1518719649
 51
358.9906992872
  0
SPLINE
  5
219
330
202
100
AcDbEntity
  8
$DDT_AUDIT_GENERATED_(193)
  6
Continuous
 62
     7
100
AcDbSpline
210
0.0
220
0.0
230
1.0
 70
     8
 71
     3
 72
     9
 73
     5
 74
     0
 42
0.0000000001057734
 43
0.0000000001
 40
0.9337341367742263
 40
0.9337341367742263
 40
0.9337341367742263
 40
0.9337341367742263
 40
0.9380452608143391
 40
0.9393174928698464
 40
0.9393174928698464
 40
0.9393174928698464
 40
0.9393174928698464
 10
7.45191338080739
 20
200.3704328464947
 30
0.0
 10
7.4234873033855
 20
200.5033099813284
 30
0.0
 10
7.387619171843967
 20
200.6755763141988
 30
0.0
 10
7.353021642556155
 20
200.8480705353797
 30
0.0
 10
7.345204722830164
 20
200.8873870607415
 30
0.0
  0
SPLINE
  5
21A
330
202
100
AcDbEntity
  8
$DDT_AUDIT_GENERATED_(193)
  6
Continuous
 62
     7
100
AcDbSpline
210
0.0
220
0.0
230
1.0
 70
    12
 71
     3
 72
    10
 73
     6
 74
     0
 42
0.0000000000962583
 43
0.0000000001
 40
0.9335894955916249
 40
0.9335894955916249
 40
0.9335894955916249
 40
0.9335894955916249
 40
0.9375017583324878
 40
0.9375017583324878
 40
0.9386642663882502
 40
0.9386642663882502
 40
0.9386642663882502
 40
0.9386642663882502
 10
56.65907084783685
 20
200.3720900780301
 30
0.0
 41
0.9999999999999846
 10
56.68723534049861
 20
200.5038003467791
 30
0.0
 41
0.9999999999999847
 10
56.71481160772505
 20
200.6362655676669
 30
0.0
 41
0.9999999999999847
 10
56.74975586831858
 20
200.8090545861105
 30
0.0
 41
0.9999999999999847
 10
56.75770446845932
 20
200.8487013725676
 30
0.0
 41
0.9999999999999847
 10
56.76559556961573
 20
200.8884124936122
 30
0.0
 41
0.9999999999999847
  0
ARC
  5
21B
330
202
100
AcDbEntity
  8
$DDT_AUDIT_GENERATED_(193)
  6
Continuous
 62
     7
100
AcDbCircle
 10
245.6736509766
 20
224.7084108244
 30
0.0
 40
239.64447677081
100
AcDbArc
 50
183.0268134331
 51
184.339098828
  0
ARC
  5
21C
330
202
100
AcDbEntity
  8
$DDT_AUDIT_GENERATED_(193)
  6
Continuous
 62
     7
100
AcDbCircle
 10
25.5530080477
 20
211.9007069539
 30
0.0
 40
19.19012917926505
100
AcDbArc
 50
179.5411344463
 51
182.9093436143
  0
LINE
  5
21D
330
202
100
AcDbEntity
  8
$DDT_AUDIT_GENERATED_(193)
  6
Continuous
 62
     7
100
AcDbLine
 10
57.7461260046
 20
212.0826188071
 30
0.0
 11
57.7438639449
 21
212.1885897294
 31
0.0
  0
ARC
  5
21E
330
202
100
AcDbEntity
  8
$DDT_AUDIT_GENERATED_(193)
  6
Continuous
 62
     7
100
AcDbCircle
 10
38.9187135251
 20
211.8459367317
 30
0.0
 40
18.82890010278851
100
AcDbArc
 50
357.1918345741
 51
0.7202354403
  0
ARC
  5
21F
330
202
100
AcDbEntity
  8
$DDT_AUDIT_GENERATED_(193)
  6
Continuous
 62
     7
100
AcDbCircle
 10
30.6321535453
 20
210.7325027674
 30
0.0
 40
24.30604801544078
100
AcDbArc
 50
139.7876542808
 51
176.8120446168
  0
LINE
  5
220
330
202
100
AcDbEntity
  8
$DDT_AUDIT_GENERATED_(193)
  6
Continuous
 62
     7
100
AcDbLine
 10
6.3637197026
 20
212.084201311
 30
0.0
 11
6.3630033973
 21
212.0545145207
 31
0.0
  0
SPLINE
  5
221
330
202
100
AcDbEntity
  8
$DDT_AUDIT_GENERATED_(193)
  6
Continuous
 62
     7
100
AcDbSpline
210
0.0
220
0.0
230
1.0
 70
     8
 71
     3
 72
    12
 73
     8
 74
     0
 42
0.0000000002871169
 43
0.0000000001
 40
0.0000140536960672
 40
0.0000140536960672
 40
0.0000140536960672
 40
0.0000140536960672
 40
0.2500000000000002
 40
0.2500000000000002
 40
0.3750000000000001
 40
0.3750000000000001
 40
0.4497326595808112
 40
0.4497326595808112
 40
0.4497326595808112
 40
0.4497326595808112
 10
57.74408200761982
 20
212.1895695727358
 30
0.0
 10
57.6759016714883
 20
214.9883802050213
 30
0.0
 10
57.13850742006901
 20
217.7806183757999
 30
0.0
 10
55.45437063973208
 20
221.7695085875836
 30
0.0
 10
54.74414390675909
 20
223.0730169426544
 30
0.0
 10
53.39235574379436
 20
225.0362986776163
 30
0.0
 10
52.83671019777976
 20
225.7484145028652
 30
0.0
 10
52.2274095453201
 20
226.4363286398214
 30
0.0
  0
SPLINE
  5
222
330
202
100
AcDbEntity
  8
$DDT_AUDIT_GENERATED_(193)
  6
Continuous
 62
     7
100
AcDbSpline
210
0.0
220
0.0
230
1.0
 70
    12
 71
     2
 72
     6
 73
     3
 74
     0
 42
0.0000002771328424
 43
0.0000000001
 40
0.0
 40
0.0
 40
0.0
 40
0.2130223037612408
 40
0.2130223037612408
 40
0.2130223037612408
 10
32.05530274150267
 20
234.9968514398077
 30
0.0
 41
1.0
 10
32.05537126755729
 20
235.004186429938
 30
0.0
 41
0.9692131129634779
 10
32.05542916005706
 20
235.0038398930983
 30
0.0
 41
0.9515428131312699
  0
ARC
  5
223
330
202
100
AcDbEntity
  8
$DDT_AUDIT_GENERATED_(193)
  6
Continuous
 62
     7
100
AcDbCircle
 10
66.032729113
 20
211.5802111437
 30
0.0
 40
59.65333574657816
100
AcDbArc
 50
180.6326321537
 51
190.3259823184
  0
SPLINE
  5
224
330
202
100
AcDbEntity
  8
$DDT_AUDIT_GENERATED_(193)
  6
Continuous
 62
     7
100
AcDbSpline
210
0.0
220
0.0
230
1.0
 70
     8
 71
     3
 72
    32
 73
    28
 74
     0
 42
0.0000000001115721
 43
0.0000000001
 40
0.0
 40
0.0
 40
0.0
 40
0.0
 40
0.0367109813924984
 40
0.0737032297418362
 40
0.1190879565975034
 40
0.1809487077842739
 40
0.2193372742639665
 40
0.2308859961989574
 40
0.2508721233224218
 40
0.2939002281361434
 40
0.3119509435754156
 40
0.3228533986694668
 40
0.3518070271660057
 40
0.3951760359441598
 40
0.4197823660952995
 40
0.4399105793235674
 40
0.4894600293875768
 40
0.5353016793695814
 40
0.5725634193976128
 40
0.6052972714136711
 40
0.6676170114485184
 40
0.7040059554076938
 40
0.7426809796470228
 40
0.7945982567006117
 40
0.8809501311363639
 40
0.9428821955173208
 40
1.0
 40
1.0
 40
1.0
 40
1.0
 10
7.453674948274057
 20
200.370776347344
 30
0.0
 10
7.695915073499381
 20
199.2143740729548
 30
0.0
 10
8.209047288604884
 20
197.2830778268056
 30
0.0
 10
9.312133657882839
 20
193.8585776055922
 30
0.0
 10
10.62485144036727
 20
189.8534621126749
 30
0.0
 10
11.81412269567675
 20
185.6032527708041
 30
0.0
 10
12.68737254549336
 20
182.3633933496507
 30
0.0
 10
13.22410236128635
 20
180.3110399633891
 30
0.0
 10
13.79493151941185
 20
178.1328718818093
 30
0.0
 10
14.40858567510989
 20
175.7502668306881
 30
0.0
 10
14.93668333989888
 20
173.6295551144332
 30
0.0
 10
15.34544459156818
 20
171.9176537338303
 30
0.0
 10
15.91154688780174
 20
169.4504692535814
 30
0.0
 10
16.42300152186527
 20
166.5460824304049
 30
0.0
 10
16.75279231594089
 20
163.8873095488345
 30
0.0
 10
17.04508515654809
 20
161.0357306156085
 30
0.0
 10
17.33842250373002
 20
157.5411297103372
 30
0.0
 10
17.68530113015363
 20
153.5342078981172
 30
0.0
 10
17.87872522515801
 20
150.0412723071696
 30
0.0
 10
18.00787170447245
 20
146.0518876714615
 30
0.0
 10
18.05967316500537
 20
142.1139178015404
 30
0.0
 10
18.09350044079627
 20
137.9950797045101
 30
0.0
 10
18.11780889489086
 20
134.2353403096849
 30
0.0
 10
18.14282576407844
 20
128.9375630616905
 30
0.0
 10
18.16463679917843
 20
123.1553259186066
 30
0.0
 10
18.21868921622691
 20
116.9803066946498
 30
0.0
 10
18.26750852600899
 20
113.8197134587318
 30
0.0
 10
18.30344378040934
 20
112.0102554437209
 30
0.0
  0
ARC
  5
225
330
202
100
AcDbEntity
  8
$DDT_AUDIT_GENERATED_(193)
  6
Continuous
 62
     7
100
AcDbCircle
 10
20.9647010368
 20
111.8976287805
 30
0.0
 40
2.663693101750806
100
AcDbArc
 50
177.571764296
 51
236.1461579721
  0
ARC
  5
226
330
202
100
AcDbEntity
  8
$DDT_AUDIT_GENERATED_(193)
  6
Continuous
 62
     7
100
AcDbCircle
 10
31.7482976902
 20
130.5767137257
 30
0.0
 40
24.22671372573359
100
AcDbArc
 50
239.5781407889
 51
270.7260512567
  0
SPLINE
  5
227
330
202
100
AcDbEntity
  8
$DDT_AUDIT_GENERATED_(193)
  6
Continuous
 62
     7
100
AcDbSpline
210
0.0
220
0.0
230
1.0
 70
     8
 71
     3
 72
    31
 73
    27
 74
     0
 42
0.0000000001115702
 43
0.0000000001
 40
0.0
 40
0.0
 40
0.0
 40
0.0
 40
0.1028957920462916
 40
0.144469852554566
 40
0.222228849458111
 40
0.2809403287306011
 40
0.3366611036509906
 40
0.3915500541590358
 40
0.4232479746189296
 40
0.4534536609353668
 40
0.5002650726743381
 40
0.5501033554673034
 40
0.5781548326990246
 40
0.6095218828173401
 40
0.6511590499729796
 40
0.6768249376584509
 40
0.6862119649370586
 40
0.7050263110510808
 40
0.7384290900703618
 40
0.7696833165212958
 40
0.7884980186450623
 40
0.8423672184317312
 40
0.8926643323022148
 40
0.9178419091443838
 40
0.9519683970531629
 40
1.0
 40
1.0
 40
1.0
 40
1.0
 10
45.80716170259578
 20
112.0102554437209
 30
0.0
 10
45.87000591211245
 20
115.2713312665389
 30
0.0
 10
45.91466187866535
 20
119.0080586023706
 30
0.0
 10
45.95692742552541
 20
125.7546526330107
 30
0.0
 10
45.97543502242823
 20
130.8760778930364
 30
0.0
 10
46.00679246742336
 20
136.6587451356276
 30
0.0
 10
46.04551259611221
 20
141.6753683470469
 30
0.0
 10
46.10285614480802
 20
145.9706587180231
 30
0.0
 10
46.2125803107103
 20
149.4779049916029
 30
0.0
 10
46.37223165976339
 20
152.7617096928626
 30
0.0
 10
46.68652567716561
 20
156.5883323772409
 30
0.0
 10
47.00821968737071
 20
160.3616705834648
 30
0.0
 10
47.32680977884356
 20
163.6664248362643
 30
0.0
 10
47.7099044017
 20
166.7165156622646
 30
0.0
 10
48.24788886189994
 20
169.6695337129946
 30
0.0
 10
48.77187781590309
 20
171.9424484045836
 30
0.0
 10
49.15092221158105
 20
173.535462504681
 30
0.0
 10
49.6015966212553
 20
175.3502946903334
 30
0.0
 10
50.23076121559514
 20
177.8060384226521
 30
0.0
 10
50.86808232727139
 20
180.2444314681247
 30
0.0
 10
51.67000911398122
 20
183.2943749160702
 30
0.0
 10
52.63523665741117
 20
186.8479508150148
 30
0.0
 10
53.73279945689073
 20
190.6048704082645
 30
0.0
 10
54.72214133056835
 20
193.6327976275413
 30
0.0
 10
55.73978814050848
 20
196.7549571327138
 30
0.0
 10
56.33802522815583
 20
198.8602201469244
 30
0.0
 10
56.65643606354999
 20
200.3725910725113
 30
0.0
  0
ARC
  5
228
330
202
100
AcDbEntity
  8
$DDT_AUDIT_GENERATED_(193)
  6
Continuous
 62
     7
100
AcDbCircle
 10
43.1373427424
 20
111.9019646728
 30
0.0
 40
2.672067538811373
100
AcDbArc
 50
303.9545090207
 51
2.3275687111
  0
ARC
  5
229
330
202
100
AcDbEntity
  8
$DDT_AUDIT_GENERATED_(193)
  6
Continuous
 62
     7
100
AcDbCircle
 10
32.3554210474
 20
130.6026910493
 30
0.0
 40
24.25260277056258
100
AcDbArc
 50
269.2909947544
 51
300.4048132
  0
ARC
  5
22A
330
202
100
AcDbEntity
  8
$DDT_AUDIT_GENERATED_(193)
  6
Continuous
 62
     7
100
AcDbCircle
 10
-0.6604367373
 20
211.4575708339
 30
0.0
 40
58.39053629246083
100
AcDbArc
 50
349.5715075146
 51
359.475660208
  0
ARC
  5
22B
330
202
100
AcDbEntity
  8
$DDT_AUDIT_GENERATED_(193)
  6
Continuous
 62
     7
100
AcDbCircle
 10
32.5304660993
 20
208.0859810139
 30
0.0
 40
26.91867567995844
100
AcDbArc
 50
43.0292382137
 51
91.0111455313
  0
ARC
  5
22C
330
202
100
AcDbEntity
  8
$DDT_AUDIT_GENERATED_(193)
  6
Continuous
 62
     7
100
AcDbCircle
 10
31.5863971887
 20
208.0613116472
 30
0.0
 40
26.94298382038442
100
AcDbArc
 50
89.0025357663
 51
136.7028525802
  0
LINE
  5
22E
330
202
100
AcDbEntity
  8
DV3_Default
  6
CENTER2
 62
     7
100
AcDbLine
 10
52.4676988839
 20
230.6781626555
 30
0.0
 11
12.4676997779
 21
230.6781626555
 31
0.0
  0
LINE
  5
22F
330
202
100
AcDbEntity
  8
DV3_Default
  6
CENTER2
 62
     7
100
AcDbLine
 10
32.4676993309
 20
250.6781622084
 30
0.0
 11
32.4676993309
 21
210.6781631025
 31
0.0
  0
LINE
  5
230
330
202
100
AcDbEntity
  8
DV3_Default
  6
CENTER2
 62
     7
100
AcDbLine
 10
57.4676987721
 20
230.6781626555
 30
0.0
 11
61.3567143365
 21
230.6781626555
 31
0.0
  0
LINE
  5
231
330
202
100
AcDbEntity
  8
DV3_Default
  6
CENTER2
 62
     7
100
AcDbLine
 10
32.4676993309
 20
255.6781620967
 30
0.0
 11
32.4676993309
 21
259.5671776611
 31
0.0
  0
LINE
  5
232
330
202
100
AcDbEntity
  8
DV3_Default
  6
CENTER2
 62
     7
100
AcDbLine
 10
7.4676998897
 20
230.6781626555
 30
0.0
 11
3.5786843253
 21
230.6781626555
 31
0.0
  0
LINE
  5
233
330
202
100
AcDbEntity
  8
DV3_Default
  6
CENTER2
 62
     7
100
AcDbLine
 10
32.4676993309
 20
205.6781632143
 30
0.0
 11
32.4676993309
 21
201.7891476499
 31
0.0
  0
ENDBLK
  5
235
330
202
100
AcDbEntity
  8
0
100
AcDbBlockEnd
  0
ENDSEC
  0
SECTION
  2
ENTITIES
  0
INSERT
  5
5F
330
1F
100
AcDbEntity
  8
Default
100
AcDbBlockReference
  2
SE
 10
0.0
 20
0.0
 30
0.0
  0
INSERT
  5
1C2
330
1F
100
AcDbEntity
  8
Default
100
AcDbBlockReference
  2
SE1
 10
0.0
 20
0.0
 30
0.0
  0
INSERT
  5
203
330
1F
100
AcDbEntity
  8
Default
100
AcDbBlockReference
  2
SE2
 10
0.0
 20
0.0
 30
0.0
  0
TEXT
  5
237
330
1F
100
AcDbEntity
  8
Default
  6
Continuous
 62
     7
100
AcDbText
 10
5.9362635081
 20
53.4225120485
 30
0.0
 40
10.0
  1
Grohe AG^J
  7
SEACAD_seiso_ttf
 11
5.9362635081
 21
63.4225120485
 31
0.0
100
AcDbText
 73
     3
  0
TEXT
  5
238
330
1F
100
AcDbEntity
  8
Default
  6
Continuous
 62
     7
100
AcDbText
 10
5.9362635081
 20
37.0588756849
 30
0.0
 40
10.0
  1
 
  7
SEACAD_seiso_ttf
 11
5.9362635081
 21
47.0588756849
 31
0.0
100
AcDbText
 73
     3
  0
TEXT
  5
239
330
1F
100
AcDbEntity
  8
Default
  6
Continuous
 62
     7
100
AcDbText
 10
5.9362635081
 20
20.6952393213
 30
0.0
 40
10.0
  1
ecn:
  7
SEACAD_seiso_ttf
 11
5.9362635081
 21
30.6952393213
 31
0.0
100
AcDbText
 73
     3
  0
TEXT
  5
23A
330
1F
100
AcDbEntity
  8
Default
  6
Continuous
 62
     7
100
AcDbText
 10
5.9362635081
 20
4.3316029576
 30
0.0
 40
10.0
  1
unit: mm
  7
SEACAD_seiso_ttf
 11
5.9362635081
 21
14.3316029576
 31
0.0
100
AcDbText
 73
     3
  0
LINE
  5
23B
330
1F
100
AcDbEntity
  8
Default
  6
Continuous
 62
     7
100
AcDbLine
 10
0.0
 20
0.0
 30
0.0
 11
100.0
 21
0.0
 31
0.0
  0
LINE
  5
23C
330
1F
100
AcDbEntity
  8
Default
  6
Continuous
 62
     7
100
AcDbLine
 10
0.0
 20
0.0
 30
0.0
 11
0.0
 21
100.0
 31
0.0
  0
TEXT
  5
23D
330
1F
100
AcDbEntity
  8
Default
  6
Continuous
 62
     7
100
AcDbText
 10
24.3923665681
 20
-18.2375342018
 30
0.0
 40
10.0
  1
100 mm
  7
SEACAD_seiso_ttf
 11
24.3923665681
 21
-8.2375342018
 31
0.0
100
AcDbText
 73
     3
  0
TEXT
  5
23E
330
1F
100
AcDbEntity
  8
Default
  6
Continuous
 62
     7
100
AcDbText
 10
-7.6150308803
 20
24.6231930421
 30
0.0
 40
10.0
  1
100 mm
 50
90.0
  7
SEACAD_seiso_ttf
 11
-17.6150308803
 21
24.6231930421
 31
0.0
100
AcDbText
 73
     3
  0
TEXT
  5
23F
330
1F
100
AcDbEntity
  8
Default
  6
Continuous
 62
     7
100
AcDbText
 10
28.4878128572
 20
20.0907663715
 30
0.0
 40
10.0
  1
230640
  7
SEACAD_seiso_ttf
 11
28.4878128572
 21
30.0907663715
 31
0.0
100
AcDbText
 73
     3
  0
TEXT
  5
240
330
1F
100
AcDbEntity
  8
Default
  6
Continuous
 62
     7
100
AcDbText
 10
5.9012241913
 20
36.7242780188
 30
0.0
 40
10.0
  1
33161002
  7
SEACAD_seiso_ttf
 11
5.9012241913
 21
46.7242780188
 31
0.0
100
AcDbText
 73
     3
  0
ENDSEC
  0
SECTION
  2
OBJECTS
  0
DICTIONARY
  5
C
330
0
100
AcDbDictionary
281
     1
  3
ACAD_GROUP
350
D
  3
ACAD_LAYOUT
350
1A
  3
ACAD_MLEADERSTYLE
350
244
  3
ACAD_MLINESTYLE
350
17
  3
ACAD_PLOTSETTINGS
350
19
  3
ACAD_PLOTSTYLENAME
350
E
  3
ACAD_SCALELIST
350
3B
  3
ACAD_TABLESTYLE
350
243
  3
ACAD_VISUALSTYLE
350
2A
  3
AcDbVariableDictionary
350
241
  0
DICTIONARY
  5
D
102
{ACAD_REACTORS
330
C
102
}
330
C
100
AcDbDictionary
281
     1
  0
DICTIONARY
  5
1A
102
{ACAD_REACTORS
330
C
102
}
330
C
100
AcDbDictionary
281
     1
  3
Layout1
350
1E
  3
Model
350
22
  0
DICTIONARY
  5
244
102
{ACAD_REACTORS
330
C
102
}
330
C
100
AcDbDictionary
281
     1
  0
DICTIONARY
  5
17
102
{ACAD_REACTORS
330
C
102
}
330
C
100
AcDbDictionary
281
     1
  3
Standard
350
18
  0
DICTIONARY
  5
19
102
{ACAD_REACTORS
330
C
102
}
330
C
100
AcDbDictionary
281
     1
  0
ACDBDICTIONARYWDFLT
  5
E
102
{ACAD_REACTORS
330
C
102
}
330
C
100
AcDbDictionary
281
     1
  3
Normal
350
F
100
AcDbDictionaryWithDefault
340
F
  0
DICTIONARY
  5
3B
102
{ACAD_REACTORS
330
C
102
}
330
C
100
AcDbDictionary
281
     1
  3
A0
350
3C
  3
A1
350
3D
  3
A2
350
3E
  3
A3
350
3F
  3
A4
350
40
  3
A5
350
41
  3
A6
350
42
  3
A7
350
43
  3
A8
350
44
  3
A9
350
45
  3
B0
350
46
  3
B1
350
47
  3
B2
350
48
  3
B3
350
49
  3
B4
350
4A
  3
B5
350
4B
  3
B6
350
4C
  3
B7
350
4D
  3
B8
350
4E
  3
B9
350
4F
  3
C0
350
50
  3
C1
350
51
  3
C2
350
52
  3
C3
350
53
  3
C4
350
54
  3
C5
350
55
  3
C6
350
56
  3
C7
350
57
  3
C8
350
58
  3
C9
350
59
  3
D0
350
5A
  3
D1
350
5B
  3
D2
350
5C
  0
DICTIONARY
  5
243
102
{ACAD_REACTORS
330
C
102
}
330
C
100
AcDbDictionary
281
     1
  0
DICTIONARY
  5
2A
102
{ACAD_REACTORS
330
C
102
}
330
C
100
AcDbDictionary
281
     1
  3
2dWireframe
350
2F
  3
3D Hidden
350
31
  3
3dWireframe
350
30
  3
Basic
350
32
  3
Brighten
350
36
  3
ColorChange
350
3A
  3
Conceptual
350
34
  3
Dim
350
35
  3
Facepattern
350
39
  3
Flat
350
2B
  3
FlatWithEdges
350
2C
  3
Gouraud
350
2D
  3
GouraudWithEdges
350
2E
  3
Linepattern
350
38
  3
Realistic
350
33
  3
Thicken
350
37
  0
DICTIONARY
  5
241
102
{ACAD_REACTORS
330
C
102
}
330
C
100
AcDbDictionary
281
     1
  3
CANNOSCALE
350
242
  3
PSOLHEIGHT
350
246
  3
PSOLWIDTH
350
245
  0
LAYOUT
  5
1E
102
{ACAD_REACTORS
330
1A
102
}
330
1A
100
AcDbPlotSettings
  1

  2
none_device
  4

  6

 40
0.0
 41
0.0
 42
0.0
 43
0.0
 44
0.0
 45
0.0
 46
0.0
 47
0.0
 48
0.0
 49
0.0
140
0.0
141
0.0
142
1.0
143
1.0
 70
   688
 72
     0
 73
     0
 74
     5
  7

 75
    16
147
1.0
148
0.0
149
0.0
100
AcDbLayout
  1
Layout1
 70
     1
 71
     1
 10
0.0
 20
0.0
 11
3000.0
 21
4500.0
 12
0.0
 22
0.0
 32
0.0
 14
0.0
 24
0.0
 34
0.0
 15
3000.0
 25
4500.0
 35
0.0
146
0.0
 13
0.0
 23
0.0
 33
0.0
 16
1.0
 26
0.0
 36
0.0
 17
0.0
 27
1.0
 37
0.0
 76
     0
330
1B
  0
LAYOUT
  5
22
102
{ACAD_REACTORS
330
1A
102
}
330
1A
100
AcDbPlotSettings
  1

  2
none_device
  4

  6

 40
0.0
 41
0.0
 42
0.0
 43
0.0
 44
0.0
 45
0.0
 46
0.0
 47
0.0
 48
0.0
 49
0.0
140
0.0
141
0.0
142
1.0
143
1.0
 70
  1712
 72
     0
 73
     0
 74
     0
  7

 75
     0
147
1.0
148
0.0
149
0.0
100
AcDbLayout
  1
Model
 70
     1
 71
     0
 10
0.0
 20
0.0
 11
3000.0
 21
4500.0
 12
0.0
 22
0.0
 32
0.0
 14
0.0
 24
0.0
 34
0.0
 15
3000.0
 25
4500.0
 35
0.0
146
0.0
 13
0.0
 23
0.0
 33
0.0
 16
1.0
 26
0.0
 36
0.0
 17
0.0
 27
1.0
 37
0.0
 76
     0
330
1F
331
29
  0
MLINESTYLE
  5
18
102
{ACAD_REACTORS
330
17
102
}
330
17
100
AcDbMlineStyle
  2
Standard
 70
     0
  3

 62
   256
 51
90.0
 52
90.0
 71
     2
 49
0.5
 62
   256
  6
BYLAYER
 49
-0.5
 62
   256
  6
BYLAYER
  0
ACDBPLACEHOLDER
  5
F
102
{ACAD_REACTORS
330
E
102
}
330
E
  0
SCALE
  5
3C
102
{ACAD_REACTORS
330
3B
102
}
330
3B
100
AcDbScale
 70
     0
300
1:1
140
1.0
141
1.0
290
     1
  0
SCALE
  5
3D
102
{ACAD_REACTORS
330
3B
102
}
330
3B
100
AcDbScale
 70
     0
300
1:2
140
1.0
141
2.0
290
     0
  0
SCALE
  5
3E
102
{ACAD_REACTORS
330
3B
102
}
330
3B
100
AcDbScale
 70
     0
300
1:4
140
1.0
141
4.0
290
     0
  0
SCALE
  5
3F
102
{ACAD_REACTORS
330
3B
102
}
330
3B
100
AcDbScale
 70
     0
300
1:5
140
1.0
141
5.0
290
     0
  0
SCALE
  5
40
102
{ACAD_REACTORS
330
3B
102
}
330
3B
100
AcDbScale
 70
     0
300
1:8
140
1.0
141
8.0
290
     0
  0
SCALE
  5
41
102
{ACAD_REACTORS
330
3B
102
}
330
3B
100
AcDbScale
 70
     0
300
1:10
140
1.0
141
10.0
290
     0
  0
SCALE
  5
42
102
{ACAD_REACTORS
330
3B
102
}
330
3B
100
AcDbScale
 70
     0
300
1:16
140
1.0
141
16.0
290
     0
  0
SCALE
  5
43
102
{ACAD_REACTORS
330
3B
102
}
330
3B
100
AcDbScale
 70
     0
300
1:20
140
1.0
141
20.0
290
     0
  0
SCALE
  5
44
102
{ACAD_REACTORS
330
3B
102
}
330
3B
100
AcDbScale
 70
     0
300
1:30
140
1.0
141
30.0
290
     0
  0
SCALE
  5
45
102
{ACAD_REACTORS
330
3B
102
}
330
3B
100
AcDbScale
 70
     0
300
1:40
140
1.0
141
40.0
290
     0
  0
SCALE
  5
46
102
{ACAD_REACTORS
330
3B
102
}
330
3B
100
AcDbScale
 70
     0
300
1:50
140
1.0
141
50.0
290
     0
  0
SCALE
  5
47
102
{ACAD_REACTORS
330
3B
102
}
330
3B
100
AcDbScale
 70
     0
300
1:100
140
1.0
141
100.0
290
     0
  0
SCALE
  5
48
102
{ACAD_REACTORS
330
3B
102
}
330
3B
100
AcDbScale
 70
     0
300
2:1
140
2.0
141
1.0
290
     0
  0
SCALE
  5
49
102
{ACAD_REACTORS
330
3B
102
}
330
3B
100
AcDbScale
 70
     0
300
4:1
140
4.0
141
1.0
290
     0
  0
SCALE
  5
4A
102
{ACAD_REACTORS
330
3B
102
}
330
3B
100
AcDbScale
 70
     0
300
8:1
140
8.0
141
1.0
290
     0
  0
SCALE
  5
4B
102
{ACAD_REACTORS
330
3B
102
}
330
3B
100
AcDbScale
 70
     0
300
10:1
140
10.0
141
1.0
290
     0
  0
SCALE
  5
4C
102
{ACAD_REACTORS
330
3B
102
}
330
3B
100
AcDbScale
 70
     0
300
100:1
140
100.0
141
1.0
290
     0
  0
SCALE
  5
4D
102
{ACAD_REACTORS
330
3B
102
}
330
3B
100
AcDbScale
 70
     0
300
1/128" = 1'-0"
140
0.0078125
141
12.0
290
     0
  0
SCALE
  5
4E
102
{ACAD_REACTORS
330
3B
102
}
330
3B
100
AcDbScale
 70
     0
300
1/64" = 1'-0"
140
0.015625
141
12.0
290
     0
  0
SCALE
  5
4F
102
{ACAD_REACTORS
330
3B
102
}
330
3B
100
AcDbScale
 70
     0
300
1/32" = 1'-0"
140
0.03125
141
12.0
290
     0
  0
SCALE
  5
50
102
{ACAD_REACTORS
330
3B
102
}
330
3B
100
AcDbScale
 70
     0
300
1/16" = 1'-0"
140
0.0625
141
12.0
290
     0
  0
SCALE
  5
51
102
{ACAD_REACTORS
330
3B
102
}
330
3B
100
AcDbScale
 70
     0
300
3/32" = 1'-0"
140
0.09375
141
12.0
290
     0
  0
SCALE
  5
52
102
{ACAD_REACTORS
330
3B
102
}
330
3B
100
AcDbScale
 70
     0
300
1/8" = 1'-0"
140
0.125
141
12.0
290
     0
  0
SCALE
  5
53
102
{ACAD_REACTORS
330
3B
102
}
330
3B
100
AcDbScale
 70
     0
300
3/16" = 1'-0"
140
0.1875
141
12.0
290
     0
  0
SCALE
  5
54
102
{ACAD_REACTORS
330
3B
102
}
330
3B
100
AcDbScale
 70
     0
300
1/4" = 1'-0"
140
0.25
141
12.0
290
     0
  0
SCALE
  5
55
102
{ACAD_REACTORS
330
3B
102
}
330
3B
100
AcDbScale
 70
     0
300
3/8" = 1'-0"
140
0.375
141
12.0
290
     0
  0
SCALE
  5
56
102
{ACAD_REACTORS
330
3B
102
}
330
3B
100
AcDbScale
 70
     0
300
1/2" = 1'-0"
140
0.5
141
12.0
290
     0
  0
SCALE
  5
57
102
{ACAD_REACTORS
330
3B
102
}
330
3B
100
AcDbScale
 70
     0
300
3/4" = 1'-0"
140
0.75
141
12.0
290
     0
  0
SCALE
  5
58
102
{ACAD_REACTORS
330
3B
102
}
330
3B
100
AcDbScale
 70
     0
300
1" = 1'-0"
140
1.0
141
12.0
290
     0
  0
SCALE
  5
59
102
{ACAD_REACTORS
330
3B
102
}
330
3B
100
AcDbScale
 70
     0
300
1-1/2" = 1'-0"
140
1.5
141
12.0
290
     0
  0
SCALE
  5
5A
102
{ACAD_REACTORS
330
3B
102
}
330
3B
100
AcDbScale
 70
     0
300
3" = 1'-0"
140
3.0
141
12.0
290
     0
  0
SCALE
  5
5B
102
{ACAD_REACTORS
330
3B
102
}
330
3B
100
AcDbScale
 70
     0
300
6" = 1'-0"
140
6.0
141
12.0
290
     0
  0
SCALE
  5
5C
102
{ACAD_REACTORS
330
3B
102
}
330
3B
100
AcDbScale
 70
     0
300
1'-0" = 1'-0"
140
12.0
141
12.0
290
     0
  0
VISUALSTYLE
  5
2F
102
{ACAD_REACTORS
330
2A
102
}
330
2A
100
AcDbVisualStyle
  2
2dWireframe
 70
     4
 71
     0
 72
     2
 73
     0
 90
        0
 40
-0.6
 41
-30.0
 62
     5
 63
     7
 74
     1
 91
        4
 64
     7
 65
   257
 75
     1
175
     1
 42
1.0
 92
        0
 66
   257
 43
1.0
 76
     1
 77
     6
 78
     2
 67
     7
 79
     5
170
     0
171
     0
290
     0
174
     0
 93
        1
 44
0.0
173
     0
291
     0
 45
0.0
1001
ACAD
1000
AcDbSavedByObjectVersion
1070
     0
  0
VISUALSTYLE
  5
31
102
{ACAD_REACTORS
330
2A
102
}
330
2A
100
AcDbVisualStyle
  2
3D Hidden
 70
     6
 71
     1
 72
     2
 73
     2
 90
        0
 40
-0.6
 41
-30.0
 62
     5
 63
     7
 74
     2
 91
        2
 64
     7
 65
   257
 75
     2
175
     1
 42
40.0
 92
        0
 66
   257
 43
1.0
 76
     1
 77
     6
 78
     2
 67
     7
 79
     3
170
     0
171
     0
290
     0
174
     0
 93
        1
 44
0.0
173
     0
291
     0
 45
0.0
1001
ACAD
1000
AcDbSavedByObjectVersion
1070
     0
  0
VISUALSTYLE
  5
30
102
{ACAD_REACTORS
330
2A
102
}
330
2A
100
AcDbVisualStyle
  2
3dWireframe
 70
     5
 71
     0
 72
     2
 73
     0
 90
        0
 40
-0.6
 41
-30.0
 62
     5
 63
     7
 74
     1
 91
        4
 64
     7
 65
   257
 75
     1
175
     1
 42
1.0
 92
        0
 66
   257
 43
1.0
 76
     1
 77
     6
 78
     2
 67
     7
 79
     5
170
     0
171
     0
290
     0
174
     0
 93
        1
 44
0.0
173
     0
291
     0
 45
0.0
1001
ACAD
1000
AcDbSavedByObjectVersion
1070
     0
  0
VISUALSTYLE
  5
32
102
{ACAD_REACTORS
330
2A
102
}
330
2A
100
AcDbVisualStyle
  2
Basic
 70
     7
 71
     1
 72
     0
 73
     1
 90
        0
 40
-0.6
 41
-30.0
 62
     5
 63
     7
 74
     0
 91
        4
 64
     7
 65
   257
 75
     1
175
     1
 42
1.0
 92
        8
 66
     7
 43
1.0
 76
     1
 77
     6
 78
     2
 67
     7
 79
     5
170
     0
171
     0
290
     0
174
     0
 93
        1
 44
0.0
173
     0
291
     1
 45
0.0
1001
ACAD
1000
AcDbSavedByObjectVersion
1070
     0
  0
VISUALSTYLE
  5
36
102
{ACAD_REACTORS
330
2A
102
}
330
2A
100
AcDbVisualStyle
  2
Brighten
 70
    12
 71
     2
 72
     2
 73
     0
 90
        0
 40
-0.6
 41
-30.0
 62
     5
 63
     7
 74
     1
 91
        4
 64
     7
 65
   257
 75
     1
175
     1
 42
1.0
 92
        8
 66
     7
 43
1.0
 76
     1
 77
     6
 78
     2
 67
     7
 79
     5
170
     0
171
     0
290
     0
174
     0
 93
        1
 44
50.0
173
     0
291
     1
 45
0.0
1001
ACAD
1000
AcDbSavedByObjectVersion
1070
     0
  0
VISUALSTYLE
  5
3A
102
{ACAD_REACTORS
330
2A
102
}
330
2A
100
AcDbVisualStyle
  2
ColorChange
 70
    16
 71
     2
 72
     2
 73
     3
 90
        0
 40
-0.6
 41
-30.0
 62
     5
 63
     8
 74
     1
 91
        4
 64
     7
 65
   257
 75
     1
175
     1
 42
1.0
 92
        8
 66
     8
 43
1.0
 76
     1
 77
     6
 78
     2
 67
     7
 79
     5
170
     0
171
     0
290
     0
174
     0
 93
        1
 44
0.0
173
     0
291
     1
 45
0.0
1001
ACAD
1000
AcDbSavedByObjectVersion
1070
     0
  0
VISUALSTYLE
  5
34
102
{ACAD_REACTORS
330
2A
102
}
330
2A
100
AcDbVisualStyle
  2
Conceptual
 70
     9
 71
     3
 72
     2
 73
     0
 90
        0
 40
-0.6
 41
-30.0
 62
     5
 63
     7
 74
     2
 91
        2
 64
     7
 65
   257
 75
     1
175
     1
 42
40.0
 92
        8
 66
     7
 43
1.0
 76
     1
 77
     6
 78
     2
 67
     7
 79
     3
170
     0
171
     0
290
     0
174
     0
 93
        1
 44
0.0
173
     0
291
     0
 45
0.0
1001
ACAD
1000
AcDbSavedByObjectVersion
1070
     0
  0
VISUALSTYLE
  5
35
102
{ACAD_REACTORS
330
2A
102
}
330
2A
100
AcDbVisualStyle
  2
Dim
 70
    11
 71
     2
 72
     2
 73
     0
 90
        0
 40
-0.6
 41
-30.0
 62
     5
 63
     7
 74
     1
 91
        4
 64
     7
 65
   257
 75
     1
175
     1
 42
1.0
 92
        8
 66
     7
 43
1.0
 76
     1
 77
     6
 78
     2
 67
     7
 79
     5
170
     0
171
     0
290
     0
174
     0
 93
        1
 44
-50.0
173
     0
291
     1
 45
0.0
1001
ACAD
1000
AcDbSavedByObjectVersion
1070
     0
  0
VISUALSTYLE
  5
39
102
{ACAD_REACTORS
330
2A
102
}
330
2A
100
AcDbVisualStyle
  2
Facepattern
 70
    15
 71
     2
 72
     2
 73
     0
 90
        0
 40
-0.6
 41
-30.0
 62
     5
 63
     7
 74
     1
 91
        4
 64
     7
 65
   257
 75
     1
175
     1
 42
1.0
 92
        8
 66
     7
 43
1.0
 76
     1
 77
     6
 78
     2
 67
     7
 79
     5
170
     0
171
     0
290
     0
174
     0
 93
        1
 44
0.0
173
     0
291
     1
 45
0.0
1001
ACAD
1000
AcDbSavedByObjectVersion
1070
     0
  0
VISUALSTYLE
  5
2B
102
{ACAD_REACTORS
330
2A
102
}
330
2A
100
AcDbVisualStyle
  2
Flat
 70
     0
 71
     2
 72
     1
 73
     1
 90
        2
 40
-0.6
 41
30.0
 62
     5
 63
     7
 74
     0
 91
        4
 64
     7
 65
   257
 75
     1
175
     1
 42
1.0
 92
        8
 66
     7
 43
1.0
 76
     1
 77
     6
 78
     2
 67
     7
 79
     5
170
     0
171
     0
290
     0
174
     0
 93
       13
 44
0.0
173
     0
291
     1
 45
0.0
1001
ACAD
1000
AcDbSavedByObjectVersion
1070
     0
  0
VISUALSTYLE
  5
2C
102
{ACAD_REACTORS
330
2A
102
}
330
2A
100
AcDbVisualStyle
  2
FlatWithEdges
 70
     1
 71
     2
 72
     1
 73
     1
 90
        2
 40
-0.6
 41
30.0
 62
     5
 63
     7
 74
     1
 91
        4
 64
     7
 65
   257
 75
     1
175
     1
 42
1.0
 92
        0
 66
   257
 43
1.0
 76
     1
 77
     6
 78
     2
 67
     7
 79
     5
170
     0
171
     0
290
     0
174
     0
 93
       13
 44
0.0
173
     0
291
     1
 45
0.0
1001
ACAD
1000
AcDbSavedByObjectVersion
1070
     0
  0
VISUALSTYLE
  5
2D
102
{ACAD_REACTORS
330
2A
102
}
330
2A
100
AcDbVisualStyle
  2
Gouraud
 70
     2
 71
     2
 72
     2
 73
     1
 90
        2
 40
-0.6
 41
30.0
 62
     5
 63
     7
 74
     0
 91
        4
 64
     7
 65
   257
 75
     1
175
     1
 42
1.0
 92
        0
 66
     7
 43
1.0
 76
     1
 77
     6
 78
     2
 67
     7
 79
     5
170
     0
171
     0
290
     0
174
     0
 93
       13
 44
0.0
173
     0
291
     1
 45
0.0
1001
ACAD
1000
AcDbSavedByObjectVersion
1070
     0
  0
VISUALSTYLE
  5
2E
102
{ACAD_REACTORS
330
2A
102
}
330
2A
100
AcDbVisualStyle
  2
GouraudWithEdges
 70
     3
 71
     2
 72
     2
 73
     1
 90
        2
 40
-0.6
 41
30.0
 62
     5
 63
     7
 74
     1
 91
        4
 64
     7
 65
   257
 75
     1
175
     1
 42
1.0
 92
        0
 66
   257
 43
1.0
 76
     1
 77
     6
 78
     2
 67
     7
 79
     5
170
     0
171
     0
290
     0
174
     0
 93
       13
 44
0.0
173
     0
291
     1
 45
0.0
1001
ACAD
1000
AcDbSavedByObjectVersion
1070
     0
  0
VISUALSTYLE
  5
38
102
{ACAD_REACTORS
330
2A
102
}
330
2A
100
AcDbVisualStyle
  2
Linepattern
 70
    14
 71
     2
 72
     2
 73
     0
 90
        0
 40
-0.6
 41
-30.0
 62
     5
 63
     7
 74
     1
 91
        4
 64
     7
 65
   257
 75
     7
175
     7
 42
1.0
 92
        8
 66
     7
 43
1.0
 76
     1
 77
     6
 78
     2
 67
     7
 79
     5
170
     0
171
     0
290
     0
174
     0
 93
        1
 44
0.0
173
     0
291
     1
 45
0.0
1001
ACAD
1000
AcDbSavedByObjectVersion
1070
     0
  0
VISUALSTYLE
  5
33
102
{ACAD_REACTORS
330
2A
102
}
330
2A
100
AcDbVisualStyle
  2
Realistic
 70
     8
 71
     2
 72
     2
 73
     0
 90
        0
 40
-0.6
 41
-30.0
 62
     5
 63
     7
 74
     1
 91
        0
 64
     7
 65
   257
 75
     1
175
     1
 42
1.0
 92
        8
 66
     8
 43
1.0
 76
     1
 77
     6
 78
     2
 67
     7
 79
     5
170
     0
171
     0
290
     0
174
     0
 93
       13
 44
0.0
173
     0
291
     0
 45
0.0
1001
ACAD
1000
AcDbSavedByObjectVersion
1070
     0
  0
VISUALSTYLE
  5
37
102
{ACAD_REACTORS
330
2A
102
}
330
2A
100
AcDbVisualStyle
  2
Thicken
 70
    13
 71
     2
 72
     2
 73
     0
 90
        0
 40
-0.6
 41
-30.0
 62
     5
 63
     7
 74
     1
 91
        4
 64
     7
 65
   257
 75
     1
175
     1
 42
1.0
 92
       12
 66
     7
 43
1.0
 76
     1
 77
     6
 78
     2
 67
     7
 79
     5
170
     0
171
     0
290
     0
174
     0
 93
        1
 44
0.0
173
     0
291
     1
 45
0.0
1001
ACAD
1000
AcDbSavedByObjectVersion
1070
     0
  0
DICTIONARYVAR
  5
242
102
{ACAD_REACTORS
330
241
102
}
330
241
100
DictionaryVariables
280
     0
  1
1:1
  0
DICTIONARYVAR
  5
246
102
{ACAD_REACTORS
330
241
102
}
330
241
100
DictionaryVariables
280
     0
  1
80.000000
  0
DICTIONARYVAR
  5
245
102
{ACAD_REACTORS
330
241
102
}
330
241
100
DictionaryVariables
280
     0
  1
5.000000
  0
ENDSEC
  0
EOF
