  0
SECTION
  2
HEADER
  9
$ACADVER
  1
AC1009
  9
$ANGBASE
 50
       0.000000
  9
$ANGDIR
 70
     0
  9
$ATTDIA
 70
     0
  9
$ATTMODE
 70
     0
  9
$ATTREQ
 70
     0
  9
$AUNITS
 70
     0
  9
$AUPREC
 70
     1
  9
$BLIPMODE
 70
     1
  9
$CECOLOR
 62
   256
  9
$CELTYPE
  6
BYLAYER
  9
$CHAMFERA
 40
       0.000000
  9
$CHAMFERB
 40
       0.000000
  9
$CLAYER
  8
0
  9
$COORDS
 70
     1
  9
$DIMALT
 70
     0
  9
$DIMALTD
 70
     2
  9
$DIMALTF
 40
      25.400000
  9
$DIMAPOST
  1

  9
$DIMASO
 70
     0
  9
$DIMASZ
 40
       3.500000
  9
$DIMBLK
  1

  9
$DIMBLK1
  1

  9
$DIMBLK2
  1

  9
$DIMCEN
 40
       1.500000
  9
$DIMCLRD
 70
     0
  9
$DIMCLRE
 70
     0
  9
$DIMCLRT
 70
     0
  9
$DIMDLE
 40
       0.000000
  9
$DIMDLI
 40
       7.000000
  9
$DIMEXE
 40
       1.800000
  9
$DIMEXO
 40
       0.100000
  9
$DIMGAP
 40
       0.090000
  9
$DIMLFAC
 40
       1.000000
  9
$DIMLIM
 70
     0
  9
$DIMPOST
  1

  9
$DIMRND
 40
       0.000000
  9
$DIMSAH
 70
     0
  9
$DIMSCALE
 40
       1.000000
  9
$DIMSE1
 70
     0
  9
$DIMSE2
 70
     0
  9
$DIMSHO
 70
     1
  9
$DIMSOXD
 70
     0
  9
$DIMSTYLE
  2
*UNNAMED
  9
$DIMTAD
 70
     1
  9
$DIMTFAC
 40
       1.000000
  9
$DIMTIH
 70
     0
  9
$DIMTIX
 70
     0
  9
$DIMTM
 40
       0.000000
  9
$DIMTOFL
 70
     0
  9
$DIMTOH
 70
     0
  9
$DIMTOL
 70
     0
  9
$DIMTP
 40
       0.000000
  9
$DIMTSZ
 40
       0.000000
  9
$DIMTVP
 40
       0.000000
  9
$DIMTXT
 40
       3.500000
  9
$DIMZIN
 70
     0
  9
$DRAGMODE
 70
     2
  9
$DWGCODEPAGE
  3
iso8859-1
  9
$ELEVATION
 40
       0.000000
  9
$EXTMAX
 10
    3226.599854
 20
    2061.528564
 30
       0.000000
  9
$EXTMIN
 10
       0.000000
 20
       0.000000
 30
       0.000000
  9
$FILLETRAD
 40
       0.000000
  9
$FILLMODE
 70
     1
  9
$HANDLING
 70
     0
  9
$HANDSEED
  5
0
  9
$INSBASE
 10
       0.000000
 20
       0.000000
 30
       0.000000
  9
$LIMCHECK
 70
     0
  9
$LIMMAX
 10
    3226.599854
 20
    2061.528564
  9
$LIMMIN
 10
       0.000000
 20
       0.000000
  9
$LTSCALE
 40
       1.000000
  9
$LUNITS
 70
     2
  9
$LUPREC
 70
     2
  9
$MAXACTVP
 70
    16
  9
$MENU
  1
ACAD
  9
$MIRRTEXT
 70
     0
  9
$ORTHOMODE
 70
     0
  9
$OSMODE
 70
     0
  9
$PDMODE
 70
     0
  9
$PDSIZE
 40
       0.000000
  9
$PELEVATION
 40
       0.000000
  9
$PEXTMAX
 10
    3226.599854
 20
    2061.528564
 30
       0.000000
  9
$PEXTMIN
 10
       0.000000
 20
       0.000000
 30
       0.000000
  9
$PINSBASE
 10
       0.000000
 20
       0.000000
 30
       0.000000
  9
$PLIMCHECK
 70
     0
  9
$PLIMMAX
 10
    3226.599854
 20
    2061.528564
  9
$PLIMMIN
 10
       0.000000
 20
       0.000000
  9
$PLINEGEN
 70
     0
  9
$PLINEWID
 40
       0.000000
  9
$PSLTSCALE
 70
     1
  9
$PUCSNAME
  2

  9
$PUCSORG
 10
       0.000000
 20
       0.000000
 30
       0.000000
  9
$PUCSXDIR
 10
       1.000000
 20
       0.000000
 30
       0.000000
  9
$PUCSYDIR
 10
       0.000000
 20
       1.000000
 30
       0.000000
  9
$QTEXTMODE
 70
     0
  9
$REGENMODE
 70
     1
  9
$SHADEDGE
 70
     3
  9
$SHADEDIF
 70
    70
  9
$SKETCHINC
 40
       1.000000
  9
$SKPOLY
 70
     0
  9
$SPLFRAME
 70
     0
  9
$SPLINESEGS
 70
     8
  9
$SPLINETYPE
 70
     6
  9
$SURFTAB1
 70
     6
  9
$SURFTAB2
 70
     6
  9
$SURFTYPE
 70
     6
  9
$SURFU
 70
     6
  9
$SURFV
 70
     6
  9
$TDCREATE
 40
2456344.7284722221
  9
$TDINDWG
 40
       0.000000
  9
$TDUPDATE
 40
2456344.7284722221
  9
$TDUSRTIMER
 40
       0.000000
  9
$TEXTSIZE
 40
       3.500000
  9
$TEXTSTYLE
  7
STANDARD
  9
$THICKNESS
 40
       0.000000
  9
$TILEMODE
 70
     1
  9
$TRACEWID
 40
       1.000000
  9
$TREEDEPTH
 70
 -3020
  9
$UCSNAME
  2

  9
$UCSORG
 10
       0.000000
 20
       0.000000
 30
       0.000000
  9
$UCSXDIR
 10
       1.000000
 20
       0.000000
 30
       0.000000
  9
$UCSYDIR
 10
       0.000000
 20
       1.000000
 30
       0.000000
  9
$UNITMODE
 70
     0
  9
$USERI1
 70
     0
  9
$USERI2
 70
     0
  9
$USERI3
 70
     0
  9
$USERI4
 70
     0
  9
$USERI5
 70
     0
  9
$USERR1
 40
       0.000000
  9
$USERR2
 40
       0.000000
  9
$USERR3
 40
       0.000000
  9
$USERR4
 40
       0.000000
  9
$USERR5
 40
       0.000000
  9
$USRTIMER
 70
     0
  9
$VISRETAIN
 70
     0
  9
$WORLDVIEW
 70
     1
  0
ENDSEC
  0
SECTION
  2
TABLES
  0
TABLE
  2
LTYPE
 70
   160
  0
LTYPE
  2
AUSGEZOGEN
 70
     0
  3
________________________________
 72
    65
 73
     2
 40
16.
 49
16.
 49
0.
  0
LTYPE
  2
VERDECKTE_KANTE
 70
     0
  3
__________________________
 72
    65
 73
     2
 40
5.
 49
4.063
 49
-0.938
  0
LTYPE
  2
HILFSLINIE
 70
     0
  3
________________________________
 72
    65
 73
     2
 40
16.
 49
16.
 49
0.
  0
LTYPE
  2
BRUCHLINIE
 70
     0
  3
________________________________
 72
    65
 73
     2
 40
16.
 49
16.
 49
0.
  0
LTYPE
  2
MITTELLINIE
 70
     0
  3
_______________________   ___
 72
    65
 73
     4
 40
13.
 49
9.34
 49
-1.22
 49
1.22
 49
-1.22
  0
LTYPE
  2
SCHNITTLINIE
 70
     0
  3
_______________________   ___
 72
    65
 73
     4
 40
13.
 49
9.34
 49
-1.22
 49
1.22
 49
-1.22
  0
LTYPE
  2
SCHWERLINIE
 70
     0
  3
______________________  __  __
 72
    65
 73
     6
 40
15.
 49
10.31
 49
-0.94
 49
0.94
 49
-0.94
 49
0.94
 49
-0.94
  0
LTYPE
  2
ENTWURFSLINIE
 70
     0
  3
__      __      __      __
 72
    65
 73
     8
 40
16.
 49
1.
 49
-3.
 49
1.
 49
-3.
 49
1.
 49
-3.
 49
1.
 49
-3.
  0
LTYPE
  2
SONDERLINIE1
 70
     0
  3
________________________________
 72
    65
 73
     2
 40
16.
 49
16.
 49
0.
  0
LTYPE
  2
SONDERLINIE2
 70
     0
  3
______________________  __  __
 72
    65
 73
     6
 40
15.
 49
10.31
 49
-0.94
 49
0.94
 49
-0.94
 49
0.94
 49
-0.94
  0
LTYPE
  2
SONDERLINIE3
 70
     0
  3
__________________  __  __  __
 72
    65
 73
     8
 40
16.
 49
9.
 49
-1.
 49
1.
 49
-1.
 49
1.
 49
-1.
 49
1.
 49
-1.
  0
LTYPE
  2
SONDERLINIE4
 70
     0
  3
__________________  __  __  __
 72
    65
 73
     8
 40
16.
 49
9.
 49
-1.
 49
1.
 49
-1.
 49
1.
 49
-1.
 49
1.
 49
-1.
  0
LTYPE
  2
SONDERLINIE5
 70
     0
  3
______________  __  __  __  __
 72
    65
 73
    10
 40
16.
 49
7.
 49
-1.
 49
1.
 49
-1.
 49
1.
 49
-1.
 49
1.
 49
-1.
 49
1.
 49
-1.
  0
LTYPE
  2
SONDERLINIE6
 70
     0
  3
______________  __  __  __  __
 72
    65
 73
    10
 40
16.
 49
7.
 49
-1.
 49
1.
 49
-1.
 49
1.
 49
-1.
 49
1.
 49
-1.
 49
1.
 49
-1.
  0
LTYPE
  2
SONDERLINIE7
 70
     0
  3
__________  __  __  __  __  __
 72
    65
 73
    12
 40
16.
 49
5.
 49
-1.
 49
1.
 49
-1.
 49
1.
 49
-1.
 49
1.
 49
-1.
 49
1.
 49
-1.
 49
1.
 49
-1.
  0
LTYPE
  2
SONDERLINIE8
 70
     0
  3
__________  __  __  __  __  __
 72
    65
 73
    12
 40
16.
 49
5.
 49
-1.
 49
1.
 49
-1.
 49
1.
 49
-1.
 49
1.
 49
-1.
 49
1.
 49
-1.
 49
1.
 49
-1.
  0
LTYPE
  2
HEIZUNG-VORLAUF
 70
     0
  3
 
 72
    65
 73
     2
 40
16.
 49
16.
 49
0.
  0
LTYPE
  2
HEIZUNG-RUECKLAUF
 70
     0
  3
 
 72
    65
 73
     2
 40
5.
 49
4.063
 49
-0.938
  0
LTYPE
  2
TRINKWASSER-KALT
 70
     0
  3
 
 72
    65
 73
     2
 40
16.
 49
16.
 49
0.
  0
LTYPE
  2
TRINKWASSER-WARM
 70
     0
  3
 
 72
    65
 73
     2
 40
5.
 49
4.063
 49
-0.938
  0
LTYPE
  2
TRINKWASSER-ZIRKULATION
 70
     0
  3
 
 72
    65
 73
     4
 40
13.
 49
9.34
 49
-1.22
 49
1.22
 49
-1.22
  0
LTYPE
  2
SANITAER-SCHMUTZWASSER
 70
     0
  3
 
 72
    65
 73
     2
 40
16.
 49
16.
 49
0.
  0
LTYPE
  2
SANITAER-REGENWASSER
 70
     0
  3
 
 72
    65
 73
     2
 40
5.
 49
4.063
 49
-0.938
  0
LTYPE
  2
SANITAER-MISCHWASSER
 70
     0
  3
 
 72
    65
 73
     4
 40
13.
 49
9.34
 49
-1.22
 49
1.22
 49
-1.22
  0
LTYPE
  2
SANITAER-ENTLUEFTUNG
 70
     0
  3
 
 72
    65
 73
     2
 40
5.
 49
4.063
 49
-0.938
  0
LTYPE
  2
SPRINKLER
 70
     0
  3
 
 72
    65
 73
     2
 40
16.
 49
16.
 49
0.
  0
LTYPE
  2
WERKWASSER
 70
     0
  3
 
 72
    65
 73
     2
 40
16.
 49
16.
 49
0.
  0
LTYPE
  2
KUEHLWASSER-VL
 70
     0
  3
 
 72
    65
 73
     2
 40
16.
 49
16.
 49
0.
  0
LTYPE
  2
KUEHLWASSER-RL-D
 70
     0
  3
 
 72
    65
 73
     2
 40
5.
 49
4.063
 49
-0.938
  0
LTYPE
  2
KUEHLWASSER-RL-DI
 70
     0
  3
 
 72
    65
 73
     2
 40
5.
 49
4.063
 49
-0.938
  0
LTYPE
  2
KALTWASSER-KAELTEANL--VL
 70
     0
  3
 
 72
    65
 73
     2
 40
16.
 49
16.
 49
0.
  0
LTYPE
  2
KALTWASSER-KAELTEANL--RL
 70
     0
  3
 
 72
    65
 73
     2
 40
5.
 49
4.063
 49
-0.938
  0
LTYPE
  2
SCHLEIFEMULSION
 70
     0
  3
 
 72
    65
 73
     2
 40
16.
 49
16.
 49
0.
  0
LTYPE
  2
BOHREMULSION
 70
     0
  3
 
 72
    65
 73
     2
 40
16.
 49
16.
 49
0.
  0
LTYPE
  2
SCHNEIDEMULSION
 70
     0
  3
 
 72
    65
 73
     2
 40
16.
 49
16.
 49
0.
  0
LTYPE
  2
DRUCKLUFT-HAUPTNETZ
 70
     0
  3
 
 72
    65
 73
     2
 40
16.
 49
16.
 49
0.
  0
LTYPE
  2
DRUCKLUFT-HOCHDRUCKNETZ
 70
     0
  3
 
 72
    65
 73
     2
 40
16.
 49
16.
 49
0.
  0
LTYPE
  2
DRUCKLUFT-NIEDERDRUCKNETZ
 70
     0
  3
 
 72
    65
 73
     2
 40
16.
 49
16.
 49
0.
  0
LTYPE
  2
MISCHWASSER-DRUCK
 70
     0
  3
 
 72
    65
 73
     2
 40
16.
 49
16.
 49
0.
  0
LTYPE
  2
MISCHWASSER-KANAL
 70
     0
  3
 
 72
    65
 73
     2
 40
16.
 49
16.
 49
0.
  0
LTYPE
  2
OELHALTIGES-ABWASSER-DRUCK
 70
     0
  3
 
 72
    65
 73
     2
 40
16.
 49
16.
 49
0.
  0
LTYPE
  2
OELHALTIGES-ABWASSER-KANAL
 70
     0
  3
 
 72
    65
 73
     2
 40
16.
 49
16.
 49
0.
  0
LTYPE
  2
REGENWASSER-DRUCK
 70
     0
  3
 
 72
    65
 73
     2
 40
16.
 49
16.
 49
0.
  0
LTYPE
  2
REGENWASSER-KANAL
 70
     0
  3
 
 72
    65
 73
     2
 40
16.
 49
16.
 49
0.
  0
LTYPE
  2
SCHMUTZWASSER-DRUCK
 70
     0
  3
 
 72
    65
 73
     2
 40
16.
 49
16.
 49
0.
  0
LTYPE
  2
SCHMUTZWASSER-KANAL
 70
     0
  3
 
 72
    65
 73
     2
 40
16.
 49
16.
 49
0.
  0
LTYPE
  2
ALTEMULSION
 70
     0
  3
 
 72
    65
 73
     2
 40
16.
 49
16.
 49
0.
  0
LTYPE
  2
ALTWASCHWASSER
 70
     0
  3
 
 72
    65
 73
     2
 40
16.
 49
16.
 49
0.
  0
LTYPE
  2
CHROMHALTIGES-SPUELWASSER
 70
     0
  3
 
 72
    65
 73
     2
 40
16.
 49
16.
 49
0.
  0
LTYPE
  2
CYANIDHALTIGES-SPUELWASSER
 70
     0
  3
 
 72
    65
 73
     2
 40
16.
 49
16.
 49
0.
  0
LTYPE
  2
GEKLAERTES-ABWASSER
 70
     0
  3
 
 72
    65
 73
     2
 40
16.
 49
16.
 49
0.
  0
LTYPE
  2
NITRITHALTIGES-SPUELWASSER
 70
     0
  3
 
 72
    65
 73
     2
 40
16.
 49
16.
 49
0.
  0
LTYPE
  2
SAURES-ALKALISCHES-ELUAT
 70
     0
  3
 
 72
    65
 73
     2
 40
16.
 49
16.
 49
0.
  0
LTYPE
  2
SAURES-ALKALISCHES-SPUELWASSER
 70
     0
  3
 
 72
    65
 73
     2
 40
16.
 49
16.
 49
0.
  0
LTYPE
  2
AMIDASULFONSAEURE
 70
     0
  3
 
 72
    65
 73
     2
 40
16.
 49
16.
 49
0.
  0
LTYPE
  2
CHROMHALTIGES-KONZENTRAT
 70
     0
  3
 
 72
    65
 73
     2
 40
16.
 49
16.
 49
0.
  0
LTYPE
  2
CYANIDHALTIGES-KONZENTRAT
 70
     0
  3
 
 72
    65
 73
     2
 40
16.
 49
16.
 49
0.
  0
LTYPE
  2
ELEKTROLYT
 70
     0
  3
 
 72
    65
 73
     2
 40
16.
 49
16.
 49
0.
  0
LTYPE
  2
NATRIUMBISULFIT
 70
     0
  3
 
 72
    65
 73
     2
 40
16.
 49
16.
 49
0.
  0
LTYPE
  2
NATRIUMHYPOCHLORIT
 70
     0
  3
 
 72
    65
 73
     2
 40
16.
 49
16.
 49
0.
  0
LTYPE
  2
NATRONLAUGE
 70
     0
  3
 
 72
    65
 73
     2
 40
16.
 49
16.
 49
0.
  0
LTYPE
  2
NITRITHALTIGES-KONZENTRAT
 70
     0
  3
 
 72
    65
 73
     2
 40
16.
 49
16.
 49
0.
  0
LTYPE
  2
PHOSPHORSAEURE
 70
     0
  3
 
 72
    65
 73
     2
 40
16.
 49
16.
 49
0.
  0
LTYPE
  2
SALPETERSAEURE
 70
     0
  3
 
 72
    65
 73
     2
 40
16.
 49
16.
 49
0.
  0
LTYPE
  2
SALZSAEURE
 70
     0
  3
 
 72
    65
 73
     2
 40
16.
 49
16.
 49
0.
  0
LTYPE
  2
SCHWEFELSAEURE
 70
     0
  3
 
 72
    65
 73
     2
 40
16.
 49
16.
 49
0.
  0
LTYPE
  2
BETRIEBSWAERME-RL
 70
     0
  3
 
 72
    65
 73
     2
 40
5.
 49
4.063
 49
-0.938
  0
LTYPE
  2
BETRIEBSWAERME-VL
 70
     0
  3
 
 72
    65
 73
     2
 40
16.
 49
16.
 49
0.
  0
LTYPE
  2
WARMWASSER-VL
 70
     0
  3
 
 72
    65
 73
     2
 40
16.
 49
16.
 49
0.
  0
LTYPE
  2
WARMWASSER-ZIRKULATION
 70
     0
  3
 
 72
    65
 73
     4
 40
13.
 49
9.34
 49
-1.22
 49
1.22
 49
-1.22
  0
LTYPE
  2
ROHWASSER
 70
     0
  3
 
 72
    65
 73
     2
 40
16.
 49
16.
 49
0.
  0
LTYPE
  2
ARGON
 70
     0
  3
 
 72
    65
 73
     2
 40
16.
 49
16.
 49
0.
  0
LTYPE
  2
CORGON
 70
     0
  3
 
 72
    65
 73
     2
 40
16.
 49
16.
 49
0.
  0
LTYPE
  2
KOHLENDIOXID
 70
     0
  3
 
 72
    65
 73
     2
 40
16.
 49
16.
 49
0.
  0
LTYPE
  2
STICKSTOFF
 70
     0
  3
 
 72
    65
 73
     2
 40
16.
 49
16.
 49
0.
  0
LTYPE
  2
AZETYLEN
 70
     0
  3
 
 72
    65
 73
     2
 40
16.
 49
16.
 49
0.
  0
LTYPE
  2
ERDGAS
 70
     0
  3
 
 72
    65
 73
     2
 40
16.
 49
16.
 49
0.
  0
LTYPE
  2
SAUERSTOFF--TECHNISCH-REIN
 70
     0
  3
 
 72
    65
 73
     2
 40
16.
 49
16.
 49
0.
  0
LTYPE
  2
TRAEGERGAS
 70
     0
  3
 
 72
    65
 73
     2
 40
16.
 49
16.
 49
0.
  0
LTYPE
  2
WASSERSTOFF
 70
     0
  3
 
 72
    65
 73
     2
 40
16.
 49
16.
 49
0.
  0
LTYPE
  2
KRAFTSTOFF-GK-A-I-D
 70
     0
  3
 
 72
    65
 73
     2
 40
16.
 49
16.
 49
0.
  0
LTYPE
  2
KRAFTSTOFF-SONDER-D
 70
     0
  3
 
 72
    65
 73
     2
 40
16.
 49
16.
 49
0.
  0
LTYPE
  2
ACHSOEL
 70
     0
  3
 
 72
    65
 73
     2
 40
16.
 49
16.
 49
0.
  0
LTYPE
  2
ALTOEL
 70
     0
  3
 
 72
    65
 73
     2
 40
16.
 49
16.
 49
0.
  0
LTYPE
  2
BOHROEL
 70
     0
  3
 
 72
    65
 73
     2
 40
16.
 49
16.
 49
0.
  0
LTYPE
  2
ERODIEROEL
 70
     0
  3
 
 72
    65
 73
     2
 40
16.
 49
16.
 49
0.
  0
LTYPE
  2
FETT
 70
     0
  3
 
 72
    65
 73
     2
 40
16.
 49
16.
 49
0.
  0
LTYPE
  2
GETRIEBEOEL
 70
     0
  3
 
 72
    65
 73
     2
 40
16.
 49
16.
 49
0.
  0
LTYPE
  2
HAERTEOEL
 70
     0
  3
 
 72
    65
 73
     2
 40
16.
 49
16.
 49
0.
  0
LTYPE
  2
HONOEL
 70
     0
  3
 
 72
    65
 73
     2
 40
16.
 49
16.
 49
0.
  0
LTYPE
  2
HYDRAULIKOEL
 70
     0
  3
 
 72
    65
 73
     2
 40
16.
 49
16.
 49
0.
  0
LTYPE
  2
MOTOROEL
 70
     0
  3
 
 72
    65
 73
     2
 40
16.
 49
16.
 49
0.
  0
LTYPE
  2
NORMALSPUELOEL
 70
     0
  3
 
 72
    65
 73
     2
 40
16.
 49
16.
 49
0.
  0
LTYPE
  2
RAEUMOEL
 70
     0
  3
 
 72
    65
 73
     2
 40
16.
 49
16.
 49
0.
  0
LTYPE
  2
SCHLEIFOEL
 70
     0
  3
 
 72
    65
 73
     2
 40
16.
 49
16.
 49
0.
  0
LTYPE
  2
SCHNEIDOEL
 70
     0
  3
 
 72
    65
 73
     2
 40
16.
 49
16.
 49
0.
  0
LTYPE
  2
SONDERSPUELOEL
 70
     0
  3
 
 72
    65
 73
     2
 40
16.
 49
16.
 49
0.
  0
LTYPE
  2
ZIEHOEL
 70
     0
  3
 
 72
    65
 73
     2
 40
16.
 49
16.
 49
0.
  0
LTYPE
  2
MONTAGEOEL
 70
     0
  3
 
 72
    65
 73
     2
 40
16.
 49
16.
 49
0.
  0
LTYPE
  2
MONTAGE-GLEITOEL
 70
     0
  3
 
 72
    65
 73
     2
 40
16.
 49
16.
 49
0.
  0
LTYPE
  2
SPUELOEL
 70
     0
  3
 
 72
    65
 73
     2
 40
16.
 49
16.
 49
0.
  0
LTYPE
  2
TIEFBOHROEL
 70
     0
  3
 
 72
    65
 73
     2
 40
16.
 49
16.
 49
0.
  0
LTYPE
  2
AMIN
 70
     0
  3
 
 72
    65
 73
     2
 40
16.
 49
16.
 49
0.
  0
LTYPE
  2
HAERTER
 70
     0
  3
 
 72
    65
 73
     2
 40
16.
 49
16.
 49
0.
  0
LTYPE
  2
HARZ
 70
     0
  3
 
 72
    65
 73
     2
 40
16.
 49
16.
 49
0.
  0
LTYPE
  2
LOESEMITTEL
 70
     0
  3
 
 72
    65
 73
     2
 40
16.
 49
16.
 49
0.
  0
LTYPE
  2
LACK
 70
     0
  3
 
 72
    65
 73
     2
 40
16.
 49
16.
 49
0.
  0
LTYPE
  2
WASCHWASSER
 70
     0
  3
 
 72
    65
 73
     2
 40
16.
 49
16.
 49
0.
  0
LTYPE
  2
GLEITSCHLEIFWASSER
 70
     0
  3
 
 72
    65
 73
     2
 40
16.
 49
16.
 49
0.
  0
LTYPE
  2
VERDUENNUNG
 70
     0
  3
 
 72
    65
 73
     2
 40
16.
 49
16.
 49
0.
  0
LTYPE
  2
KUEHLDECKEN-VORLAUF
 70
     0
  3
 
 72
    65
 73
     2
 40
16.
 49
16.
 49
0.
  0
LTYPE
  2
KUEHLDECKEN-RUECKLAUF
 70
     0
  3
 
 72
    65
 73
     2
 40
5.
 49
4.063
 49
-0.938
  0
LTYPE
  2
KONDENSAT
 70
     0
  3
 
 72
    65
 73
     2
 40
16.
 49
16.
 49
0.
  0
LTYPE
  2
KONDENSAT-REINDAMPF
 70
     0
  3
 
 72
    65
 73
     2
 40
16.
 49
16.
 49
0.
  0
LTYPE
  2
KONDENSAT-HOCHDRUCK
 70
     0
  3
 
 72
    65
 73
     2
 40
16.
 49
16.
 49
0.
  0
LTYPE
  2
DAMPF
 70
     0
  3
 
 72
    65
 73
     2
 40
16.
 49
16.
 49
0.
  0
LTYPE
  2
REINDAMPF
 70
     0
  3
 
 72
    65
 73
     2
 40
16.
 49
16.
 49
0.
  0
LTYPE
  2
DAMPF-HOCHDRUCK
 70
     0
  3
 
 72
    65
 73
     2
 40
16.
 49
16.
 49
0.
  0
LTYPE
  2
KLIMA-ZENTRALE
 70
     0
  3
 
 72
    65
 73
     2
 40
16.
 49
16.
 49
0.
  0
LTYPE
  2
KLIMA-AUSSENLUFT
 70
     0
  3
 
 72
    65
 73
     4
 40
13.
 49
9.34
 49
-1.22
 49
1.22
 49
-1.22
  0
LTYPE
  2
KLIMA-ZULUFT-I
 70
     0
  3
 
 72
    65
 73
     2
 40
16.
 49
16.
 49
0.
  0
LTYPE
  2
KLIMA-ZULUFT-II
 70
     0
  3
 
 72
    65
 73
     2
 40
16.
 49
16.
 49
0.
  0
LTYPE
  2
KLIMA-ZULUFT-III
 70
     0
  3
 
 72
    65
 73
     2
 40
16.
 49
16.
 49
0.
  0
LTYPE
  2
KLIMA-ZULUFT-IV
 70
     0
  3
 
 72
    65
 73
     2
 40
16.
 49
16.
 49
0.
  0
LTYPE
  2
KLIMA-UMLUFT
 70
     0
  3
 
 72
    65
 73
     2
 40
5.
 49
4.063
 49
-0.938
  0
LTYPE
  2
KLIMA-MISCHLUFT
 70
     0
  3
 
 72
    65
 73
     6
 40
11.
 49
3.78
 49
-1.03
 49
3.78
 49
-1.03
 49
0.34
 49
-1.03
  0
LTYPE
  2
KLIMA-ABLUFT
 70
     0
  3
 
 72
    65
 73
     2
 40
5.
 49
4.063
 49
-0.938
  0
LTYPE
  2
KLIMA-FORTLUFT
 70
     0
  3
 
 72
    65
 73
     2
 40
5.
 49
4.063
 49
-0.938
  0
LTYPE
  2
ENTRAUCHUNG
 70
     0
  3
 
 72
    65
 73
     2
 40
5.
 49
4.063
 49
-0.938
  0
LTYPE
  2
ELEKTRO-ZENTRALE
 70
     0
  3
 
 72
    65
 73
     2
 40
16.
 49
16.
 49
0.
  0
LTYPE
  2
STROMSCHIENEN
 70
     0
  3
 
 72
    65
 73
     2
 40
16.
 49
16.
 49
0.
  0
LTYPE
  2
ELEKTRO-LEITUNGSFUEHRUNG
 70
     0
  3
 
 72
    65
 73
     2
 40
16.
 49
16.
 49
0.
  0
LTYPE
  2
ELEKTRO-KABELTRAEGER
 70
     0
  3
 
 72
    65
 73
     2
 40
16.
 49
16.
 49
0.
  0
LTYPE
  2
INNENWAND
 70
     0
  3
 
 72
    65
 73
     2
 40
16.
 49
16.
 49
0.
  0
LTYPE
  2
AUSSENWAND
 70
     0
  3
 
 72
    65
 73
     2
 40
16.
 49
16.
 49
0.
  0
LTYPE
  2
ERDBERUEHREND
 70
     0
  3
 
 72
    65
 73
     2
 40
16.
 49
16.
 49
0.
  0
LTYPE
  2
REINWASSER
 70
     0
  3
 
 72
    65
 73
     2
 40
16.
 49
16.
 49
0.
  0
LTYPE
  2
MESSWASSER
 70
     0
  3
 
 72
    65
 73
     2
 40
16.
 49
16.
 49
0.
  0
LTYPE
  2
SCHWALLWASSER
 70
     0
  3
 
 72
    65
 73
     2
 40
16.
 49
16.
 49
0.
  0
LTYPE
  2
SCHLAMMWASSER
 70
     0
  3
 
 72
    65
 73
     2
 40
16.
 49
16.
 49
0.
  0
LTYPE
  2
ERSTFILTRAT
 70
     0
  3
 
 72
    65
 73
     2
 40
16.
 49
16.
 49
0.
  0
LTYPE
  2
FILTRAT
 70
     0
  3
 
 72
    65
 73
     2
 40
16.
 49
16.
 49
0.
  0
LTYPE
  2
SOLE-FILTRAT
 70
     0
  3
 
 72
    65
 73
     2
 40
16.
 49
16.
 49
0.
  0
LTYPE
  2
SOLE-REINWASSER
 70
     0
  3
 
 72
    65
 73
     2
 40
16.
 49
16.
 49
0.
  0
LTYPE
  2
SOLE-ROHWASSER
 70
     0
  3
 
 72
    65
 73
     2
 40
16.
 49
16.
 49
0.
  0
LTYPE
  2
SPUELWASSER
 70
     0
  3
 
 72
    65
 73
     2
 40
16.
 49
16.
 49
0.
  0
LTYPE
  2
SPUELLUFT
 70
     0
  3
 
 72
    65
 73
     2
 40
16.
 49
16.
 49
0.
  0
LTYPE
  2
CHLORLOESUNG
 70
     0
  3
 
 72
    65
 73
     2
 40
16.
 49
16.
 49
0.
  0
LTYPE
  2
PH-LOESUNG
 70
     0
  3
 
 72
    65
 73
     2
 40
16.
 49
16.
 49
0.
  0
LTYPE
  2
FLOCKUNGSMITTEL
 70
     0
  3
 
 72
    65
 73
     2
 40
16.
 49
16.
 49
0.
  0
LTYPE
  2
SEEWASSER--KALT
 70
     0
  3
 
 72
    65
 73
     2
 40
16.
 49
16.
 49
0.
  0
LTYPE
  2
SEEWASSER--WARM
 70
     0
  3
 
 72
    65
 73
     2
 40
5.
 49
4.063
 49
-0.938
  0
LTYPE
  2
SEEWASSER--ZIRKULATION
 70
     0
  3
 
 72
    65
 73
     4
 40
13.
 49
9.34
 49
-1.22
 49
1.22
 49
-1.22
  0
LTYPE
  2
LABORWASSER--KALT
 70
     0
  3
 
 72
    65
 73
     2
 40
16.
 49
16.
 49
0.
  0
LTYPE
  2
LABORWASSER--WARM
 70
     0
  3
 
 72
    65
 73
     2
 40
5.
 49
4.063
 49
-0.938
  0
LTYPE
  2
LABORWASSER--ZIRKULATION
 70
     0
  3
 
 72
    65
 73
     4
 40
13.
 49
9.34
 49
-1.22
 49
1.22
 49
-1.22
  0
LTYPE
  2
WASSER-VOLL-ENTHAERTET-VL
 70
     0
  3
 
 72
    65
 73
     2
 40
16.
 49
16.
 49
0.
  0
LTYPE
  2
WASSER-VOLL-ENTHAERTET-RL
 70
     0
  3
 
 72
    65
 73
     2
 40
16.
 49
16.
 49
0.
  0
LTYPE
  2
PROZESSKUEHLWASSER-VL
 70
     0
  3
 
 72
    65
 73
     2
 40
16.
 49
16.
 49
0.
  0
LTYPE
  2
PROZESSKUEHLWASSER-RL
 70
     0
  3
 
 72
    65
 73
     2
 40
16.
 49
16.
 49
0.
  0
ENDTAB
  0
TABLE
  2
LAYER
 70
    25
  0
LAYER
  2
0
 62
     7
  6
AUSGEZOGEN
 70
    64
  0
LAYER
  2
SICHTBARE_KANTE
 62
     7
  6
AUSGEZOGEN
 70
    64
  0
LAYER
  2
VERDECKTE_KANTE
 62
     8
  6
VERDECKTE_KANTE
 70
    64
  0
LAYER
  2
HILFSLINIE
 62
     8
  6
HILFSLINIE
 70
    64
  0
LAYER
  2
BRUCHLINIE
 62
     8
  6
BRUCHLINIE
 70
    64
  0
LAYER
  2
MITTELLINIE
 62
     8
  6
MITTELLINIE
 70
    64
  0
LAYER
  2
SCHNITTLINIE
 62
     7
  6
SCHNITTLINIE
 70
    64
  0
LAYER
  2
SCHWERLINIE
 62
     8
  6
SCHWERLINIE
 70
    64
  0
LAYER
  2
ENTWURFSLINIE
 62
     8
  6
ENTWURFSLINIE
 70
    64
  0
LAYER
  2
SONDERLINIE_1
 62
     8
  6
SONDERLINIE1
 70
    64
  0
LAYER
  2
SONDERLINIE_2
 62
     8
  6
SONDERLINIE2
 70
    64
  0
LAYER
  2
SONDERLINIE_3
 62
     8
  6
SONDERLINIE3
 70
    64
  0
LAYER
  2
SONDERLINIE_4
 62
     8
  6
SONDERLINIE4
 70
    64
  0
LAYER
  2
SONDERLINIE_5
 62
     8
  6
SONDERLINIE5
 70
    64
  0
LAYER
  2
SONDERLINIE_6
 62
     8
  6
SONDERLINIE6
 70
    64
  0
LAYER
  2
SONDERLINIE_7
 62
     8
  6
SONDERLINIE7
 70
    64
  0
LAYER
  2
SONDERLINIE_8
 62
     8
  6
SONDERLINIE8
 70
    64
  0
LAYER
  2
2D-TEXT
 62
     7
  6
AUSGEZOGEN
 70
    64
  0
LAYER
  2
SCHRAFFUR
 62
     8
  6
HILFSLINIE
 70
    64
  0
LAYER
  2
SYMBOL
 62
     7
  6
HILFSLINIE
 70
    64
  0
LAYER
  2
BEMASSUNG
 62
     8
  6
HILFSLINIE
 70
    64
  0
LAYER
  2
OBERFLAECHENZEICHEN
 62
     8
  6
HILFSLINIE
 70
    64
  0
LAYER
  2
FORM-LAGE-TOLERANZEN
 62
     8
  6
HILFSLINIE
 70
    64
  0
LAYER
  2
SCHWEISSZEICHEN
 62
     8
  6
HILFSLINIE
 70
    64
  0
LAYER
  2
GRUNDEBENE
 62
     7
  6
AUSGEZOGEN
 70
    64
  0
ENDTAB
  0
TABLE
  2
STYLE
 70
    23
  0
STYLE
  2
STANDARD
 70
     0
 40
     0
 41
       1.000000
 50
       0.000000
 71
     0
 42
       3.500000
  3
isocp
  4

  0
STYLE
  2
DIN-6776
 70
     0
 40
     0
 41
       1.000000
 50
       0.000000
 71
     0
 42
       3.500000
  3
isocp
  4

  0
STYLE
  2
ROMAN
 70
     0
 40
     0
 41
       1.000000
 50
       0.000000
 71
     0
 42
       3.500000
  3
romans.shx
  4

  0
STYLE
  2
SCRIPT
 70
     0
 40
     0
 41
       1.000000
 50
       0.000000
 71
     0
 42
       3.500000
  3
scripts.shx
  4

  0
STYLE
  2
GRIECHISCH
 70
     0
 40
     0
 41
       1.000000
 50
       0.000000
 71
     0
 42
       3.500000
  3
greeks.shx
  4

  0
STYLE
  2
KYRILLISCH
 70
     0
 40
     0
 41
       1.000000
 50
       0.000000
 71
     0
 42
       3.500000
  3
cyrillic.shx
  4

  0
STYLE
  2
MATH--FORMELZEICHEN
 70
     0
 40
     0
 41
       1.000000
 50
       0.000000
 71
     0
 42
       3.500000
  3
symath.shx
  4

  0
STYLE
  2
DOPPELLINIE
 70
     0
 40
     0
 41
       1.000000
 50
       0.000000
 71
     0
 42
       3.500000
  3
swissko.ttf
  4

  0
STYLE
  2
SERIFENSCHRIFT
 70
     0
 40
     0
 41
       1.000000
 50
       0.000000
 71
     0
 42
       3.500000
  3
romanc__.ttf
  4

  0
STYLE
  2
ARIAL
 70
     0
 40
     0
 41
       1.000000
 50
       0.000000
 71
     0
 42
       3.500000
  3
arial.ttf
  4

  0
STYLE
  2
ARIAL-FETT
 70
     0
 40
     0
 41
       1.000000
 50
       0.000000
 71
     0
 42
       3.500000
  3
arialbd.ttf
  4

  0
STYLE
  2
TIMES-NEW-ROMAN
 70
     0
 40
     0
 41
       1.000000
 50
       0.000000
 71
     0
 42
       3.500000
  3
times.ttf
  4

  0
STYLE
  2
TIMES-NEW-ROMAN-FETT
 70
     0
 40
     0
 41
       1.000000
 50
       0.000000
 71
     0
 42
       3.500000
  3
timesbd.ttf
  4

  0
STYLE
  2
DIN-6776-OSTEUROPA
 70
     0
 40
     0
 41
       1.000000
 50
       0.000000
 71
     0
 42
       3.500000
  3
txt
  4

  0
STYLE
  2
DIN-6776-KYRILLISCH
 70
     0
 40
     0
 41
       1.000000
 50
       0.000000
 71
     0
 42
       3.500000
  3
txt
  4

  0
STYLE
  2
ARIAL-OSTEUROPA
 70
     0
 40
     0
 41
       1.000000
 50
       0.000000
 71
     0
 42
       3.500000
  3
arial.ttf
  4

  0
STYLE
  2
ARIAL-KYRILLISCH
 70
     0
 40
     0
 41
       1.000000
 50
       0.000000
 71
     0
 42
       3.500000
  3
arial.ttf
  4

  0
STYLE
  2
ARIAL-FETT-OSTEUROPA
 70
     0
 40
     0
 41
       1.000000
 50
       0.000000
 71
     0
 42
       3.500000
  3
arialbd.ttf
  4

  0
STYLE
  2
ARIAL-FETT-KYRILLISCH
 70
     0
 40
     0
 41
       1.000000
 50
       0.000000
 71
     0
 42
       3.500000
  3
arialbd.ttf
  4

  0
STYLE
  2
TIMES-N-R-OSTEUROPA
 70
     0
 40
     0
 41
       1.000000
 50
       0.000000
 71
     0
 42
       3.500000
  3
times.ttf
  4

  0
STYLE
  2
TIMES-N-R-KYRILLISCH
 70
     0
 40
     0
 41
       1.000000
 50
       0.000000
 71
     0
 42
       3.500000
  3
times.ttf
  4

  0
STYLE
  2
TIMES-N-R-FETT-OSTEUROPA
 70
     0
 40
     0
 41
       1.000000
 50
       0.000000
 71
     0
 42
       3.500000
  3
timesbd.ttf
  4

  0
STYLE
  2
TIMES-N-R-FETT-KYRILLISCH
 70
     0
 40
     0
 41
       1.000000
 50
       0.000000
 71
     0
 42
       3.500000
  3
timesbd.ttf
  4

  0
ENDTAB
  0
TABLE
  2
VIEW
 70
     0
  0
ENDTAB
  0
TABLE
  2
VPORT
 70
     2
  0
VPORT
  2
*ACTIVE
 70
     0
 10
       0.000000
 20
       0.000000
 11
       1.000000
 21
       1.000000
 12
    1613.299927
 22
    1030.764282
 13
       0.000000
 23
       0.000000
 14
       1.000000
 24
       1.000000
 15
       0.000000
 25
       0.000000
 16
       0.000000
 26
       0.000000
 36
       1.000000
 17
       0.000000
 27
       0.000000
 37
       0.000000
 40
    2061.528564
 41
       1.565149
 42
      50.000000
 43
       0.000000
 44
       0.000000
 50
       0.000000
 51
       0.000000
 71
     0
 72
   100
 73
     1
 74
     1
 75
     0
 76
     0
 77
     0
 78
     0
  0
ENDTAB
  0
TABLE
  2
DIMSTYLE
 70
     1
  0
DIMSTYLE
  2
STDBEM
 70
     0
  3

  4

  5

  6

  7

 40
       1.000000
 41
       3.500000
 42
       0.100000
 43
       7.000000
 44
       1.800000
 45
       0.000000
 46
       0.000000
 47
       0.000000
 48
       0.000000
140
       3.500000
141
       1.500000
142
       0.000000
143
      25.400000
144
       1.000000
145
       0.000000
146
       1.000000
147
       0.090000
 71
     0
 72
     0
 73
     0
 74
     0
 75
     0
 76
     0
 77
     1
 78
     0
170
     0
171
     2
172
     0
173
     0
174
     0
175
     0
176
     0
177
     0
178
     0
  0
ENDTAB
  0
ENDSEC
  0
SECTION
  2
BLOCKS
  0
ENDSEC
  0
SECTION
  2
ENTITIES
  0
LINE
  8
HILFSLINIE
 10
      37.633595
 20
     316.264252
 11
      37.633595
 21
    1020.264221
  0
LINE
  8
HILFSLINIE
 10
      54.633591
 20
    1037.264160
 11
    1708.633545
 21
    1037.264160
  0
LINE
  8
HILFSLINIE
 10
    1708.633545
 20
     299.264252
 11
      54.633591
 21
     299.264252
  0
LINE
  8
HILFSLINIE
 10
    1725.633545
 20
     316.264252
 11
    1725.633545
 21
    1020.264221
  0
LINE
  8
HILFSLINIE
 10
     881.633545
 20
     840.764099
 11
    1328.633789
 21
     840.763977
  0
LINE
  8
HILFSLINIE
 10
     881.633545
 20
     495.764099
 11
    1328.633789
 21
     495.764221
  0
LINE
  8
HILFSLINIE
 10
    1348.633789
 20
     820.763977
 11
    1348.633789
 21
     794.404846
  0
LINE
  8
HILFSLINIE
 10
    1348.633789
 20
     542.123352
 11
    1348.633789
 21
     515.764221
  0
LINE
  8
HILFSLINIE
 10
     881.633545
 20
     840.764099
 11
     434.633331
 21
     840.763977
  0
LINE
  8
HILFSLINIE
 10
     881.633545
 20
     495.764099
 11
     434.633331
 21
     495.764221
  0
LINE
  8
HILFSLINIE
 10
     414.633301
 20
     820.763977
 11
     414.633331
 21
     794.404846
  0
LINE
  8
HILFSLINIE
 10
     414.633331
 20
     542.123352
 11
     414.633331
 21
     515.764221
  0
LINE
  8
HILFSLINIE
 10
     969.368408
 20
    1448.264160
 11
     879.023193
 21
    1448.264160
  0
LINE
  8
HILFSLINIE
 10
     793.898682
 20
    1448.264160
 11
     884.243896
 21
    1448.264160
  0
LINE
  8
HILFSLINIE
 10
    3194.966309
 20
     668.262024
 11
    1968.300903
 21
     668.262268
  0
ARC
  8
HILFSLINIE
 10
      54.633591
 20
    1020.264221
 40
      16.999998
 50
      90.000000
 51
     180.000000
  0
ARC
  8
HILFSLINIE
 10
      54.633591
 20
     316.264252
 40
      16.999998
 50
     180.000000
 51
     270.000000
  0
ARC
  8
HILFSLINIE
 10
     881.635986
 20
  -89021.179688
 40
   90028.703125
 50
      90.000000
 51
      90.509575
  0
ARC
  8
HILFSLINIE
 10
   15162.794922
 20
     668.293884
 40
   15090.421875
 50
     178.743958
 51
     181.275269
  0
ARC
  8
HILFSLINIE
 10
      80.997543
 20
     998.969482
 40
       5.000000
 50
      90.509872
 51
     178.744446
  0
ARC
  8
HILFSLINIE
 10
     881.635986
 20
   90352.703125
 40
   90028.703125
 50
     269.490479
 51
     270.000000
  0
ARC
  8
HILFSLINIE
 10
      81.109787
 20
     332.555115
 40
       4.999794
 50
     181.275543
 51
     269.490784
  0
ARC
  8
HILFSLINIE
 10
    1708.633545
 20
    1020.264221
 40
      16.999998
 50
       0.000000
 51
      90.000000
  0
ARC
  8
HILFSLINIE
 10
    1708.633545
 20
     316.264252
 40
      16.999998
 50
     270.000000
 51
       0.000000
  0
ARC
  8
HILFSLINIE
 10
     881.631104
 20
  -89021.179688
 40
   90028.703125
 50
      89.490417
 51
      89.999992
  0
ARC
  8
HILFSLINIE
 10
  -13399.527344
 20
     668.293884
 40
   15090.421875
 50
     358.724731
 51
       1.256036
  0
ARC
  8
HILFSLINIE
 10
    1682.269531
 20
     998.969482
 40
       5.000000
 50
       1.255549
 51
      89.489426
  0
ARC
  8
HILFSLINIE
 10
     881.631104
 20
   90352.703125
 40
   90028.703125
 50
     270.000000
 51
     270.509491
  0
ARC
  8
HILFSLINIE
 10
    1682.157349
 20
     332.555115
 40
       4.999794
 50
     270.509186
 51
     358.724457
  0
ARC
  8
HILFSLINIE
 10
    1362.318115
 20
     519.809875
 40
      85.762863
 50
     338.707458
 51
     359.561218
  0
ARC
  8
HILFSLINIE
 10
    1362.592285
 20
     520.040588
 40
      85.591835
 50
     313.628265
 51
     338.496887
  0
ARC
  8
HILFSLINIE
 10
    1362.591797
 20
     816.487366
 40
      85.591766
 50
      21.503086
 51
      46.371765
  0
ARC
  8
HILFSLINIE
 10
    1362.316406
 20
     816.717834
 40
      85.764221
 50
       0.438909
 51
      21.292406
  0
ARC
  8
HILFSLINIE
 10
    1328.633789
 20
     820.763977
 40
      20.000023
 50
       0.000000
 51
      90.000000
  0
ARC
  8
HILFSLINIE
 10
    1328.633789
 20
     515.764221
 40
      20.000023
 50
     270.000000
 51
       0.000000
  0
ARC
  8
HILFSLINIE
 10
     400.949005
 20
     519.809875
 40
      85.762863
 50
     180.438751
 51
     201.292542
  0
ARC
  8
HILFSLINIE
 10
     400.674835
 20
     520.040588
 40
      85.591835
 50
     201.503082
 51
     226.371704
  0
ARC
  8
HILFSLINIE
 10
     400.675323
 20
     816.487366
 40
      85.591766
 50
     133.628265
 51
     158.496918
  0
ARC
  8
HILFSLINIE
 10
     400.950714
 20
     816.717834
 40
      85.764221
 50
     158.707596
 51
     179.561096
  0
ARC
  8
HILFSLINIE
 10
     434.633331
 20
     820.763977
 40
      20.000023
 50
      90.000000
 51
     180.000000
  0
ARC
  8
HILFSLINIE
 10
     434.633331
 20
     515.764221
 40
      20.000023
 50
     180.000000
 51
     270.000000
  0
CIRCLE
  8
HILFSLINIE
 10
     881.633545
 20
     668.264221
 40
      44.999996
  0
POLYLINE
  8
HILFSLINIE
 66
     1
 10
       0.000000
 20
       0.000000
 30
       0.000000
  0
VERTEX
  8
HILFSLINIE
 10
    1347.053955
 20
     429.930237
 30
       0.000000
  0
VERTEX
  8
HILFSLINIE
 10
    1357.252197
 20
     430.391907
 30
       0.000000
  0
VERTEX
  8
HILFSLINIE
 10
    1367.385010
 20
     431.689514
 30
       0.000000
  0
VERTEX
  8
HILFSLINIE
 10
    1377.355225
 20
     433.846741
 30
       0.000000
  0
VERTEX
  8
HILFSLINIE
 10
    1387.091309
 20
     436.887756
 30
       0.000000
  0
VERTEX
  8
HILFSLINIE
 10
    1396.498047
 20
     440.830139
 30
       0.000000
  0
VERTEX
  8
HILFSLINIE
 10
    1405.469238
 20
     445.681702
 30
       0.000000
  0
VERTEX
  8
HILFSLINIE
 10
    1413.896240
 20
     451.443420
 30
       0.000000
  0
VERTEX
  8
HILFSLINIE
 10
    1421.648682
 20
     458.086487
 30
       0.000000
  0
SEQEND
  8
HILFSLINIE
  0
POLYLINE
  8
HILFSLINIE
 66
     1
 10
       0.000000
 20
       0.000000
 30
       0.000000
  0
VERTEX
  8
HILFSLINIE
 10
    1421.648193
 20
     878.441467
 30
       0.000000
  0
VERTEX
  8
HILFSLINIE
 10
    1413.895996
 20
     885.084778
 30
       0.000000
  0
VERTEX
  8
HILFSLINIE
 10
    1405.469238
 20
     890.846008
 30
       0.000000
  0
VERTEX
  8
HILFSLINIE
 10
    1396.498047
 20
     895.697815
 30
       0.000000
  0
VERTEX
  8
HILFSLINIE
 10
    1387.091064
 20
     899.640442
 30
       0.000000
  0
VERTEX
  8
HILFSLINIE
 10
    1377.354980
 20
     902.681458
 30
       0.000000
  0
VERTEX
  8
HILFSLINIE
 10
    1367.384521
 20
     904.838684
 30
       0.000000
  0
VERTEX
  8
HILFSLINIE
 10
    1357.251953
 20
     906.136292
 30
       0.000000
  0
VERTEX
  8
HILFSLINIE
 10
    1347.053467
 20
     906.597961
 30
       0.000000
  0
SEQEND
  8
HILFSLINIE
  0
POLYLINE
  8
HILFSLINIE
 66
     1
 10
       0.000000
 20
       0.000000
 30
       0.000000
  0
VERTEX
  8
HILFSLINIE
 10
    1347.053467
 20
     906.597961
 30
       0.000000
  0
VERTEX
  8
HILFSLINIE
 10
    1012.784180
 20
     907.705627
 30
       0.000000
  0
VERTEX
  8
HILFSLINIE
 10
     881.633545
 20
     907.653198
 30
       0.000000
  0
SEQEND
  8
HILFSLINIE
  0
POLYLINE
  8
HILFSLINIE
 66
     1
 10
       0.000000
 20
       0.000000
 30
       0.000000
  0
VERTEX
  8
HILFSLINIE
 10
     881.633545
 20
     428.874573
 30
       0.000000
  0
VERTEX
  8
HILFSLINIE
 10
    1012.784424
 20
     428.822083
 30
       0.000000
  0
VERTEX
  8
HILFSLINIE
 10
    1347.053955
 20
     429.930237
 30
       0.000000
  0
SEQEND
  8
HILFSLINIE
  0
POLYLINE
  8
HILFSLINIE
 66
     1
 10
       0.000000
 20
       0.000000
 30
       0.000000
  0
VERTEX
  8
HILFSLINIE
 10
    1448.819580
 20
     668.263977
 30
       0.000000
  0
VERTEX
  8
HILFSLINIE
 10
    1448.634277
 20
     742.821594
 30
       0.000000
  0
VERTEX
  8
HILFSLINIE
 10
    1448.078125
 20
     817.374817
 30
       0.000000
  0
SEQEND
  8
HILFSLINIE
  0
POLYLINE
  8
HILFSLINIE
 66
     1
 10
       0.000000
 20
       0.000000
 30
       0.000000
  0
VERTEX
  8
HILFSLINIE
 10
    1448.078369
 20
     519.153137
 30
       0.000000
  0
VERTEX
  8
HILFSLINIE
 10
    1448.634277
 20
     593.706360
 30
       0.000000
  0
VERTEX
  8
HILFSLINIE
 10
    1448.819580
 20
     668.263977
 30
       0.000000
  0
SEQEND
  8
HILFSLINIE
  0
POLYLINE
  8
HILFSLINIE
 66
     1
 10
       0.000000
 20
       0.000000
 30
       0.000000
  0
VERTEX
  8
HILFSLINIE
 10
    1348.633789
 20
     794.404846
 30
       0.000000
  0
VERTEX
  8
HILFSLINIE
 10
    1348.633789
 20
     752.390198
 30
       0.000000
  0
VERTEX
  8
HILFSLINIE
 10
    1348.633789
 20
     710.335754
 30
       0.000000
  0
VERTEX
  8
HILFSLINIE
 10
    1348.633789
 20
     668.263977
 30
       0.000000
  0
SEQEND
  8
HILFSLINIE
  0
POLYLINE
  8
HILFSLINIE
 66
     1
 10
       0.000000
 20
       0.000000
 30
       0.000000
  0
VERTEX
  8
HILFSLINIE
 10
    1348.633789
 20
     668.263977
 30
       0.000000
  0
VERTEX
  8
HILFSLINIE
 10
    1348.633789
 20
     626.191956
 30
       0.000000
  0
VERTEX
  8
HILFSLINIE
 10
    1348.633789
 20
     584.137756
 30
       0.000000
  0
VERTEX
  8
HILFSLINIE
 10
    1348.633789
 20
     542.123352
 30
       0.000000
  0
SEQEND
  8
HILFSLINIE
  0
POLYLINE
  8
HILFSLINIE
 66
     1
 10
       0.000000
 20
       0.000000
 30
       0.000000
  0
VERTEX
  8
HILFSLINIE
 10
     416.213165
 20
     429.930237
 30
       0.000000
  0
VERTEX
  8
HILFSLINIE
 10
     406.014923
 20
     430.391907
 30
       0.000000
  0
VERTEX
  8
HILFSLINIE
 10
     395.882111
 20
     431.689514
 30
       0.000000
  0
VERTEX
  8
HILFSLINIE
 10
     385.911896
 20
     433.846741
 30
       0.000000
  0
VERTEX
  8
HILFSLINIE
 10
     376.175812
 20
     436.887756
 30
       0.000000
  0
VERTEX
  8
HILFSLINIE
 10
     366.769073
 20
     440.830139
 30
       0.000000
  0
VERTEX
  8
HILFSLINIE
 10
     357.797882
 20
     445.681702
 30
       0.000000
  0
VERTEX
  8
HILFSLINIE
 10
     349.370880
 20
     451.443420
 30
       0.000000
  0
VERTEX
  8
HILFSLINIE
 10
     341.618439
 20
     458.086487
 30
       0.000000
  0
SEQEND
  8
HILFSLINIE
  0
POLYLINE
  8
HILFSLINIE
 66
     1
 10
       0.000000
 20
       0.000000
 30
       0.000000
  0
VERTEX
  8
HILFSLINIE
 10
     341.618927
 20
     878.441467
 30
       0.000000
  0
VERTEX
  8
HILFSLINIE
 10
     349.371124
 20
     885.084778
 30
       0.000000
  0
VERTEX
  8
HILFSLINIE
 10
     357.797882
 20
     890.846008
 30
       0.000000
  0
VERTEX
  8
HILFSLINIE
 10
     366.769073
 20
     895.697815
 30
       0.000000
  0
VERTEX
  8
HILFSLINIE
 10
     376.176056
 20
     899.640442
 30
       0.000000
  0
VERTEX
  8
HILFSLINIE
 10
     385.912140
 20
     902.681458
 30
       0.000000
  0
VERTEX
  8
HILFSLINIE
 10
     395.882599
 20
     904.838684
 30
       0.000000
  0
VERTEX
  8
HILFSLINIE
 10
     406.015167
 20
     906.136292
 30
       0.000000
  0
VERTEX
  8
HILFSLINIE
 10
     416.213654
 20
     906.597961
 30
       0.000000
  0
SEQEND
  8
HILFSLINIE
  0
POLYLINE
  8
HILFSLINIE
 66
     1
 10
       0.000000
 20
       0.000000
 30
       0.000000
  0
VERTEX
  8
HILFSLINIE
 10
     416.213654
 20
     906.597961
 30
       0.000000
  0
VERTEX
  8
HILFSLINIE
 10
     750.482910
 20
     907.705627
 30
       0.000000
  0
VERTEX
  8
HILFSLINIE
 10
     881.633545
 20
     907.653198
 30
       0.000000
  0
SEQEND
  8
HILFSLINIE
  0
POLYLINE
  8
HILFSLINIE
 66
     1
 10
       0.000000
 20
       0.000000
 30
       0.000000
  0
VERTEX
  8
HILFSLINIE
 10
     881.633545
 20
     428.874573
 30
       0.000000
  0
VERTEX
  8
HILFSLINIE
 10
     750.482666
 20
     428.822083
 30
       0.000000
  0
VERTEX
  8
HILFSLINIE
 10
     416.213165
 20
     429.930237
 30
       0.000000
  0
SEQEND
  8
HILFSLINIE
  0
POLYLINE
  8
HILFSLINIE
 66
     1
 10
       0.000000
 20
       0.000000
 30
       0.000000
  0
VERTEX
  8
HILFSLINIE
 10
     314.447540
 20
     668.263977
 30
       0.000000
  0
VERTEX
  8
HILFSLINIE
 10
     314.632843
 20
     742.821594
 30
       0.000000
  0
VERTEX
  8
HILFSLINIE
 10
     315.188995
 20
     817.374817
 30
       0.000000
  0
SEQEND
  8
HILFSLINIE
  0
POLYLINE
  8
HILFSLINIE
 66
     1
 10
       0.000000
 20
       0.000000
 30
       0.000000
  0
VERTEX
  8
HILFSLINIE
 10
     315.188751
 20
     519.153137
 30
       0.000000
  0
VERTEX
  8
HILFSLINIE
 10
     314.632843
 20
     593.706360
 30
       0.000000
  0
VERTEX
  8
HILFSLINIE
 10
     314.447540
 20
     668.263977
 30
       0.000000
  0
SEQEND
  8
HILFSLINIE
  0
POLYLINE
  8
HILFSLINIE
 66
     1
 10
       0.000000
 20
       0.000000
 30
       0.000000
  0
VERTEX
  8
HILFSLINIE
 10
     414.633331
 20
     794.404846
 30
       0.000000
  0
VERTEX
  8
HILFSLINIE
 10
     414.633331
 20
     752.390198
 30
       0.000000
  0
VERTEX
  8
HILFSLINIE
 10
     414.633331
 20
     710.335754
 30
       0.000000
  0
VERTEX
  8
HILFSLINIE
 10
     414.633331
 20
     668.263977
 30
       0.000000
  0
SEQEND
  8
HILFSLINIE
  0
POLYLINE
  8
HILFSLINIE
 66
     1
 10
       0.000000
 20
       0.000000
 30
       0.000000
  0
VERTEX
  8
HILFSLINIE
 10
     414.633331
 20
     668.263977
 30
       0.000000
  0
VERTEX
  8
HILFSLINIE
 10
     414.633331
 20
     626.191956
 30
       0.000000
  0
VERTEX
  8
HILFSLINIE
 10
     414.633331
 20
     584.137756
 30
       0.000000
  0
VERTEX
  8
HILFSLINIE
 10
     414.633331
 20
     542.123352
 30
       0.000000
  0
SEQEND
  8
HILFSLINIE
  0
POLYLINE
  8
HILFSLINIE
 66
     1
 10
       0.000000
 20
       0.000000
 30
       0.000000
  0
VERTEX
  8
HILFSLINIE
 10
    1577.782959
 20
    1744.579712
 30
       0.000000
  0
VERTEX
  8
HILFSLINIE
 10
    1234.975830
 20
    1744.579956
 30
       0.000000
  0
VERTEX
  8
HILFSLINIE
 10
     892.242920
 20
    1744.579956
 30
       0.000000
  0
VERTEX
  8
HILFSLINIE
 10
     549.611328
 20
    1744.579956
 30
       0.000000
  0
VERTEX
  8
HILFSLINIE
 10
     206.985886
 20
    1744.579712
 30
       0.000000
  0
SEQEND
  8
HILFSLINIE
  0
POLYLINE
  8
HILFSLINIE
 66
     1
 10
       0.000000
 20
       0.000000
 30
       0.000000
  0
VERTEX
  8
HILFSLINIE
 10
    1419.023193
 20
    1448.264160
 30
       0.000000
  0
VERTEX
  8
HILFSLINIE
 10
    1084.754639
 20
    1448.264160
 30
       0.000000
  0
VERTEX
  8
HILFSLINIE
 10
     750.482666
 20
    1448.264160
 30
       0.000000
  0
VERTEX
  8
HILFSLINIE
 10
     416.213165
 20
    1448.264160
 30
       0.000000
  0
SEQEND
  8
HILFSLINIE
  0
POLYLINE
  8
HILFSLINIE
 66
     1
 10
       0.000000
 20
       0.000000
 30
       0.000000
  0
VERTEX
  8
HILFSLINIE
 10
    2338.428711
 20
    1739.131714
 30
       0.000000
  0
VERTEX
  8
HILFSLINIE
 10
    2460.033936
 20
    1739.132202
 30
       0.000000
  0
VERTEX
  8
HILFSLINIE
 10
    2581.633301
 20
    1739.132202
 30
       0.000000
  0
VERTEX
  8
HILFSLINIE
 10
    2703.232422
 20
    1739.132202
 30
       0.000000
  0
VERTEX
  8
HILFSLINIE
 10
    2824.837891
 20
    1739.131714
 30
       0.000000
  0
SEQEND
  8
HILFSLINIE
  0
LINE
  8
MITTELLINIE
 10
      31.633595
 20
     668.264221
 11
    1731.633545
 21
     668.264221
  0
LINE
  8
MITTELLINIE
 10
     881.633545
 20
     293.264252
 11
     881.633545
 21
    1043.264160
  0
LINE
  8
MITTELLINIE
 10
     848.571045
 20
     373.264252
 11
     914.696045
 21
     373.264252
  0
LINE
  8
MITTELLINIE
 10
     881.633545
 20
    1768.264038
 11
     881.633545
 21
    1348.433350
  0
LINE
  8
MITTELLINIE
 10
     881.633545
 20
    1768.264038
 11
     881.633545
 21
    1348.433350
  0
LINE
  8
MITTELLINIE
 10
    2581.633545
 20
    1768.264038
 11
    2581.633545
 21
    1348.433350
  0
ARC
  8
ENTWURFSLINIE
 10
    7601.786621
 20
    5823.728027
 40
    8499.999023
 50
     208.497040
 51
     208.902985
  0
ARC
  8
ENTWURFSLINIE
 10
   -5838.519531
 20
    5823.728027
 40
    8499.999023
 50
     331.096985
 51
     331.502960
  0
ARC
  8
ENTWURFSLINIE
 10
    7601.786621
 20
    5823.728027
 40
    8499.999023
 50
     208.497040
 51
     208.902985
  0
ARC
  8
ENTWURFSLINIE
 10
   -4147.047852
 20
    3260.423096
 40
    7199.999512
 50
     347.832611
 51
     348.039093
  0
ARC
  8
ENTWURFSLINIE
 10
    9310.316406
 20
    3260.423096
 40
    7199.999512
 50
     191.960907
 51
     192.167358
  0
ARC
  8
ENTWURFSLINIE
 10
   -4147.048828
 20
    3260.423096
 40
    7199.999512
 50
     347.832611
 51
     348.039093
  0
LINE
  8
SICHTBARE_KANTE
 10
      54.633591
 20
    1043.264160
 11
    1708.633545
 21
    1043.264160
  0
LINE
  8
SICHTBARE_KANTE
 10
    1708.633545
 20
     293.264252
 11
      54.633591
 21
     293.264252
  0
LINE
  8
SICHTBARE_KANTE
 10
      31.633595
 20
     316.264252
 11
      31.633595
 21
    1020.264221
  0
LINE
  8
SICHTBARE_KANTE
 10
    1731.633545
 20
     316.264252
 11
    1731.633545
 21
    1020.264221
  0
LINE
  8
SICHTBARE_KANTE
 10
      37.633350
 20
    1768.264038
 11
    1725.633545
 21
    1768.264038
  0
LINE
  8
SICHTBARE_KANTE
 10
     409.777069
 20
    1370.620239
 11
     790.760742
 21
    1360.643799
  0
LINE
  8
SICHTBARE_KANTE
 10
      46.633354
 20
    1736.264038
 11
      46.633354
 21
    1739.014038
  0
LINE
  8
SICHTBARE_KANTE
 10
      37.633350
 20
    1736.264038
 11
      46.633354
 21
    1736.264038
  0
LINE
  8
SICHTBARE_KANTE
 10
      31.633350
 20
    1762.264038
 11
      31.633350
 21
    1742.264038
  0
LINE
  8
SICHTBARE_KANTE
 10
     910.826904
 20
    1351.183350
 11
     852.440186
 21
    1351.183228
  0
LINE
  8
SICHTBARE_KANTE
 10
     855.633545
 20
    1348.433350
 11
     855.633545
 21
    1351.183350
  0
LINE
  8
SICHTBARE_KANTE
 10
     907.633545
 20
    1351.183350
 11
     907.633545
 21
    1348.433350
  0
LINE
  8
SICHTBARE_KANTE
 10
      37.821156
 20
    1768.261108
 11
      76.147263
 21
    1767.057495
  0
LINE
  8
SICHTBARE_KANTE
 10
    1353.489990
 20
    1370.620239
 11
     972.506348
 21
    1360.643799
  0
LINE
  8
SICHTBARE_KANTE
 10
    1716.633789
 20
    1736.264038
 11
    1716.633789
 21
    1739.014038
  0
LINE
  8
SICHTBARE_KANTE
 10
    1725.633789
 20
    1736.264038
 11
    1716.633789
 21
    1736.264038
  0
LINE
  8
SICHTBARE_KANTE
 10
    1731.633789
 20
    1762.264038
 11
    1731.633789
 21
    1742.264038
  0
LINE
  8
SICHTBARE_KANTE
 10
     852.440186
 20
    1351.183350
 11
     910.826904
 21
    1351.183228
  0
LINE
  8
SICHTBARE_KANTE
 10
     910.825928
 20
    1348.183228
 11
     852.441162
 21
    1348.183350
  0
LINE
  8
SICHTBARE_KANTE
 10
     907.633545
 20
    1348.183228
 11
     907.633545
 21
    1351.183350
  0
LINE
  8
SICHTBARE_KANTE
 10
     855.633545
 20
    1351.183350
 11
     855.633545
 21
    1348.183350
  0
LINE
  8
SICHTBARE_KANTE
 10
    1725.445923
 20
    1768.261108
 11
    1687.119873
 21
    1767.057495
  0
LINE
  8
SICHTBARE_KANTE
 10
    2339.623779
 20
    1445.917236
 11
    2344.700684
 21
    1432.314453
  0
LINE
  8
SICHTBARE_KANTE
 10
    2212.633545
 20
    1739.264038
 11
    2221.633545
 21
    1739.264038
  0
LINE
  8
SICHTBARE_KANTE
 10
    2209.633545
 20
    1742.264038
 11
    2209.633545
 21
    1762.264038
  0
LINE
  8
SICHTBARE_KANTE
 10
    2244.214111
 20
    1763.529297
 11
    2212.797852
 21
    1765.259521
  0
LINE
  8
SICHTBARE_KANTE
 10
    2610.658936
 20
    1345.433350
 11
    2552.556152
 21
    1345.433350
  0
LINE
  8
SICHTBARE_KANTE
 10
    2552.608154
 20
    1348.433350
 11
    2610.710938
 21
    1348.433105
  0
LINE
  8
SICHTBARE_KANTE
 10
    2956.633301
 20
    1742.264038
 11
    2956.633301
 21
    1762.264038
  0
LINE
  8
SICHTBARE_KANTE
 10
    2950.633301
 20
    1736.264038
 11
    2941.633301
 21
    1736.264038
  0
LINE
  8
SICHTBARE_KANTE
 10
    2941.633301
 20
    1736.264038
 11
    2941.633301
 21
    1739.264038
  0
LINE
  8
SICHTBARE_KANTE
 10
    2918.887939
 20
    1766.524780
 11
    2950.303955
 21
    1768.255005
  0
LINE
  8
SICHTBARE_KANTE
 10
    2820.831787
 20
    1446.964233
 11
    2815.681641
 21
    1433.164795
  0
LINE
  8
SICHTBARE_KANTE
 10
    2823.643311
 20
    1445.917236
 11
    2818.566406
 21
    1432.314453
  0
LINE
  8
SICHTBARE_KANTE
 10
    2950.633301
 20
    1739.264038
 11
    2941.633301
 21
    1739.264038
  0
LINE
  8
SICHTBARE_KANTE
 10
    2953.633301
 20
    1742.264038
 11
    2953.633301
 21
    1762.264038
  0
LINE
  8
SICHTBARE_KANTE
 10
    2919.052734
 20
    1763.529297
 11
    2950.468750
 21
    1765.259521
  0
LINE
  8
SICHTBARE_KANTE
 10
    2552.608154
 20
    1345.433350
 11
    2610.710938
 21
    1345.433350
  0
LINE
  8
SICHTBARE_KANTE
 10
    1725.633789
 20
    1739.264038
 11
    1716.633789
 21
    1739.264038
  0
LINE
  8
SICHTBARE_KANTE
 10
    1728.633789
 20
    1762.264038
 11
    1728.633789
 21
    1742.264038
  0
LINE
  8
SICHTBARE_KANTE
 10
    1725.540161
 20
    1765.262573
 11
    1687.213989
 21
    1764.058960
  0
LINE
  8
SICHTBARE_KANTE
 10
     790.760742
 20
    1360.643799
 11
     837.731567
 21
    1359.964722
  0
LINE
  8
SICHTBARE_KANTE
 10
     925.675842
 20
    1359.965942
 11
     972.506348
 21
    1360.643799
  0
LINE
  8
SICHTBARE_KANTE
 10
     837.558105
 20
    1359.966064
 11
     925.708984
 21
    1359.966064
  0
LINE
  8
SICHTBARE_KANTE
 10
    1353.568604
 20
    1367.621216
 11
     972.584900
 21
    1357.644775
  0
LINE
  8
SICHTBARE_KANTE
 10
    2956.633301
 20
    1742.264038
 11
    2956.633301
 21
    1762.264038
  0
LINE
  8
SICHTBARE_KANTE
 10
    2610.658936
 20
    1348.433350
 11
    2552.556152
 21
    1348.433105
  0
LINE
  8
SICHTBARE_KANTE
 10
    2950.633301
 20
    1768.264038
 11
    2212.633545
 21
    1768.264038
  0
LINE
  8
SICHTBARE_KANTE
 10
    2950.633301
 20
    1736.264038
 11
    2941.633301
 21
    1736.264038
  0
LINE
  8
SICHTBARE_KANTE
 10
    2941.633301
 20
    1736.264038
 11
    2941.633301
 21
    1739.014038
  0
LINE
  8
SICHTBARE_KANTE
 10
    2918.887939
 20
    1766.524780
 11
    2950.303955
 21
    1768.255005
  0
LINE
  8
SICHTBARE_KANTE
 10
    2206.633545
 20
    1742.264038
 11
    2206.633545
 21
    1762.264038
  0
LINE
  8
SICHTBARE_KANTE
 10
    2212.633545
 20
    1736.264038
 11
    2221.633545
 21
    1736.264038
  0
LINE
  8
SICHTBARE_KANTE
 10
    2221.633545
 20
    1736.264038
 11
    2221.633545
 21
    1739.264038
  0
LINE
  8
SICHTBARE_KANTE
 10
    2244.379150
 20
    1766.524780
 11
    2212.962891
 21
    1768.255005
  0
LINE
  8
SICHTBARE_KANTE
 10
    2815.681641
 20
    1433.164795
 11
    2820.832764
 21
    1446.963867
  0
LINE
  8
SICHTBARE_KANTE
 10
    2342.435303
 20
    1446.964233
 11
    2347.585449
 21
    1433.164795
  0
LINE
  8
SICHTBARE_KANTE
 10
     925.578857
 20
    1356.965088
 11
     972.584900
 21
    1357.644775
  0
LINE
  8
SICHTBARE_KANTE
 10
     852.440186
 20
    1351.183350
 11
     910.826904
 21
    1351.183228
  0
LINE
  8
SICHTBARE_KANTE
 10
     907.633545
 20
    1348.433350
 11
     907.633545
 21
    1351.183350
  0
LINE
  8
SICHTBARE_KANTE
 10
     855.633545
 20
    1351.183350
 11
     855.633545
 21
    1348.433350
  0
LINE
  8
SICHTBARE_KANTE
 10
     409.777069
 20
    1370.620239
 11
     790.760742
 21
    1360.643799
  0
LINE
  8
SICHTBARE_KANTE
 10
      46.633354
 20
    1736.264038
 11
      46.633354
 21
    1739.014038
  0
LINE
  8
SICHTBARE_KANTE
 10
      37.633350
 20
    1736.264038
 11
      46.633354
 21
    1736.264038
  0
LINE
  8
SICHTBARE_KANTE
 10
      31.633350
 20
    1762.264038
 11
      31.633350
 21
    1742.264038
  0
LINE
  8
SICHTBARE_KANTE
 10
     910.826904
 20
    1351.183350
 11
     852.440186
 21
    1351.183228
  0
LINE
  8
SICHTBARE_KANTE
 10
     852.441162
 20
    1348.183228
 11
     910.825928
 21
    1348.183350
  0
LINE
  8
SICHTBARE_KANTE
 10
     855.633545
 20
    1348.183228
 11
     855.633545
 21
    1351.183350
  0
LINE
  8
SICHTBARE_KANTE
 10
     907.633545
 20
    1351.183350
 11
     907.633545
 21
    1348.183350
  0
LINE
  8
SICHTBARE_KANTE
 10
      37.821156
 20
    1768.261108
 11
      76.147263
 21
    1767.057495
  0
LINE
  8
SICHTBARE_KANTE
 10
      37.633350
 20
    1739.264038
 11
      46.633354
 21
    1739.264038
  0
LINE
  8
SICHTBARE_KANTE
 10
      34.633350
 20
    1762.264038
 11
      34.633350
 21
    1742.264038
  0
LINE
  8
SICHTBARE_KANTE
 10
      37.726978
 20
    1765.262573
 11
      76.053085
 21
    1764.058960
  0
LINE
  8
SICHTBARE_KANTE
 10
     972.506348
 20
    1360.643799
 11
     925.535522
 21
    1359.964722
  0
LINE
  8
SICHTBARE_KANTE
 10
     837.591248
 20
    1359.965942
 11
     790.760742
 21
    1360.643799
  0
LINE
  8
SICHTBARE_KANTE
 10
     925.708984
 20
    1359.966064
 11
     837.558105
 21
    1359.966064
  0
LINE
  8
SICHTBARE_KANTE
 10
     409.698547
 20
    1367.621216
 11
     790.682190
 21
    1357.644775
  0
LINE
  8
SICHTBARE_KANTE
 10
     837.688232
 20
    1356.965088
 11
     790.682190
 21
    1357.644775
  0
ARC
  8
SICHTBARE_KANTE
 10
      54.633591
 20
    1020.264221
 40
      22.999998
 50
      90.000000
 51
     180.000000
  0
ARC
  8
SICHTBARE_KANTE
 10
      54.633591
 20
     316.264252
 40
      22.999998
 50
     180.000000
 51
     270.000000
  0
ARC
  8
SICHTBARE_KANTE
 10
     197.474594
 20
     910.661743
 40
      69.999992
 50
      90.435883
 51
     137.755325
  0
ARC
  8
SICHTBARE_KANTE
 10
     178.878342
 20
     927.370422
 40
      44.999996
 50
     138.060364
 51
     179.007248
  0
ARC
  8
SICHTBARE_KANTE
 10
   15131.632812
 20
     668.264221
 40
   14999.999023
 50
     179.007263
 51
     180.992737
  0
ARC
  8
SICHTBARE_KANTE
 10
     197.474594
 20
     425.866699
 40
      69.999992
 50
     222.244659
 51
     269.564117
  0
ARC
  8
SICHTBARE_KANTE
 10
     178.878342
 20
     409.158020
 40
      44.999996
 50
     180.992737
 51
     221.939636
  0
ARC
  8
SICHTBARE_KANTE
 10
    1708.633545
 20
    1020.264221
 40
      22.999998
 50
       0.000000
 51
      90.000000
  0
ARC
  8
SICHTBARE_KANTE
 10
    1708.633545
 20
     316.264252
 40
      22.999998
 50
     270.000000
 51
       0.000000
  0
ARC
  8
SICHTBARE_KANTE
 10
     881.633545
 20
  -89016.734375
 40
   89999.992188
 50
      89.564102
 51
      90.435890
  0
ARC
  8
SICHTBARE_KANTE
 10
    1565.792480
 20
     910.661743
 40
      69.999992
 50
      42.244637
 51
      89.564064
  0
ARC
  8
SICHTBARE_KANTE
 10
    1584.388794
 20
     927.370422
 40
      44.999996
 50
       0.992749
 51
      41.939697
  0
ARC
  8
SICHTBARE_KANTE
 10
  -13368.365234
 20
     668.264221
 40
   14999.999023
 50
     359.007233
 51
       0.992741
  0
ARC
  8
SICHTBARE_KANTE
 10
    1565.792480
 20
     425.866699
 40
      69.999992
 50
     270.435913
 51
     317.755371
  0
ARC
  8
SICHTBARE_KANTE
 10
    1584.388794
 20
     409.158020
 40
      44.999996
 50
     318.060303
 51
     359.007233
  0
ARC
  8
SICHTBARE_KANTE
 10
     881.633545
 20
   90353.257812
 40
   89999.992188
 50
     269.564087
 51
     270.435883
  0
ARC
  8
SICHTBARE_KANTE
 10
     852.440674
 20
    1356.184082
 40
       5.000799
 50
     208.902451
 51
     269.994385
  0
ARC
  8
SICHTBARE_KANTE
 10
      37.632862
 20
    1742.263550
 40
       5.999504
 50
     179.995331
 51
     270.004669
  0
ARC
  8
SICHTBARE_KANTE
 10
      37.632862
 20
    1762.264526
 40
       5.999504
 50
      88.201492
 51
     180.004654
  0
ARC
  8
SICHTBARE_KANTE
 10
     910.825928
 20
    1356.184082
 40
       5.000799
 50
     270.011200
 51
     337.538116
  0
ARC
  8
SICHTBARE_KANTE
 10
    7601.786621
 20
    5823.728027
 40
    8499.999023
 50
     208.902985
 51
     211.252029
  0
ARC
  8
SICHTBARE_KANTE
 10
      73.008530
 20
    1667.106934
 40
      99.999992
 50
      28.902891
 51
      88.201340
  0
ARC
  8
SICHTBARE_KANTE
 10
     837.558105
 20
    1347.966064
 40
      11.999999
 50
      28.909000
 51
      89.841751
  0
ARC
  8
SICHTBARE_KANTE
 10
     412.132996
 20
    1460.589355
 40
      89.999992
 50
     211.251984
 51
     268.500000
  0
ARC
  8
SICHTBARE_KANTE
 10
     910.826416
 20
    1356.184082
 40
       5.000799
 50
     270.005585
 51
     331.097534
  0
ARC
  8
SICHTBARE_KANTE
 10
    1725.634277
 20
    1742.263550
 40
       5.999504
 50
     269.995331
 51
       0.004663
  0
ARC
  8
SICHTBARE_KANTE
 10
    1725.634277
 20
    1762.264526
 40
       5.999504
 50
     359.995331
 51
      91.799088
  0
ARC
  8
SICHTBARE_KANTE
 10
     852.441162
 20
    1356.184082
 40
       5.000799
 50
     202.461868
 51
     269.988800
  0
ARC
  8
SICHTBARE_KANTE
 10
   -5838.519531
 20
    5823.728027
 40
    8499.999023
 50
     328.747955
 51
     331.096985
  0
ARC
  8
SICHTBARE_KANTE
 10
    1690.258545
 20
    1667.106934
 40
      99.999992
 50
      91.798622
 51
     151.097092
  0
ARC
  8
SICHTBARE_KANTE
 10
     925.708984
 20
    1347.966064
 40
      11.999999
 50
      90.158241
 51
     151.090988
  0
ARC
  8
SICHTBARE_KANTE
 10
    1351.134155
 20
    1460.589355
 40
      89.999992
 50
     271.499939
 51
     328.748016
  0
ARC
  8
SICHTBARE_KANTE
 10
    2625.712891
 20
    1347.964600
 40
       9.251248
 50
      91.258118
 51
     149.995743
  0
ARC
  8
SICHTBARE_KANTE
 10
    2537.554199
 20
    1347.964600
 40
       9.251233
 50
      30.004255
 51
      88.741882
  0
ARC
  8
SICHTBARE_KANTE
 10
    2610.739014
 20
    1356.335449
 40
       7.902532
 50
     269.419403
 51
     329.362579
  0
ARC
  8
SICHTBARE_KANTE
 10
    2552.528076
 20
    1356.335449
 40
       7.902532
 50
     210.636505
 51
     270.582367
  0
ARC
  8
SICHTBARE_KANTE
 10
    1725.634277
 20
    1742.263550
 40
       2.999511
 50
     269.990662
 51
       0.009327
  0
ARC
  8
SICHTBARE_KANTE
 10
    1725.634277
 20
    1762.264526
 40
       2.999511
 50
     359.990662
 51
      91.798065
  0
ARC
  8
SICHTBARE_KANTE
 10
    1690.258545
 20
    1667.106934
 40
      96.999931
 50
      91.798645
 51
     151.097031
  0
ARC
  8
SICHTBARE_KANTE
 10
    1351.134155
 20
    1460.589355
 40
      92.999992
 50
     271.499969
 51
     328.747894
  0
ARC
  8
SICHTBARE_KANTE
 10
   -5838.519531
 20
    5823.728027
 40
    8502.999023
 50
     328.747955
 51
     331.096985
  0
ARC
  8
SICHTBARE_KANTE
 10
     910.826416
 20
    1356.184082
 40
       8.000796
 50
     269.996490
 51
     331.092743
  0
ARC
  8
SICHTBARE_KANTE
 10
     925.708984
 20
    1347.966064
 40
       8.999993
 50
      90.828438
 51
     151.093262
  0
ARC
  8
SICHTBARE_KANTE
 10
     910.826416
 20
    1356.184082
 40
       5.000799
 50
     270.005585
 51
     331.097534
  0
ARC
  8
SICHTBARE_KANTE
 10
     852.441162
 20
    1356.184082
 40
       5.000799
 50
     202.461868
 51
     269.988800
  0
ARC
  8
SICHTBARE_KANTE
 10
     925.708984
 20
    1347.966064
 40
      11.999999
 50
      90.158241
 51
     151.090988
  0
ARC
  8
SICHTBARE_KANTE
 10
     852.440674
 20
    1356.184082
 40
       5.000799
 50
     208.902451
 51
     269.994385
  0
ARC
  8
SICHTBARE_KANTE
 10
      37.632862
 20
    1742.263550
 40
       5.999504
 50
     179.995331
 51
     270.004669
  0
ARC
  8
SICHTBARE_KANTE
 10
      37.632862
 20
    1762.264526
 40
       5.999504
 50
      88.201492
 51
     180.004654
  0
ARC
  8
SICHTBARE_KANTE
 10
     910.825928
 20
    1356.184082
 40
       5.000799
 50
     270.011200
 51
     337.538116
  0
ARC
  8
SICHTBARE_KANTE
 10
    7601.786621
 20
    5823.728027
 40
    8499.999023
 50
     208.902985
 51
     211.252029
  0
ARC
  8
SICHTBARE_KANTE
 10
      73.008530
 20
    1667.106934
 40
      99.999992
 50
      28.902891
 51
      88.201340
  0
ARC
  8
SICHTBARE_KANTE
 10
     837.558105
 20
    1347.966064
 40
      11.999999
 50
      28.909000
 51
      89.841751
  0
ARC
  8
SICHTBARE_KANTE
 10
     412.132996
 20
    1460.589355
 40
      89.999992
 50
     211.251984
 51
     268.500000
  0
ARC
  8
SICHTBARE_KANTE
 10
      37.632862
 20
    1742.263550
 40
       2.999511
 50
     179.990677
 51
     270.009308
  0
ARC
  8
SICHTBARE_KANTE
 10
      37.632862
 20
    1762.264526
 40
       2.999511
 50
      88.201935
 51
     180.009323
  0
ARC
  8
SICHTBARE_KANTE
 10
      73.008530
 20
    1667.106934
 40
      96.999931
 50
      28.902927
 51
      88.201355
  0
ARC
  8
SICHTBARE_KANTE
 10
     412.132996
 20
    1460.589355
 40
      92.999992
 50
     211.252045
 51
     268.500000
  0
ARC
  8
SICHTBARE_KANTE
 10
    7601.786621
 20
    5823.728027
 40
    8502.999023
 50
     208.902985
 51
     211.252029
  0
ARC
  8
SICHTBARE_KANTE
 10
     852.440674
 20
    1356.184082
 40
       8.000796
 50
     208.907242
 51
     270.003479
  0
ARC
  8
SICHTBARE_KANTE
 10
     837.558105
 20
    1347.966064
 40
       8.999993
 50
      28.906736
 51
      89.171555
  0
ARC
  8
SICHTBARE_KANTE
 10
    2950.633789
 20
    1762.264526
 40
       5.999504
 50
     359.995331
 51
      93.151505
  0
ARC
  8
SICHTBARE_KANTE
 10
    2950.633789
 20
    1742.263550
 40
       5.999504
 50
     269.995331
 51
       0.004663
  0
ARC
  8
SICHTBARE_KANTE
 10
   -4147.047852
 20
    3260.423096
 40
    7199.999512
 50
     345.411835
 51
     347.832611
  0
ARC
  8
SICHTBARE_KANTE
 10
    2920.537598
 20
    1736.570190
 40
      29.999998
 50
      93.152206
 51
     167.832748
  0
ARC
  8
SICHTBARE_KANTE
 10
    2212.633057
 20
    1762.264526
 40
       5.999504
 50
      86.848488
 51
     180.004654
  0
ARC
  8
SICHTBARE_KANTE
 10
    2212.633057
 20
    1742.263550
 40
       5.999504
 50
     179.995331
 51
     270.004669
  0
ARC
  8
SICHTBARE_KANTE
 10
    9310.316406
 20
    3260.423096
 40
    7199.999512
 50
     192.167358
 51
     194.588150
  0
ARC
  8
SICHTBARE_KANTE
 10
    2242.729492
 20
    1736.570190
 40
      29.999998
 50
      12.167020
 51
      86.847794
  0
ARC
  8
SICHTBARE_KANTE
 10
    2581.633545
 20
    3403.000244
 40
    2046.112671
 50
     265.716125
 51
     274.283844
  0
ARC
  8
SICHTBARE_KANTE
 10
    2727.750732
 20
    1452.352417
 40
      89.999992
 50
     274.283752
 51
     347.690308
  0
ARC
  8
SICHTBARE_KANTE
 10
    2435.516357
 20
    1452.352417
 40
      89.999992
 50
     192.309692
 51
     265.716064
  0
ARC
  8
SICHTBARE_KANTE
 10
    9310.316406
 20
    3260.423096
 40
    7202.999512
 50
     192.167358
 51
     194.588135
  0
ARC
  8
SICHTBARE_KANTE
 10
    2342.434570
 20
    1446.966309
 40
       3.000191
 50
     194.599396
 51
     200.467087
  0
ARC
  8
SICHTBARE_KANTE
 10
    2435.516357
 20
    1452.352417
 40
      93.000031
 50
     192.442627
 51
     265.716064
  0
ARC
  8
SICHTBARE_KANTE
 10
    2212.633057
 20
    1762.264526
 40
       2.999532
 50
      86.850563
 51
     180.009323
  0
ARC
  8
SICHTBARE_KANTE
 10
    2212.633057
 20
    1742.263550
 40
       2.999511
 50
     179.990677
 51
     270.009308
  0
ARC
  8
SICHTBARE_KANTE
 10
    2242.729492
 20
    1736.570190
 40
      27.000591
 50
      12.167233
 51
      86.848015
  0
ARC
  8
SICHTBARE_KANTE
 10
    2552.528076
 20
    1356.335449
 40
      10.902135
 50
     209.206635
 51
     270.000000
  0
ARC
  8
SICHTBARE_KANTE
 10
    2537.554199
 20
    1347.964600
 40
       6.252704
 50
      29.206274
 51
      88.422585
  0
ARC
  8
SICHTBARE_KANTE
 10
    2606.567871
 20
    3853.266846
 40
    2499.999756
 50
     265.924896
 51
     268.422058
  0
ARC
  8
SICHTBARE_KANTE
 10
    2625.712891
 20
    1347.964600
 40
       9.251233
 50
      91.258118
 51
     149.995743
  0
ARC
  8
SICHTBARE_KANTE
 10
    2610.739014
 20
    1356.335449
 40
       7.902532
 50
     269.417633
 51
     329.362579
  0
ARC
  8
SICHTBARE_KANTE
 10
    2950.633789
 20
    1762.264526
 40
       5.999504
 50
     359.995331
 51
      93.151505
  0
ARC
  8
SICHTBARE_KANTE
 10
    2950.633789
 20
    1742.263550
 40
       5.999504
 50
     269.995331
 51
       0.004663
  0
ARC
  8
SICHTBARE_KANTE
 10
   -4147.048828
 20
    3260.423096
 40
    7199.999512
 50
     345.411835
 51
     347.832611
  0
ARC
  8
SICHTBARE_KANTE
 10
    2920.537598
 20
    1736.570190
 40
      29.999998
 50
      93.152206
 51
     167.832977
  0
ARC
  8
SICHTBARE_KANTE
 10
    2727.750732
 20
    1452.352417
 40
      89.999992
 50
     274.283752
 51
     347.690308
  0
ARC
  8
SICHTBARE_KANTE
 10
   -4147.048828
 20
    3260.423096
 40
    7202.999512
 50
     345.411835
 51
     347.832611
  0
ARC
  8
SICHTBARE_KANTE
 10
    2820.832520
 20
    1446.966309
 40
       3.000191
 50
     339.532898
 51
     345.400604
  0
ARC
  8
SICHTBARE_KANTE
 10
    2727.750732
 20
    1452.352417
 40
      93.000031
 50
     274.283783
 51
     347.557373
  0
ARC
  8
SICHTBARE_KANTE
 10
    2950.633789
 20
    1762.264526
 40
       2.999532
 50
     359.990662
 51
      93.154083
  0
ARC
  8
SICHTBARE_KANTE
 10
    2950.633789
 20
    1742.263550
 40
       2.999511
 50
     269.990662
 51
       0.009327
  0
ARC
  8
SICHTBARE_KANTE
 10
    2920.537598
 20
    1736.570190
 40
      27.000591
 50
      93.152504
 51
     167.832748
  0
ARC
  8
SICHTBARE_KANTE
 10
    2610.739014
 20
    1356.335449
 40
      10.902135
 50
     270.000000
 51
     330.793335
  0
ARC
  8
SICHTBARE_KANTE
 10
    2625.712891
 20
    1347.964600
 40
       6.252704
 50
      91.577415
 51
     150.793716
  0
ARC
  8
SICHTBARE_KANTE
 10
    2556.699219
 20
    3853.266846
 40
    2499.999756
 50
     271.577942
 51
     274.075104
  0
CIRCLE
  8
SICHTBARE_KANTE
 10
     881.633545
 20
     668.264221
 40
      25.999998
  0
POLYLINE
  8
SICHTBARE_KANTE
 66
     1
 10
       0.000000
 20
       0.000000
 30
       0.000000
  0
VERTEX
  8
SICHTBARE_KANTE
 10
     907.633545
 20
     373.264252
 30
       0.000000
  0
VERTEX
  8
SICHTBARE_KANTE
 10
     907.582214
 20
     373.703796
 30
       0.000000
  0
VERTEX
  8
SICHTBARE_KANTE
 10
     907.428528
 20
     374.141571
 30
       0.000000
  0
VERTEX
  8
SICHTBARE_KANTE
 10
     907.173035
 20
     374.575928
 30
       0.000000
  0
VERTEX
  8
SICHTBARE_KANTE
 10
     906.816711
 20
     375.005066
 30
       0.000000
  0
VERTEX
  8
SICHTBARE_KANTE
 10
     906.361023
 20
     375.427368
 30
       0.000000
  0
VERTEX
  8
SICHTBARE_KANTE
 10
     905.807739
 20
     375.841125
 30
       0.000000
  0
VERTEX
  8
SICHTBARE_KANTE
 10
     905.159058
 20
     376.244720
 30
       0.000000
  0
VERTEX
  8
SICHTBARE_KANTE
 10
     904.417542
 20
     376.636536
 30
       0.000000
  0
VERTEX
  8
SICHTBARE_KANTE
 10
     903.586060
 20
     377.015045
 30
       0.000000
  0
VERTEX
  8
SICHTBARE_KANTE
 10
     902.667969
 20
     377.378754
 30
       0.000000
  0
VERTEX
  8
SICHTBARE_KANTE
 10
     901.666870
 20
     377.726227
 30
       0.000000
  0
VERTEX
  8
SICHTBARE_KANTE
 10
     900.586731
 20
     378.056091
 30
       0.000000
  0
VERTEX
  8
SICHTBARE_KANTE
 10
     899.431763
 20
     378.367035
 30
       0.000000
  0
VERTEX
  8
SICHTBARE_KANTE
 10
     898.206543
 20
     378.657837
 30
       0.000000
  0
VERTEX
  8
SICHTBARE_KANTE
 10
     896.915955
 20
     378.927368
 30
       0.000000
  0
VERTEX
  8
SICHTBARE_KANTE
 10
     895.565063
 20
     379.174561
 30
       0.000000
  0
VERTEX
  8
SICHTBARE_KANTE
 10
     894.159119
 20
     379.398407
 30
       0.000000
  0
VERTEX
  8
SICHTBARE_KANTE
 10
     892.703796
 20
     379.598053
 30
       0.000000
  0
VERTEX
  8
SICHTBARE_KANTE
 10
     891.204773
 20
     379.772675
 30
       0.000000
  0
VERTEX
  8
SICHTBARE_KANTE
 10
     889.667969
 20
     379.921661
 30
       0.000000
  0
VERTEX
  8
SICHTBARE_KANTE
 10
     888.099487
 20
     380.044342
 30
       0.000000
  0
VERTEX
  8
SICHTBARE_KANTE
 10
     886.505432
 20
     380.140259
 30
       0.000000
  0
VERTEX
  8
SICHTBARE_KANTE
 10
     884.892212
 20
     380.209045
 30
       0.000000
  0
VERTEX
  8
SICHTBARE_KANTE
 10
     883.266113
 20
     380.250427
 30
       0.000000
  0
VERTEX
  8
SICHTBARE_KANTE
 10
     881.633545
 20
     380.264252
 30
       0.000000
  0
VERTEX
  8
SICHTBARE_KANTE
 10
     880.000977
 20
     380.250427
 30
       0.000000
  0
VERTEX
  8
SICHTBARE_KANTE
 10
     878.374878
 20
     380.209045
 30
       0.000000
  0
VERTEX
  8
SICHTBARE_KANTE
 10
     876.761658
 20
     380.140259
 30
       0.000000
  0
VERTEX
  8
SICHTBARE_KANTE
 10
     875.167603
 20
     380.044342
 30
       0.000000
  0
VERTEX
  8
SICHTBARE_KANTE
 10
     873.599121
 20
     379.921661
 30
       0.000000
  0
VERTEX
  8
SICHTBARE_KANTE
 10
     872.062317
 20
     379.772675
 30
       0.000000
  0
VERTEX
  8
SICHTBARE_KANTE
 10
     870.563293
 20
     379.598053
 30
       0.000000
  0
VERTEX
  8
SICHTBARE_KANTE
 10
     869.107971
 20
     379.398407
 30
       0.000000
  0
VERTEX
  8
SICHTBARE_KANTE
 10
     867.702026
 20
     379.174561
 30
       0.000000
  0
VERTEX
  8
SICHTBARE_KANTE
 10
     866.351135
 20
     378.927368
 30
       0.000000
  0
VERTEX
  8
SICHTBARE_KANTE
 10
     865.060547
 20
     378.657837
 30
       0.000000
  0
VERTEX
  8
SICHTBARE_KANTE
 10
     863.835327
 20
     378.367035
 30
       0.000000
  0
VERTEX
  8
SICHTBARE_KANTE
 10
     862.680359
 20
     378.056091
 30
       0.000000
  0
VERTEX
  8
SICHTBARE_KANTE
 10
     861.600220
 20
     377.726227
 30
       0.000000
  0
VERTEX
  8
SICHTBARE_KANTE
 10
     860.599121
 20
     377.378754
 30
       0.000000
  0
VERTEX
  8
SICHTBARE_KANTE
 10
     859.681030
 20
     377.015045
 30
       0.000000
  0
VERTEX
  8
SICHTBARE_KANTE
 10
     858.849548
 20
     376.636536
 30
       0.000000
  0
VERTEX
  8
SICHTBARE_KANTE
 10
     858.108032
 20
     376.244720
 30
       0.000000
  0
VERTEX
  8
SICHTBARE_KANTE
 10
     857.459351
 20
     375.841125
 30
       0.000000
  0
VERTEX
  8
SICHTBARE_KANTE
 10
     856.906067
 20
     375.427368
 30
       0.000000
  0
VERTEX
  8
SICHTBARE_KANTE
 10
     856.450378
 20
     375.005066
 30
       0.000000
  0
VERTEX
  8
SICHTBARE_KANTE
 10
     856.094055
 20
     374.575928
 30
       0.000000
  0
SEQEND
  8
SICHTBARE_KANTE
  0
POLYLINE
  8
SICHTBARE_KANTE
 66
     1
 10
       0.000000
 20
       0.000000
 30
       0.000000
  0
VERTEX
  8
SICHTBARE_KANTE
 10
     856.094055
 20
     374.575928
 30
       0.000000
  0
VERTEX
  8
SICHTBARE_KANTE
 10
     855.838562
 20
     374.141571
 30
       0.000000
  0
VERTEX
  8
SICHTBARE_KANTE
 10
     855.684875
 20
     373.703796
 30
       0.000000
  0
VERTEX
  8
SICHTBARE_KANTE
 10
     855.633545
 20
     373.264252
 30
       0.000000
  0
VERTEX
  8
SICHTBARE_KANTE
 10
     855.684875
 20
     372.824707
 30
       0.000000
  0
VERTEX
  8
SICHTBARE_KANTE
 10
     855.838562
 20
     372.386932
 30
       0.000000
  0
VERTEX
  8
SICHTBARE_KANTE
 10
     856.094055
 20
     371.952576
 30
       0.000000
  0
VERTEX
  8
SICHTBARE_KANTE
 10
     856.450378
 20
     371.523438
 30
       0.000000
  0
VERTEX
  8
SICHTBARE_KANTE
 10
     856.906067
 20
     371.101135
 30
       0.000000
  0
VERTEX
  8
SICHTBARE_KANTE
 10
     857.459351
 20
     370.687378
 30
       0.000000
  0
VERTEX
  8
SICHTBARE_KANTE
 10
     858.108032
 20
     370.283783
 30
       0.000000
  0
VERTEX
  8
SICHTBARE_KANTE
 10
     858.849548
 20
     369.891968
 30
       0.000000
  0
VERTEX
  8
SICHTBARE_KANTE
 10
     859.681030
 20
     369.513458
 30
       0.000000
  0
VERTEX
  8
SICHTBARE_KANTE
 10
     860.599121
 20
     369.149750
 30
       0.000000
  0
VERTEX
  8
SICHTBARE_KANTE
 10
     861.600220
 20
     368.802277
 30
       0.000000
  0
VERTEX
  8
SICHTBARE_KANTE
 10
     862.680359
 20
     368.472412
 30
       0.000000
  0
VERTEX
  8
SICHTBARE_KANTE
 10
     863.835327
 20
     368.161469
 30
       0.000000
  0
VERTEX
  8
SICHTBARE_KANTE
 10
     865.060547
 20
     367.870667
 30
       0.000000
  0
VERTEX
  8
SICHTBARE_KANTE
 10
     866.351135
 20
     367.601135
 30
       0.000000
  0
VERTEX
  8
SICHTBARE_KANTE
 10
     867.702026
 20
     367.353943
 30
       0.000000
  0
VERTEX
  8
SICHTBARE_KANTE
 10
     869.107971
 20
     367.130096
 30
       0.000000
  0
VERTEX
  8
SICHTBARE_KANTE
 10
     870.563293
 20
     366.930450
 30
       0.000000
  0
VERTEX
  8
SICHTBARE_KANTE
 10
     872.062317
 20
     366.755829
 30
       0.000000
  0
VERTEX
  8
SICHTBARE_KANTE
 10
     873.599121
 20
     366.606842
 30
       0.000000
  0
VERTEX
  8
SICHTBARE_KANTE
 10
     875.167603
 20
     366.484161
 30
       0.000000
  0
VERTEX
  8
SICHTBARE_KANTE
 10
     876.761658
 20
     366.388245
 30
       0.000000
  0
VERTEX
  8
SICHTBARE_KANTE
 10
     878.374878
 20
     366.319458
 30
       0.000000
  0
VERTEX
  8
SICHTBARE_KANTE
 10
     880.000977
 20
     366.278076
 30
       0.000000
  0
VERTEX
  8
SICHTBARE_KANTE
 10
     881.633545
 20
     366.264252
 30
       0.000000
  0
VERTEX
  8
SICHTBARE_KANTE
 10
     883.266113
 20
     366.278076
 30
       0.000000
  0
VERTEX
  8
SICHTBARE_KANTE
 10
     884.892212
 20
     366.319458
 30
       0.000000
  0
VERTEX
  8
SICHTBARE_KANTE
 10
     886.505432
 20
     366.388245
 30
       0.000000
  0
VERTEX
  8
SICHTBARE_KANTE
 10
     888.099487
 20
     366.484161
 30
       0.000000
  0
VERTEX
  8
SICHTBARE_KANTE
 10
     889.667969
 20
     366.606842
 30
       0.000000
  0
VERTEX
  8
SICHTBARE_KANTE
 10
     891.204773
 20
     366.755829
 30
       0.000000
  0
VERTEX
  8
SICHTBARE_KANTE
 10
     892.703796
 20
     366.930450
 30
       0.000000
  0
VERTEX
  8
SICHTBARE_KANTE
 10
     894.159119
 20
     367.130096
 30
       0.000000
  0
VERTEX
  8
SICHTBARE_KANTE
 10
     895.565063
 20
     367.353943
 30
       0.000000
  0
VERTEX
  8
SICHTBARE_KANTE
 10
     896.915955
 20
     367.601135
 30
       0.000000
  0
VERTEX
  8
SICHTBARE_KANTE
 10
     898.206543
 20
     367.870667
 30
       0.000000
  0
VERTEX
  8
SICHTBARE_KANTE
 10
     899.431763
 20
     368.161469
 30
       0.000000
  0
VERTEX
  8
SICHTBARE_KANTE
 10
     900.586731
 20
     368.472412
 30
       0.000000
  0
VERTEX
  8
SICHTBARE_KANTE
 10
     901.666870
 20
     368.802277
 30
       0.000000
  0
VERTEX
  8
SICHTBARE_KANTE
 10
     902.667969
 20
     369.149750
 30
       0.000000
  0
VERTEX
  8
SICHTBARE_KANTE
 10
     903.586060
 20
     369.513458
 30
       0.000000
  0
VERTEX
  8
SICHTBARE_KANTE
 10
     904.417542
 20
     369.891968
 30
       0.000000
  0
VERTEX
  8
SICHTBARE_KANTE
 10
     905.159058
 20
     370.283783
 30
       0.000000
  0
VERTEX
  8
SICHTBARE_KANTE
 10
     905.807739
 20
     370.687378
 30
       0.000000
  0
SEQEND
  8
SICHTBARE_KANTE
  0
POLYLINE
  8
SICHTBARE_KANTE
 66
     1
 10
       0.000000
 20
       0.000000
 30
       0.000000
  0
VERTEX
  8
SICHTBARE_KANTE
 10
     905.807739
 20
     370.687378
 30
       0.000000
  0
VERTEX
  8
SICHTBARE_KANTE
 10
     906.361023
 20
     371.101135
 30
       0.000000
  0
VERTEX
  8
SICHTBARE_KANTE
 10
     906.816711
 20
     371.523438
 30
       0.000000
  0
VERTEX
  8
SICHTBARE_KANTE
 10
     907.173035
 20
     371.952576
 30
       0.000000
  0
VERTEX
  8
SICHTBARE_KANTE
 10
     907.428528
 20
     372.386932
 30
       0.000000
  0
VERTEX
  8
SICHTBARE_KANTE
 10
     907.582214
 20
     372.824707
 30
       0.000000
  0
VERTEX
  8
SICHTBARE_KANTE
 10
     907.633545
 20
     373.264252
 30
       0.000000
  0
SEQEND
  8
SICHTBARE_KANTE
  0
TEXT
  8
2D-TEXT
 10
    3014.966797
 20
     734.930237
 40
      66.666664
 50
       0.000038
 51
       0.000000
 41
       0.910000
  1
Tiefe
  7
DIN-6776
 72
     5
 11
    3181.800049
 21
     734.930359
  0
TEXT
  8
2D-TEXT
 10
    2681.634521
 20
     734.930237
 40
      66.666664
 50
       0.000065
 51
       0.000000
 41
       0.910000
  1
Breite
  7
DIN-6776
 72
     5
 11
    2880.404541
 21
     734.930481
  0
TEXT
  8
2D-TEXT
 10
    2348.300537
 20
     734.930237
 40
      66.666664
 50
       0.000054
 51
       0.000000
 41
       0.910000
  1
Laenge
  7
DIN-6776
 72
     5
 11
    2590.967285
 21
     734.930481
  0
TEXT
  8
2D-TEXT
 10
    2014.966919
 20
     734.929993
 40
      66.666664
 50
       0.000062
 51
       0.000000
 41
       0.910000
  1
Modell
  7
DIN-6776
 72
     5
 11
    2222.967041
 21
     734.930237
  0
TEXT
  8
2D-TEXT
 10
    2014.967896
 20
     534.930237
 40
      66.666664
 50
       0.000054
 51
       0.000000
 41
       0.910000
  1
663
  7
DIN-6776
 72
     5
 11
    2127.634521
 21
     534.930359
  0
TEXT
  8
2D-TEXT
 10
    2348.302002
 20
     534.930725
 40
      66.666664
 50
       0.000043
 51
       0.000000
 41
       0.910000
  1
1700
  7
DIN-6776
 72
     5
 11
    2493.468750
 21
     534.930847
  0
TEXT
  8
2D-TEXT
 10
    2688.301025
 20
     534.930725
 40
      66.666664
 50
       0.000054
 51
       0.000000
 41
       0.910000
  1
750
  7
DIN-6776
 72
     5
 11
    2800.967773
 21
     534.930847
  0
TEXT
  8
2D-TEXT
 10
    3021.634766
 20
     534.930725
 40
      66.666664
 50
       0.000054
 51
       0.000000
 41
       0.910000
  1
420
  7
DIN-6776
 72
     5
 11
    3134.301514
 21
     534.930847
  0
TEXT
  8
2D-TEXT
 10
    2401.790283
 20
     895.245178
 40
     100.000000
 50
       0.000060
 51
       0.000000
 41
       0.746667
  1
PURO DUO
  7
DIN-6776
 72
     5
 11
    2844.456787
 21
     895.245667
  0
ENDSEC
  0
EOF
